  0
SECTION
  2
HEADER
  9
$ACADVER
  1
AC1014
  9
$ACADMAINTVER
 70
     9
  9
$DWGCODEPAGE
  3
ANSI_1250
  9
$INSBASE
 10
0.0
 20
0.0
 30
0.0
  9
$EXTMIN
 10
-17.2799
 20
-32.5422
 30
0.0
  9
$EXTMAX
 10
17.2802
 20
32.4605
 30
0.0
  9
$LIMMIN
 10
0.0
 20
0.0
  9
$LIMMAX
 10
12.0
 20
9.0
  9
$ORTHOMODE
 70
     0
  9
$REGENMODE
 70
     1
  9
$FILLMODE
 70
     1
  9
$QTEXTMODE
 70
     0
  9
$MIRRTEXT
 70
     1
  9
$DRAGMODE
 70
     2
  9
$LTSCALE
 40
1.0
  9
$OSMODE
 70
    37
  9
$ATTMODE
 70
     1
  9
$TEXTSIZE
 40
0.2
  9
$TRACEWID
 40
0.05
  9
$TEXTSTYLE
  7
STANDARD
  9
$CLAYER
  8
0
  9
$CELTYPE
  6
BYLAYER
  9
$CECOLOR
 62
   256
  9
$CELTSCALE
 40
1.0
  9
$DELOBJ
 70
     1
  9
$DISPSILH
 70
     0
  9
$DIMSCALE
 40
1.0
  9
$DIMASZ
 40
0.18
  9
$DIMEXO
 40
0.0625
  9
$DIMDLI
 40
0.38
  9
$DIMRND
 40
0.0
  9
$DIMDLE
 40
0.0
  9
$DIMEXE
 40
0.18
  9
$DIMTP
 40
0.0
  9
$DIMTM
 40
0.0
  9
$DIMTXT
 40
0.18
  9
$DIMCEN
 40
0.09
  9
$DIMTSZ
 40
0.0
  9
$DIMTOL
 70
     0
  9
$DIMLIM
 70
     0
  9
$DIMTIH
 70
     1
  9
$DIMTOH
 70
     1
  9
$DIMSE1
 70
     0
  9
$DIMSE2
 70
     0
  9
$DIMTAD
 70
     0
  9
$DIMZIN
 70
     0
  9
$DIMBLK
  1

  9
$DIMASO
 70
     1
  9
$DIMSHO
 70
     1
  9
$DIMPOST
  1

  9
$DIMAPOST
  1

  9
$DIMALT
 70
     0
  9
$DIMALTD
 70
     2
  9
$DIMALTF
 40
25.4
  9
$DIMLFAC
 40
1.0
  9
$DIMTOFL
 70
     0
  9
$DIMTVP
 40
0.0
  9
$DIMTIX
 70
     0
  9
$DIMSOXD
 70
     0
  9
$DIMSAH
 70
     0
  9
$DIMBLK1
  1

  9
$DIMBLK2
  1

  9
$DIMSTYLE
  2
STANDARD
  9
$DIMCLRD
 70
     0
  9
$DIMCLRE
 70
     0
  9
$DIMCLRT
 70
     0
  9
$DIMTFAC
 40
1.0
  9
$DIMGAP
 40
0.09
  9
$DIMJUST
 70
     0
  9
$DIMSD1
 70
     0
  9
$DIMSD2
 70
     0
  9
$DIMTOLJ
 70
     1
  9
$DIMTZIN
 70
     0
  9
$DIMALTZ
 70
     0
  9
$DIMALTTZ
 70
     0
  9
$DIMFIT
 70
     3
  9
$DIMUPT
 70
     0
  9
$DIMUNIT
 70
     2
  9
$DIMDEC
 70
     4
  9
$DIMTDEC
 70
     4
  9
$DIMALTU
 70
     2
  9
$DIMALTTD
 70
     2
  9
$DIMTXSTY
  7
STANDARD
  9
$DIMAUNIT
 70
     0
  9
$LUNITS
 70
     2
  9
$LUPREC
 70
     4
  9
$SKETCHINC
 40
0.1
  9
$FILLETRAD
 40
0.5
  9
$AUNITS
 70
     0
  9
$AUPREC
 70
     0
  9
$MENU
  1
.
  9
$ELEVATION
 40
0.0
  9
$PELEVATION
 40
0.0
  9
$THICKNESS
 40
0.0
  9
$LIMCHECK
 70
     0
  9
$CHAMFERA
 40
0.5
  9
$CHAMFERB
 40
0.5
  9
$CHAMFERC
 40
1.0
  9
$CHAMFERD
 40
0.0
  9
$SKPOLY
 70
     0
  9
$TDCREATE
 40
2456223.341253056
  9
$TDUPDATE
 40
2456223.341253067
  9
$TDINDWG
 40
0.0000000116
  9
$TDUSRTIMER
 40
0.0000000116
  9
$USRTIMER
 70
     1
  9
$ANGBASE
 50
0.0
  9
$ANGDIR
 70
     0
  9
$PDMODE
 70
     0
  9
$PDSIZE
 40
0.0
  9
$PLINEWID
 40
0.0
  9
$COORDS
 70
     1
  9
$SPLFRAME
 70
     0
  9
$SPLINETYPE
 70
     6
  9
$SPLINESEGS
 70
     8
  9
$ATTDIA
 70
     0
  9
$ATTREQ
 70
     1
  9
$HANDLING
 70
     1
  9
$HANDSEED
  5
B1
  9
$SURFTAB1
 70
     6
  9
$SURFTAB2
 70
     6
  9
$SURFTYPE
 70
     6
  9
$SURFU
 70
     6
  9
$SURFV
 70
     6
  9
$UCSNAME
  2

  9
$UCSORG
 10
0.0
 20
0.0
 30
0.0
  9
$UCSXDIR
 10
1.0
 20
0.0
 30
0.0
  9
$UCSYDIR
 10
0.0
 20
1.0
 30
0.0
  9
$PUCSNAME
  2

  9
$PUCSORG
 10
0.0
 20
0.0
 30
0.0
  9
$PUCSXDIR
 10
1.0
 20
0.0
 30
0.0
  9
$PUCSYDIR
 10
0.0
 20
1.0
 30
0.0
  9
$USERI1
 70
     0
  9
$USERI2
 70
     0
  9
$USERI3
 70
     0
  9
$USERI4
 70
     0
  9
$USERI5
 70
     0
  9
$USERR1
 40
0.0
  9
$USERR2
 40
0.0
  9
$USERR3
 40
0.0
  9
$USERR4
 40
0.0
  9
$USERR5
 40
0.0
  9
$WORLDVIEW
 70
     1
  9
$SHADEDGE
 70
     3
  9
$SHADEDIF
 70
    70
  9
$TILEMODE
 70
     1
  9
$MAXACTVP
 70
    64
  9
$PINSBASE
 10
0.0
 20
0.0
 30
0.0
  9
$PLIMCHECK
 70
     0
  9
$PEXTMIN
 10
1.000000000000000E+20
 20
1.000000000000000E+20
 30
1.000000000000000E+20
  9
$PEXTMAX
 10
-1.000000000000000E+20
 20
-1.000000000000000E+20
 30
-1.000000000000000E+20
  9
$PLIMMIN
 10
0.0
 20
0.0
  9
$PLIMMAX
 10
12.0
 20
9.0
  9
$UNITMODE
 70
     0
  9
$VISRETAIN
 70
     1
  9
$PLINEGEN
 70
     0
  9
$PSLTSCALE
 70
     1
  9
$TREEDEPTH
 70
  3020
  9
$PICKSTYLE
 70
     1
  9
$CMLSTYLE
  2
STANDARD
  9
$CMLJUST
 70
     0
  9
$CMLSCALE
 40
1.0
  9
$PROXYGRAPHICS
 70
     1
  9
$MEASUREMENT
 70
     0
  0
ENDSEC
  0
SECTION
  2
CLASSES
  0
CLASS
  1
ACDBDICTIONARYWDFLT
  2
AcDbDictionaryWithDefault
  3
ObjectDBX Classes
 90
        0
280
     0
281
     0
  0
CLASS
  1
VISUALSTYLE
  2
AcDbVisualStyle
  3
ObjectDBX Classes
 90
     4095
280
     0
281
     0
  0
CLASS
  1
MATERIAL
  2
AcDbMaterial
  3
ObjectDBX Classes
 90
     1153
280
     0
281
     0
  0
CLASS
  1
DICTIONARYVAR
  2
AcDbDictionaryVar
  3
ObjectDBX Classes
 90
        0
280
     0
281
     0
  0
CLASS
  1
XRECORD
  2
AcDbXrecord
  3
AutoCAD 2000
 90
        0
280
     0
281
     0
  0
CLASS
  1
LWPOLYLINE
  2
AcDbPolyline
  3
AutoCAD 2000
 90
        0
280
     0
281
     1
  0
CLASS
  1
HATCH
  2
AcDbHatch
  3
AutoCAD 2000
 90
        0
280
     0
281
     1
  0
CLASS
  1
ACDBPLACEHOLDER
  2
AcDbPlaceHolder
  3
ObjectDBX Classes
 90
        0
280
     0
281
     0
  0
CLASS
  1
LAYOUT
  2
AcDbLayout
  3
ObjectDBX Classes
 90
        0
280
     0
281
     0
  0
ENDSEC
  0
SECTION
  2
TABLES
  0
TABLE
  2
VPORT
  5
8
330
0
100
AcDbSymbolTable
 70
     1
  0
VPORT
  5
29
330
8
100
AcDbSymbolTableRecord
100
AcDbViewportTableRecord
  2
*ACTIVE
 70
     0
 10
0.0
 20
0.0
 11
1.0
 21
1.0
 12
10.42990654205607
 22
4.5
 13
0.0
 23
0.0
 14
0.5
 24
0.5
 15
0.5
 25
0.5
 16
0.0
 26
0.0
 36
1.0
 17
0.0
 27
0.0
 37
0.0
 40
9.0
 41
1.972972972850329
 42
50.0
 43
0.0
 44
0.0
 50
0.0
 51
0.0
 71
     0
 72
   100
 73
     1
 74
     3
 75
     0
 76
     0
 77
     0
 78
     0
  0
ENDTAB
  0
TABLE
  2
LTYPE
  5
5
330
0
100
AcDbSymbolTable
 70
     2
  0
LTYPE
  5
14
330
5
100
AcDbSymbolTableRecord
100
AcDbLinetypeTableRecord
  2
BYBLOCK
 70
     0
  3

 72
    65
 73
     0
 40
0.0
  0
LTYPE
  5
15
330
5
100
AcDbSymbolTableRecord
100
AcDbLinetypeTableRecord
  2
BYLAYER
 70
     0
  3

 72
    65
 73
     0
 40
0.0
  0
LTYPE
  5
16
330
5
100
AcDbSymbolTableRecord
100
AcDbLinetypeTableRecord
  2
CONTINUOUS
 70
     0
  3
Solid line
 72
    65
 73
     0
 40
0.0
  0
LTYPE
  5
4C
330
5
100
AcDbSymbolTableRecord
100
AcDbLinetypeTableRecord
  2
NEW_LINE1
 70
     0
  3

 72
    65
 73
     4
 40
1.2
 49
0.5
 74
     4
 75
     0
340
0
 46
1.0
 50
0.0
 44
0.0
 45
0.0
 49
-0.3
 74
     4
 75
     0
340
0
 46
1.0
 50
0.0
 44
0.0
 45
0.0
 49
0.1
 74
     4
 75
     0
340
0
 46
1.0
 50
0.0
 44
0.0
 45
0.0
 49
-0.3
 74
     4
 75
     0
340
0
 46
1.0
 50
0.0
 44
0.0
 45
0.0
  0
ENDTAB
  0
TABLE
  2
LAYER
  5
2
330
0
100
AcDbSymbolTable
 70
     2
  0
LAYER
  5
10
330
2
100
AcDbSymbolTableRecord
100
AcDbLayerTableRecord
  2
0
 70
     0
 62
     7
  6
CONTINUOUS
  0
LAYER
  5
40
330
2
100
AcDbSymbolTableRecord
100
AcDbLayerTableRecord
  2
VRSTVA_1
 70
     0
 62
     7
  6
CONTINUOUS
  0
ENDTAB
  0
TABLE
  2
STYLE
  5
3
330
0
100
AcDbSymbolTable
 70
     1
  0
STYLE
  5
11
330
3
100
AcDbSymbolTableRecord
100
AcDbTextStyleTableRecord
  2
STANDARD
 70
     0
 40
0.0
 41
1.0
 50
0.0
 71
     0
 42
0.2
  3
txt
  4

  0
ENDTAB
  0
TABLE
  2
VIEW
  5
6
330
0
100
AcDbSymbolTable
 70
     0
  0
ENDTAB
  0
TABLE
  2
UCS
  5
7
330
0
100
AcDbSymbolTable
 70
     0
  0
ENDTAB
  0
TABLE
  2
APPID
  5
9
330
0
100
AcDbSymbolTable
 70
     2
  0
APPID
  5
12
330
9
100
AcDbSymbolTableRecord
100
AcDbRegAppTableRecord
  2
ACAD
 70
     0
  0
APPID
  5
3F
330
9
100
AcDbSymbolTableRecord
100
AcDbRegAppTableRecord
  2
ODA
 70
     0
  0
ENDTAB
  0
TABLE
  2
DIMSTYLE
  5
A
330
0
100
AcDbSymbolTable
 70
     1
  0
DIMSTYLE
105
27
330
A
100
AcDbSymbolTableRecord
100
AcDbDimStyleTableRecord
  2
STANDARD
 70
     0
  3

  4

  5

  6

  7

 40
1.0
 41
0.18
 42
0.0625
 43
0.38
 44
0.18
 45
0.0
 46
0.0
 47
0.0
 48
0.0
140
0.18
141
0.09
142
0.0
143
25.4
144
1.0
145
0.0
146
1.0
147
0.09
 71
     0
 72
     0
 73
     1
 74
     1
 75
     0
 76
     0
 77
     0
 78
     0
170
     0
171
     2
172
     0
173
     0
174
     0
175
     0
176
     0
177
     0
178
     0
270
     2
271
     4
272
     4
273
     2
274
     2
340
11
275
     0
280
     0
281
     0
282
     0
283
     1
284
     0
285
     0
286
     0
287
     3
288
     0
  0
ENDTAB
  0
TABLE
  2
BLOCK_RECORD
  5
1
330
0
100
AcDbSymbolTable
 70
     1
  0
BLOCK_RECORD
  5
1F
330
1
100
AcDbSymbolTableRecord
100
AcDbBlockTableRecord
  2
*MODEL_SPACE
  0
BLOCK_RECORD
  5
1B
330
1
100
AcDbSymbolTableRecord
100
AcDbBlockTableRecord
  2
*PAPER_SPACE
  0
ENDTAB
  0
ENDSEC
  0
SECTION
  2
BLOCKS
  0
BLOCK
  5
20
330
1F
100
AcDbEntity
  8
0
100
AcDbBlockBegin
  2
*MODEL_SPACE
 70
     0
 10
0.0
 20
0.0
 30
0.0
  3
*MODEL_SPACE
  1

  0
ENDBLK
  5
21
330
1F
100
AcDbEntity
  8
0
100
AcDbBlockEnd
  0
BLOCK
  5
1C
330
1B
100
AcDbEntity
 67
     1
  8
0
100
AcDbBlockBegin
  2
*PAPER_SPACE
 70
     0
 10
0.0
 20
0.0
 30
0.0
  3
*PAPER_SPACE
  1

  0
ENDBLK
  5
1D
330
1B
100
AcDbEntity
 67
     1
  8
0
100
AcDbBlockEnd
  0
ENDSEC
  0
SECTION
  2
ENTITIES
  0
SPLINE
  5
41
330
1F
100
AcDbEntity
  8
VRSTVA_1
 62
   250
100
AcDbSpline
210
0.0
220
0.0
230
1.0
 70
    24
 71
     3
 72
     8
 73
     4
 74
     0
 42
0.0000000001
 43
0.0000000001
 40
0.0
 40
0.0
 40
0.0
 40
0.0
 40
1.0
 40
1.0
 40
1.0
 40
1.0
 10
17.2802
 20
-6.2788
 30
0.0
 10
17.2802
 20
-6.2788
 30
0.0
 10
-9.1642
 20
-6.2788
 30
0.0
 10
-9.1642
 20
-6.2788
 30
0.0
  0
SPLINE
  5
42
330
1F
100
AcDbEntity
  8
VRSTVA_1
 62
   250
100
AcDbSpline
210
0.0
220
0.0
230
1.0
 70
     8
 71
     3
 72
    40
 73
    36
 74
     0
 42
0.0000000001
 43
0.0000000001
 40
0.0
 40
0.0
 40
0.0
 40
0.0
 40
0.1
 40
0.1
 40
0.1
 40
0.1
 40
0.2
 40
0.2
 40
0.2
 40
0.2
 40
0.3
 40
0.3
 40
0.3
 40
0.3
 40
0.4
 40
0.4
 40
0.4
 40
0.4
 40
0.5
 40
0.5
 40
0.5
 40
0.5
 40
0.6
 40
0.6
 40
0.6
 40
0.6
 40
0.7
 40
0.7
 40
0.7
 40
0.7
 40
0.8
 40
0.8
 40
0.8
 40
0.8
 40
1.0
 40
1.0
 40
1.0
 40
1.0
 10
0.9845
 20
11.8209
 30
0.0
 10
0.9845
 20
11.8209
 30
0.0
 10
0.9584
 20
20.5009
 30
0.0
 10
0.9584
 20
20.5009
 30
0.0
 10
0.9584
 20
20.5009
 30
0.0
 10
0.9584
 20
20.5009
 30
0.0
 10
6.9797
 20
20.4748
 30
0.0
 10
6.9797
 20
20.4748
 30
0.0
 10
6.9797
 20
20.4748
 30
0.0
 10
6.9797
 20
20.4748
 30
0.0
 10
0.9324
 20
20.5009
 30
0.0
 10
0.9324
 20
20.5009
 30
0.0
 10
0.9324
 20
20.5009
 30
0.0
 10
0.9324
 20
20.5009
 30
0.0
 10
0.3068
 20
21.6217
 30
0.0
 10
0.3068
 20
21.6217
 30
0.0
 10
0.3068
 20
21.6217
 30
0.0
 10
0.3068
 20
21.6217
 30
0.0
 10
0.3149
 20
23.8274
 30
0.0
 10
0.3149
 20
23.8274
 30
0.0
 10
0.3149
 20
23.8274
 30
0.0
 10
0.3149
 20
23.8274
 30
0.0
 10
7.4944
 20
23.8274
 30
0.0
 10
7.4944
 20
23.8274
 30
0.0
 10
7.4944
 20
23.8274
 30
0.0
 10
7.4944
 20
23.8274
 30
0.0
 10
7.527
 20
21.6478
 30
0.0
 10
7.527
 20
21.6478
 30
0.0
 10
7.527
 20
21.6478
 30
0.0
 10
7.527
 20
21.6478
 30
0.0
 10
6.8754
 20
20.4227
 30
0.0
 10
6.8754
 20
20.4227
 30
0.0
 10
6.8754
 20
20.4227
 30
0.0
 10
6.8754
 20
20.4227
 30
0.0
 10
6.7972
 20
11.7688
 30
0.0
 10
6.7972
 20
11.7688
 30
0.0
  0
SPLINE
  5
43
330
1F
100
AcDbEntity
  8
VRSTVA_1
 62
   250
100
AcDbSpline
210
0.0
220
0.0
230
1.0
 70
    11
 71
     3
 72
    84
 73
    80
 74
     0
 42
0.0000000001
 43
0.0000000001
 40
0.0
 40
0.0
 40
0.0
 40
0.0
 40
0.0476190476190476
 40
0.0476190476190476
 40
0.0476190476190476
 40
0.0476190476190476
 40
0.0952380952380952
 40
0.0952380952380952
 40
0.0952380952380952
 40
0.0952380952380952
 40
0.1428571428571428
 40
0.1428571428571428
 40
0.1428571428571428
 40
0.1428571428571428
 40
0.1904761904761905
 40
0.1904761904761905
 40
0.1904761904761905
 40
0.1904761904761905
 40
0.2380952380952381
 40
0.2380952380952381
 40
0.2380952380952381
 40
0.2380952380952381
 40
0.2857142857142857
 40
0.2857142857142857
 40
0.2857142857142857
 40
0.2857142857142857
 40
0.3333333333333333
 40
0.3333333333333333
 40
0.3333333333333333
 40
0.3333333333333333
 40
0.3809523809523809
 40
0.3809523809523809
 40
0.3809523809523809
 40
0.3809523809523809
 40
0.4285714285714285
 40
0.4285714285714285
 40
0.4285714285714285
 40
0.4285714285714285
 40
0.4761904761904762
 40
0.4761904761904762
 40
0.4761904761904762
 40
0.4761904761904762
 40
0.5238095238095238
 40
0.5238095238095238
 40
0.5238095238095238
 40
0.5238095238095238
 40
0.5714285714285714
 40
0.5714285714285714
 40
0.5714285714285714
 40
0.5714285714285714
 40
0.6190476190476191
 40
0.6190476190476191
 40
0.6190476190476191
 40
0.6190476190476191
 40
0.6666666666666666
 40
0.6666666666666666
 40
0.6666666666666666
 40
0.6666666666666666
 40
0.7142857142857143
 40
0.7142857142857143
 40
0.7142857142857143
 40
0.7142857142857143
 40
0.7619047619047619
 40
0.7619047619047619
 40
0.7619047619047619
 40
0.7619047619047619
 40
0.8095238095238095
 40
0.8095238095238095
 40
0.8095238095238095
 40
0.8095238095238095
 40
0.8571428571428571
 40
0.8571428571428571
 40
0.8571428571428571
 40
0.8571428571428571
 40
0.9047619047619048
 40
0.9047619047619048
 40
0.9047619047619048
 40
0.9047619047619048
 40
1.0
 40
1.0
 40
1.0
 40
1.0
 10
3.447
 20
-3.9609
 30
0.0
 10
3.447
 20
-3.9609
 30
0.0
 10
3.6784
 20
-3.7018
 30
0.0
 10
3.6784
 20
-3.7018
 30
0.0
 10
3.6784
 20
-3.7018
 30
0.0
 10
3.6784
 20
-3.7018
 30
0.0
 10
3.8148
 20
-3.8174
 30
0.0
 10
3.8148
 20
-3.8174
 30
0.0
 10
3.8148
 20
-3.8174
 30
0.0
 10
3.8148
 20
-3.8174
 30
0.0
 10
3.5726
 20
-4.0902
 30
0.0
 10
3.5726
 20
-4.0902
 30
0.0
 10
3.5726
 20
-4.0902
 30
0.0
 10
3.6517
 20
-4.2078
 30
0.0
 10
3.7048
 20
-4.3108
 30
0.0
 10
3.7325
 20
-4.3987
 30
0.0
 10
3.7325
 20
-4.3987
 30
0.0
 10
3.7692
 20
-4.5145
 30
0.0
 10
3.7875
 20
-4.6444
 30
0.0
 10
3.7875
 20
-4.7873
 30
0.0
 10
3.7875
 20
-4.7873
 30
0.0
 10
3.7875
 20
-4.9942
 30
0.0
 10
3.7457
 20
-5.1786
 30
0.0
 10
3.662
 20
-5.34
 30
0.0
 10
3.662
 20
-5.34
 30
0.0
 10
3.5783
 20
-5.5018
 30
0.0
 10
3.4612
 20
-5.6241
 30
0.0
 10
3.3101
 20
-5.7068
 30
0.0
 10
3.3101
 20
-5.7068
 30
0.0
 10
3.1588
 20
-5.7891
 30
0.0
 10
2.9983
 20
-5.8306
 30
0.0
 10
2.8285
 20
-5.8306
 30
0.0
 10
2.8285
 20
-5.8306
 30
0.0
 10
2.7016
 20
-5.8306
 30
0.0
 10
2.5868
 20
-5.8126
 30
0.0
 10
2.4838
 20
-5.7769
 30
0.0
 10
2.4838
 20
-5.7769
 30
0.0
 10
2.4047
 20
-5.7492
 30
0.0
 10
2.3126
 20
-5.6965
 30
0.0
 10
2.2068
 20
-5.6184
 30
0.0
 10
2.2068
 20
-5.6184
 30
0.0
 10
2.2068
 20
-5.6184
 30
0.0
 10
1.9753
 20
-5.8776
 30
0.0
 10
1.9753
 20
-5.8776
 30
0.0
 10
1.9753
 20
-5.8776
 30
0.0
 10
1.9753
 20
-5.8776
 30
0.0
 10
1.8389
 20
-5.7618
 30
0.0
 10
1.8389
 20
-5.7618
 30
0.0
 10
1.8389
 20
-5.7618
 30
0.0
 10
1.8389
 20
-5.7618
 30
0.0
 10
2.0816
 20
-5.4905
 30
0.0
 10
2.0816
 20
-5.4905
 30
0.0
 10
2.0816
 20
-5.4905
 30
0.0
 10
1.9913
 20
-5.3536
 30
0.0
 10
1.9311
 20
-5.2365
 30
0.0
 10
1.9009
 20
-5.1396
 30
0.0
 10
1.9009
 20
-5.1396
 30
0.0
 10
1.8709
 20
-5.0427
 30
0.0
 10
1.8553
 20
-4.926
 30
0.0
 10
1.8553
 20
-4.7901
 30
0.0
 10
1.8553
 20
-4.7901
 30
0.0
 10
1.8553
 20
-4.5827
 30
0.0
 10
1.8967
 20
-4.3978
 30
0.0
 10
1.9795
 20
-4.2356
 30
0.0
 10
1.9795
 20
-4.2356
 30
0.0
 10
2.0624
 20
-4.0733
 30
0.0
 10
2.178
 20
-3.9505
 30
0.0
 10
2.3276
 20
-3.8668
 30
0.0
 10
2.3276
 20
-3.8668
 30
0.0
 10
2.4767
 20
-3.7836
 30
0.0
 10
2.6428
 20
-3.7417
 30
0.0
 10
2.8258
 20
-3.7417
 30
0.0
 10
2.8258
 20
-3.7417
 30
0.0
 10
2.949
 20
-3.7417
 30
0.0
 10
3.0566
 20
-3.7577
 30
0.0
 10
3.1488
 20
-3.7906
 30
0.0
 10
3.1488
 20
-3.7906
 30
0.0
 10
3.2409
 20
-3.8231
 30
0.0
 10
3.3407
 20
-3.88
 30
0.0
 10
3.447
 20
-3.9609
 30
0.0
  0
SPLINE
  5
44
330
1F
100
AcDbEntity
  8
VRSTVA_1
 62
   250
100
AcDbSpline
210
0.0
220
0.0
230
1.0
 70
    11
 71
     3
 72
    32
 73
    28
 74
     0
 42
0.0000000001
 43
0.0000000001
 40
0.0
 40
0.0
 40
0.0
 40
0.0
 40
0.125
 40
0.125
 40
0.125
 40
0.125
 40
0.25
 40
0.25
 40
0.25
 40
0.25
 40
0.375
 40
0.375
 40
0.375
 40
0.375
 40
0.5
 40
0.5
 40
0.5
 40
0.5
 40
0.625
 40
0.625
 40
0.625
 40
0.625
 40
0.75
 40
0.75
 40
0.75
 40
0.75
 40
1.0
 40
1.0
 40
1.0
 40
1.0
 10
3.282
 20
-4.1467
 30
0.0
 10
3.1954
 20
-4.0789
 30
0.0
 10
3.1196
 20
-4.0323
 30
0.0
 10
3.0552
 20
-4.0075
 30
0.0
 10
3.0552
 20
-4.0075
 30
0.0
 10
2.9903
 20
-3.983
 30
0.0
 10
2.9141
 20
-3.9704
 30
0.0
 10
2.8271
 20
-3.9704
 30
0.0
 10
2.8271
 20
-3.9704
 30
0.0
 10
2.6258
 20
-3.9704
 30
0.0
 10
2.4597
 20
-4.0386
 30
0.0
 10
2.3281
 20
-4.1748
 30
0.0
 10
2.3281
 20
-4.1748
 30
0.0
 10
2.1969
 20
-4.3112
 30
0.0
 10
2.131
 20
-4.515
 30
0.0
 10
2.131
 20
-4.7863
 30
0.0
 10
2.131
 20
-4.7863
 30
0.0
 10
2.131
 20
-4.8926
 30
0.0
 10
2.1413
 20
-4.9871
 30
0.0
 10
2.1615
 20
-5.07
 30
0.0
 10
2.1615
 20
-5.07
 30
0.0
 10
2.1762
 20
-5.1316
 30
0.0
 10
2.2068
 20
-5.2074
 30
0.0
 10
2.2538
 20
-5.2972
 30
0.0
 10
2.2538
 20
-5.2972
 30
0.0
 10
2.2538
 20
-5.2972
 30
0.0
 10
3.282
 20
-4.1467
 30
0.0
 10
3.282
 20
-4.1467
 30
0.0
  0
SPLINE
  5
45
330
1F
100
AcDbEntity
  8
VRSTVA_1
 62
   250
100
AcDbSpline
210
0.0
220
0.0
230
1.0
 70
    11
 71
     3
 72
    28
 73
    24
 74
     0
 42
0.0000000001
 43
0.0000000001
 40
0.0
 40
0.0
 40
0.0
 40
0.0
 40
0.1428571428571428
 40
0.1428571428571428
 40
0.1428571428571428
 40
0.1428571428571428
 40
0.2857142857142857
 40
0.2857142857142857
 40
0.2857142857142857
 40
0.2857142857142857
 40
0.4285714285714285
 40
0.4285714285714285
 40
0.4285714285714285
 40
0.4285714285714285
 40
0.5714285714285714
 40
0.5714285714285714
 40
0.5714285714285714
 40
0.5714285714285714
 40
0.7142857142857143
 40
0.7142857142857143
 40
0.7142857142857143
 40
0.7142857142857143
 40
1.0
 40
1.0
 40
1.0
 40
1.0
 10
3.3949
 20
-4.2887
 30
0.0
 10
3.3949
 20
-4.2887
 30
0.0
 10
2.3709
 20
-5.4349
 30
0.0
 10
2.3709
 20
-5.4349
 30
0.0
 10
2.3709
 20
-5.4349
 30
0.0
 10
2.4414
 20
-5.4928
 30
0.0
 10
2.5068
 20
-5.5333
 30
0.0
 10
2.5665
 20
-5.5563
 30
0.0
 10
2.5665
 20
-5.5563
 30
0.0
 10
2.6447
 20
-5.5868
 30
0.0
 10
2.7293
 20
-5.6019
 30
0.0
 10
2.82
 20
-5.6019
 30
0.0
 10
2.82
 20
-5.6019
 30
0.0
 10
3.0204
 20
-5.6019
 30
0.0
 10
3.1855
 20
-5.5314
 30
0.0
 10
3.3162
 20
-5.3898
 30
0.0
 10
3.3162
 20
-5.3898
 30
0.0
 10
3.4465
 20
-5.2483
 30
0.0
 10
3.512
 20
-5.0498
 30
0.0
 10
3.512
 20
-4.7944
 30
0.0
 10
3.512
 20
-4.7944
 30
0.0
 10
3.512
 20
-4.6033
 30
0.0
 10
3.4729
 20
-4.4346
 30
0.0
 10
3.3949
 20
-4.2887
 30
0.0
  0
SPLINE
  5
46
330
1F
100
AcDbEntity
  8
VRSTVA_1
 62
   250
100
AcDbSpline
210
0.0
220
0.0
230
1.0
 70
    11
 71
     3
 72
    68
 73
    64
 74
     0
 42
0.0000000001
 43
0.0000000001
 40
0.0
 40
0.0
 40
0.0
 40
0.0
 40
0.0588235294117647
 40
0.0588235294117647
 40
0.0588235294117647
 40
0.0588235294117647
 40
0.1176470588235294
 40
0.1176470588235294
 40
0.1176470588235294
 40
0.1176470588235294
 40
0.1764705882352941
 40
0.1764705882352941
 40
0.1764705882352941
 40
0.1764705882352941
 40
0.2352941176470588
 40
0.2352941176470588
 40
0.2352941176470588
 40
0.2352941176470588
 40
0.2941176470588235
 40
0.2941176470588235
 40
0.2941176470588235
 40
0.2941176470588235
 40
0.3529411764705883
 40
0.3529411764705883
 40
0.3529411764705883
 40
0.3529411764705883
 40
0.4117647058823529
 40
0.4117647058823529
 40
0.4117647058823529
 40
0.4117647058823529
 40
0.4705882352941176
 40
0.4705882352941176
 40
0.4705882352941176
 40
0.4705882352941176
 40
0.5294117647058824
 40
0.5294117647058824
 40
0.5294117647058824
 40
0.5294117647058824
 40
0.5882352941176471
 40
0.5882352941176471
 40
0.5882352941176471
 40
0.5882352941176471
 40
0.6470588235294118
 40
0.6470588235294118
 40
0.6470588235294118
 40
0.6470588235294118
 40
0.7058823529411765
 40
0.7058823529411765
 40
0.7058823529411765
 40
0.7058823529411765
 40
0.7647058823529411
 40
0.7647058823529411
 40
0.7647058823529411
 40
0.7647058823529411
 40
0.8235294117647058
 40
0.8235294117647058
 40
0.8235294117647058
 40
0.8235294117647058
 40
0.8823529411764706
 40
0.8823529411764706
 40
0.8823529411764706
 40
0.8823529411764706
 40
1.0
 40
1.0
 40
1.0
 40
1.0
 10
4.4187
 20
-4.7008
 30
0.0
 10
4.3157
 20
-4.6631
 30
0.0
 10
4.2395
 20
-4.6095
 30
0.0
 10
4.1897
 20
-4.5395
 30
0.0
 10
4.1897
 20
-4.5395
 30
0.0
 10
4.1403
 20
-4.4698
 30
0.0
 10
4.1153
 20
-4.3861
 30
0.0
 10
4.1153
 20
-4.2887
 30
0.0
 10
4.1153
 20
-4.2887
 30
0.0
 10
4.1153
 20
-4.1415
 30
0.0
 10
4.1681
 20
-4.0183
 30
0.0
 10
4.2739
 20
-3.9181
 30
0.0
 10
4.2739
 20
-3.9181
 30
0.0
 10
4.3797
 20
-3.8179
 30
0.0
 10
4.5199
 20
-3.7675
 30
0.0
 10
4.6953
 20
-3.7675
 30
0.0
 10
4.6953
 20
-3.7675
 30
0.0
 10
4.8717
 20
-3.7675
 30
0.0
 10
5.0138
 20
-3.8189
 30
0.0
 10
5.1214
 20
-3.9213
 30
0.0
 10
5.1214
 20
-3.9213
 30
0.0
 10
5.2287
 20
-4.0239
 30
0.0
 10
5.2823
 20
-4.1486
 30
0.0
 10
5.2823
 20
-4.2958
 30
0.0
 10
5.2823
 20
-4.2958
 30
0.0
 10
5.2823
 20
-4.3894
 30
0.0
 10
5.2578
 20
-4.4707
 30
0.0
 10
5.2089
 20
-4.5403
 30
0.0
 10
5.2089
 20
-4.5403
 30
0.0
 10
5.1596
 20
-4.6095
 30
0.0
 10
5.0853
 20
-4.6631
 30
0.0
 10
4.985
 20
-4.7008
 30
0.0
 10
4.985
 20
-4.7008
 30
0.0
 10
5.1088
 20
-4.7412
 30
0.0
 10
5.2033
 20
-4.806
 30
0.0
 10
5.2683
 20
-4.8964
 30
0.0
 10
5.2683
 20
-4.8964
 30
0.0
 10
5.3327
 20
-4.9862
 30
0.0
 10
5.3651
 20
-5.0939
 30
0.0
 10
5.3651
 20
-5.2187
 30
0.0
 10
5.3651
 20
-5.2187
 30
0.0
 10
5.3651
 20
-5.3917
 30
0.0
 10
5.304
 20
-5.5366
 30
0.0
 10
5.1821
 20
-5.6541
 30
0.0
 10
5.1821
 20
-5.6541
 30
0.0
 10
5.0599
 20
-5.7717
 30
0.0
 10
4.899
 20
-5.8306
 30
0.0
 10
4.6996
 20
-5.8306
 30
0.0
 10
4.6996
 20
-5.8306
 30
0.0
 10
4.5001
 20
-5.8306
 30
0.0
 10
4.3398
 20
-5.7717
 30
0.0
 10
4.2174
 20
-5.6537
 30
0.0
 10
4.2174
 20
-5.6537
 30
0.0
 10
4.0951
 20
-5.5356
 30
0.0
 10
4.034
 20
-5.3883
 30
0.0
 10
4.034
 20
-5.212
 30
0.0
 10
4.034
 20
-5.212
 30
0.0
 10
4.034
 20
-5.0808
 30
0.0
 10
4.0674
 20
-4.9707
 30
0.0
 10
4.1342
 20
-4.8819
 30
0.0
 10
4.1342
 20
-4.8819
 30
0.0
 10
4.2005
 20
-4.7934
 30
0.0
 10
4.2955
 20
-4.7327
 30
0.0
 10
4.4187
 20
-4.7008
 30
0.0
  0
SPLINE
  5
47
330
1F
100
AcDbEntity
  8
VRSTVA_1
 62
   250
100
AcDbSpline
210
0.0
220
0.0
230
1.0
 70
    11
 71
     3
 72
    36
 73
    32
 74
     0
 42
0.0000000001
 43
0.0000000001
 40
0.0
 40
0.0
 40
0.0
 40
0.0
 40
0.1111111111111111
 40
0.1111111111111111
 40
0.1111111111111111
 40
0.1111111111111111
 40
0.2222222222222222
 40
0.2222222222222222
 40
0.2222222222222222
 40
0.2222222222222222
 40
0.3333333333333333
 40
0.3333333333333333
 40
0.3333333333333333
 40
0.3333333333333333
 40
0.4444444444444444
 40
0.4444444444444444
 40
0.4444444444444444
 40
0.4444444444444444
 40
0.5555555555555556
 40
0.5555555555555556
 40
0.5555555555555556
 40
0.5555555555555556
 40
0.6666666666666666
 40
0.6666666666666666
 40
0.6666666666666666
 40
0.6666666666666666
 40
0.7777777777777778
 40
0.7777777777777778
 40
0.7777777777777778
 40
0.7777777777777778
 40
1.0
 40
1.0
 40
1.0
 40
1.0
 10
4.3689
 20
-4.2803
 30
0.0
 10
4.3689
 20
-4.3758
 30
0.0
 10
4.4
 20
-4.4538
 30
0.0
 10
4.4611
 20
-4.5145
 30
0.0
 10
4.4611
 20
-4.5145
 30
0.0
 10
4.5227
 20
-4.5752
 30
0.0
 10
4.6027
 20
-4.6058
 30
0.0
 10
4.7009
 20
-4.6058
 30
0.0
 10
4.7009
 20
-4.6058
 30
0.0
 10
4.7964
 20
-4.6058
 30
0.0
 10
4.875
 20
-4.5756
 30
0.0
 10
4.9361
 20
-4.5154
 30
0.0
 10
4.9361
 20
-4.5154
 30
0.0
 10
4.9972
 20
-4.4553
 30
0.0
 10
5.0274
 20
-4.3813
 30
0.0
 10
5.0274
 20
-4.2944
 30
0.0
 10
5.0274
 20
-4.2944
 30
0.0
 10
5.0274
 20
-4.2031
 30
0.0
 10
4.9964
 20
-4.1269
 30
0.0
 10
4.9334
 20
-4.0648
 30
0.0
 10
4.9334
 20
-4.0648
 30
0.0
 10
4.8703
 20
-4.0027
 30
0.0
 10
4.7922
 20
-3.9717
 30
0.0
 10
4.6982
 20
-3.9717
 30
0.0
 10
4.6982
 20
-3.9717
 30
0.0
 10
4.6036
 20
-3.9717
 30
0.0
 10
4.5251
 20
-4.0023
 30
0.0
 10
4.4625
 20
-4.0625
 30
0.0
 10
4.4625
 20
-4.0625
 30
0.0
 10
4.4
 20
-4.1232
 30
0.0
 10
4.3689
 20
-4.196
 30
0.0
 10
4.3689
 20
-4.2803
 30
0.0
  0
SPLINE
  5
48
330
1F
100
AcDbEntity
  8
VRSTVA_1
 62
   250
100
AcDbSpline
210
0.0
220
0.0
230
1.0
 70
    11
 71
     3
 72
    40
 73
    36
 74
     0
 42
0.0000000001
 43
0.0000000001
 40
0.0
 40
0.0
 40
0.0
 40
0.0
 40
0.1
 40
0.1
 40
0.1
 40
0.1
 40
0.2
 40
0.2
 40
0.2
 40
0.2
 40
0.3
 40
0.3
 40
0.3
 40
0.3
 40
0.4
 40
0.4
 40
0.4
 40
0.4
 40
0.5
 40
0.5
 40
0.5
 40
0.5
 40
0.6
 40
0.6
 40
0.6
 40
0.6
 40
0.7
 40
0.7
 40
0.7
 40
0.7
 40
0.8
 40
0.8
 40
0.8
 40
0.8
 40
1.0
 40
1.0
 40
1.0
 40
1.0
 10
4.289
 20
-5.2135
 30
0.0
 10
4.289
 20
-5.284
 30
0.0
 10
4.3058
 20
-5.3526
 30
0.0
 10
4.3392
 20
-5.4185
 30
0.0
 10
4.3392
 20
-5.4185
 30
0.0
 10
4.3727
 20
-5.4848
 30
0.0
 10
4.4225
 20
-5.5362
 30
0.0
 10
4.4888
 20
-5.5723
 30
0.0
 10
4.4888
 20
-5.5723
 30
0.0
 10
4.5551
 20
-5.6086
 30
0.0
 10
4.6262
 20
-5.6269
 30
0.0
 10
4.7024
 20
-5.6269
 30
0.0
 10
4.7024
 20
-5.6269
 30
0.0
 10
4.8209
 20
-5.6269
 30
0.0
 10
4.9187
 20
-5.5887
 30
0.0
 10
4.9959
 20
-5.5121
 30
0.0
 10
4.9959
 20
-5.5121
 30
0.0
 10
5.073
 20
-5.4359
 30
0.0
 10
5.1116
 20
-5.339
 30
0.0
 10
5.1116
 20
-5.2214
 30
0.0
 10
5.1116
 20
-5.2214
 30
0.0
 10
5.1116
 20
-5.102
 30
0.0
 10
5.0721
 20
-5.0032
 30
0.0
 10
4.9926
 20
-4.9251
 30
0.0
 10
4.9926
 20
-4.9251
 30
0.0
 10
4.9131
 20
-4.8471
 30
0.0
 10
4.8134
 20
-4.8079
 30
0.0
 10
4.6938
 20
-4.8079
 30
0.0
 10
4.6938
 20
-4.8079
 30
0.0
 10
4.5773
 20
-4.8079
 30
0.0
 10
4.4808
 20
-4.8465
 30
0.0
 10
4.4042
 20
-4.9237
 30
0.0
 10
4.4042
 20
-4.9237
 30
0.0
 10
4.3276
 20
-5.0013
 30
0.0
 10
4.289
 20
-5.0977
 30
0.0
 10
4.289
 20
-5.2135
 30
0.0
  0
SPLINE
  5
49
330
1F
100
AcDbEntity
  8
VRSTVA_1
 62
   250
100
AcDbSpline
210
0.0
220
0.0
230
1.0
 70
    11
 71
     3
 72
    52
 73
    48
 74
     0
 42
0.0000000001
 43
0.0000000001
 40
0.0
 40
0.0
 40
0.0
 40
0.0
 40
0.0769230769230769
 40
0.0769230769230769
 40
0.0769230769230769
 40
0.0769230769230769
 40
0.1538461538461539
 40
0.1538461538461539
 40
0.1538461538461539
 40
0.1538461538461539
 40
0.2307692307692308
 40
0.2307692307692308
 40
0.2307692307692308
 40
0.2307692307692308
 40
0.3076923076923077
 40
0.3076923076923077
 40
0.3076923076923077
 40
0.3076923076923077
 40
0.3846153846153846
 40
0.3846153846153846
 40
0.3846153846153846
 40
0.3846153846153846
 40
0.4615384615384616
 40
0.4615384615384616
 40
0.4615384615384616
 40
0.4615384615384616
 40
0.5384615384615384
 40
0.5384615384615384
 40
0.5384615384615384
 40
0.5384615384615384
 40
0.6153846153846154
 40
0.6153846153846154
 40
0.6153846153846154
 40
0.6153846153846154
 40
0.6923076923076923
 40
0.6923076923076923
 40
0.6923076923076923
 40
0.6923076923076923
 40
0.7692307692307693
 40
0.7692307692307693
 40
0.7692307692307693
 40
0.7692307692307693
 40
0.8461538461538461
 40
0.8461538461538461
 40
0.8461538461538461
 40
0.8461538461538461
 40
1.0
 40
1.0
 40
1.0
 40
1.0
 10
5.6064
 20
-4.7999
 30
0.0
 10
5.6064
 20
-4.5611
 30
0.0
 10
5.6309
 20
-4.3687
 30
0.0
 10
5.6803
 20
-4.2233
 30
0.0
 10
5.6803
 20
-4.2233
 30
0.0
 10
5.7292
 20
-4.0776
 30
0.0
 10
5.8026
 20
-3.9651
 30
0.0
 10
5.8995
 20
-3.8861
 30
0.0
 10
5.8995
 20
-3.8861
 30
0.0
 10
5.9963
 20
-3.8071
 30
0.0
 10
6.1182
 20
-3.7675
 30
0.0
 10
6.2649
 20
-3.7675
 30
0.0
 10
6.2649
 20
-3.7675
 30
0.0
 10
6.3736
 20
-3.7675
 30
0.0
 10
6.4686
 20
-3.7897
 30
0.0
 10
6.5504
 20
-3.8334
 30
0.0
 10
6.5504
 20
-3.8334
 30
0.0
 10
6.6323
 20
-3.8768
 30
0.0
 10
6.6996
 20
-3.9397
 30
0.0
 10
6.7531
 20
-4.022
 30
0.0
 10
6.7531
 20
-4.022
 30
0.0
 10
6.8064
 20
-4.1043
 30
0.0
 10
6.8482
 20
-4.2046
 30
0.0
 10
6.8782
 20
-4.3227
 30
0.0
 10
6.8782
 20
-4.3227
 30
0.0
 10
6.9088
 20
-4.4407
 30
0.0
 10
6.9239
 20
-4.5997
 30
0.0
 10
6.9239
 20
-4.7999
 30
0.0
 10
6.9239
 20
-4.7999
 30
0.0
 10
6.9239
 20
-5.037
 30
0.0
 10
6.8994
 20
-5.228
 30
0.0
 10
6.8509
 20
-5.3738
 30
0.0
 10
6.8509
 20
-5.3738
 30
0.0
 10
6.802
 20
-5.5196
 30
0.0
 10
6.7292
 20
-5.6321
 30
0.0
 10
6.6323
 20
-5.7116
 30
0.0
 10
6.6323
 20
-5.7116
 30
0.0
 10
6.5353
 20
-5.791
 30
0.0
 10
6.413
 20
-5.8306
 30
0.0
 10
6.2649
 20
-5.8306
 30
0.0
 10
6.2649
 20
-5.8306
 30
0.0
 10
6.0703
 20
-5.8306
 30
0.0
 10
5.9173
 20
-5.7609
 30
0.0
 10
5.8063
 20
-5.6212
 30
0.0
 10
5.8063
 20
-5.6212
 30
0.0
 10
5.6733
 20
-5.4533
 30
0.0
 10
5.6064
 20
-5.1791
 30
0.0
 10
5.6064
 20
-4.7999
 30
0.0
  0
SPLINE
  5
4A
330
1F
100
AcDbEntity
  8
VRSTVA_1
 62
   250
100
AcDbSpline
210
0.0
220
0.0
230
1.0
 70
    11
 71
     3
 72
    36
 73
    32
 74
     0
 42
0.0000000001
 43
0.0000000001
 40
0.0
 40
0.0
 40
0.0
 40
0.0
 40
0.1111111111111111
 40
0.1111111111111111
 40
0.1111111111111111
 40
0.1111111111111111
 40
0.2222222222222222
 40
0.2222222222222222
 40
0.2222222222222222
 40
0.2222222222222222
 40
0.3333333333333333
 40
0.3333333333333333
 40
0.3333333333333333
 40
0.3333333333333333
 40
0.4444444444444444
 40
0.4444444444444444
 40
0.4444444444444444
 40
0.4444444444444444
 40
0.5555555555555556
 40
0.5555555555555556
 40
0.5555555555555556
 40
0.5555555555555556
 40
0.6666666666666666
 40
0.6666666666666666
 40
0.6666666666666666
 40
0.6666666666666666
 40
0.7777777777777778
 40
0.7777777777777778
 40
0.7777777777777778
 40
0.7777777777777778
 40
1.0
 40
1.0
 40
1.0
 40
1.0
 10
5.8613
 20
-4.7999
 30
0.0
 10
5.8613
 20
-5.1316
 30
0.0
 10
5.9004
 20
-5.3522
 30
0.0
 10
5.978
 20
-5.4623
 30
0.0
 10
5.978
 20
-5.4623
 30
0.0
 10
6.0556
 20
-5.5719
 30
0.0
 10
6.1511
 20
-5.6269
 30
0.0
 10
6.2649
 20
-5.6269
 30
0.0
 10
6.2649
 20
-5.6269
 30
0.0
 10
6.3792
 20
-5.6269
 30
0.0
 10
6.4747
 20
-5.5714
 30
0.0
 10
6.5523
 20
-5.4613
 30
0.0
 10
6.5523
 20
-5.4613
 30
0.0
 10
6.6299
 20
-5.3513
 30
0.0
 10
6.669
 20
-5.1306
 30
0.0
 10
6.669
 20
-4.7999
 30
0.0
 10
6.669
 20
-4.7999
 30
0.0
 10
6.669
 20
-4.4675
 30
0.0
 10
6.6299
 20
-4.2464
 30
0.0
 10
6.5523
 20
-4.1373
 30
0.0
 10
6.5523
 20
-4.1373
 30
0.0
 10
6.4747
 20
-4.0277
 30
0.0
 10
6.3783
 20
-3.9731
 30
0.0
 10
6.2626
 20
-3.9731
 30
0.0
 10
6.2626
 20
-3.9731
 30
0.0
 10
6.1482
 20
-3.9731
 30
0.0
 10
6.0575
 20
-4.0216
 30
0.0
 10
5.9893
 20
-4.118
 30
0.0
 10
5.9893
 20
-4.118
 30
0.0
 10
5.9041
 20
-4.2407
 30
0.0
 10
5.8613
 20
-4.4684
 30
0.0
 10
5.8613
 20
-4.7999
 30
0.0
  0
SPLINE
  5
4B
330
1F
100
AcDbEntity
  8
VRSTVA_1
  6
NEW_LINE1
100
AcDbSpline
210
0.0
220
0.0
230
1.0
 70
    24
 71
     3
 72
     8
 73
     4
 74
     0
 42
0.0000000001
 43
0.0000000001
 40
0.0
 40
0.0
 40
0.0
 40
0.0
 40
1.0
 40
1.0
 40
1.0
 40
1.0
 10
3.8509
 20
32.4605
 30
0.0
 10
3.8509
 20
32.4605
 30
0.0
 10
3.8509
 20
-28.0753
 30
0.0
 10
3.8509
 20
-28.0753
 30
0.0
  0
SPLINE
  5
4D
330
1F
100
AcDbEntity
  8
VRSTVA_1
 62
   250
100
AcDbSpline
210
0.0
220
0.0
230
1.0
 70
    11
 71
     3
 72
    84
 73
    80
 74
     0
 42
0.0000000001
 43
0.0000000001
 40
0.0
 40
0.0
 40
0.0
 40
0.0
 40
0.0476190476190476
 40
0.0476190476190476
 40
0.0476190476190476
 40
0.0476190476190476
 40
0.0952380952380952
 40
0.0952380952380952
 40
0.0952380952380952
 40
0.0952380952380952
 40
0.1428571428571428
 40
0.1428571428571428
 40
0.1428571428571428
 40
0.1428571428571428
 40
0.1904761904761905
 40
0.1904761904761905
 40
0.1904761904761905
 40
0.1904761904761905
 40
0.2380952380952381
 40
0.2380952380952381
 40
0.2380952380952381
 40
0.2380952380952381
 40
0.2857142857142857
 40
0.2857142857142857
 40
0.2857142857142857
 40
0.2857142857142857
 40
0.3333333333333333
 40
0.3333333333333333
 40
0.3333333333333333
 40
0.3333333333333333
 40
0.3809523809523809
 40
0.3809523809523809
 40
0.3809523809523809
 40
0.3809523809523809
 40
0.4285714285714285
 40
0.4285714285714285
 40
0.4285714285714285
 40
0.4285714285714285
 40
0.4761904761904762
 40
0.4761904761904762
 40
0.4761904761904762
 40
0.4761904761904762
 40
0.5238095238095238
 40
0.5238095238095238
 40
0.5238095238095238
 40
0.5238095238095238
 40
0.5714285714285714
 40
0.5714285714285714
 40
0.5714285714285714
 40
0.5714285714285714
 40
0.6190476190476191
 40
0.6190476190476191
 40
0.6190476190476191
 40
0.6190476190476191
 40
0.6666666666666666
 40
0.6666666666666666
 40
0.6666666666666666
 40
0.6666666666666666
 40
0.7142857142857143
 40
0.7142857142857143
 40
0.7142857142857143
 40
0.7142857142857143
 40
0.7619047619047619
 40
0.7619047619047619
 40
0.7619047619047619
 40
0.7619047619047619
 40
0.8095238095238095
 40
0.8095238095238095
 40
0.8095238095238095
 40
0.8095238095238095
 40
0.8571428571428571
 40
0.8571428571428571
 40
0.8571428571428571
 40
0.8571428571428571
 40
0.9047619047619048
 40
0.9047619047619048
 40
0.9047619047619048
 40
0.9047619047619048
 40
1.0
 40
1.0
 40
1.0
 40
1.0
 10
2.8857
 20
-29.1795
 30
0.0
 10
2.8857
 20
-29.1795
 30
0.0
 10
3.1171
 20
-28.9204
 30
0.0
 10
3.1171
 20
-28.9204
 30
0.0
 10
3.1171
 20
-28.9204
 30
0.0
 10
3.1171
 20
-28.9204
 30
0.0
 10
3.2535
 20
-29.036
 30
0.0
 10
3.2535
 20
-29.036
 30
0.0
 10
3.2535
 20
-29.036
 30
0.0
 10
3.2535
 20
-29.036
 30
0.0
 10
3.0113
 20
-29.3088
 30
0.0
 10
3.0113
 20
-29.3088
 30
0.0
 10
3.0113
 20
-29.3088
 30
0.0
 10
3.0904
 20
-29.4264
 30
0.0
 10
3.1435
 20
-29.5294
 30
0.0
 10
3.1712
 20
-29.6173
 30
0.0
 10
3.1712
 20
-29.6173
 30
0.0
 10
3.2079
 20
-29.7331
 30
0.0
 10
3.2262
 20
-29.863
 30
0.0
 10
3.2262
 20
-30.0059
 30
0.0
 10
3.2262
 20
-30.0059
 30
0.0
 10
3.2262
 20
-30.2128
 30
0.0
 10
3.1844
 20
-30.3972
 30
0.0
 10
3.1007
 20
-30.5586
 30
0.0
 10
3.1007
 20
-30.5586
 30
0.0
 10
3.017
 20
-30.7204
 30
0.0
 10
2.8999
 20
-30.8427
 30
0.0
 10
2.7488
 20
-30.9254
 30
0.0
 10
2.7488
 20
-30.9254
 30
0.0
 10
2.5975
 20
-31.0077
 30
0.0
 10
2.437
 20
-31.0492
 30
0.0
 10
2.2672
 20
-31.0492
 30
0.0
 10
2.2672
 20
-31.0492
 30
0.0
 10
2.1403
 20
-31.0492
 30
0.0
 10
2.0255
 20
-31.0312
 30
0.0
 10
1.9225
 20
-30.9955
 30
0.0
 10
1.9225
 20
-30.9955
 30
0.0
 10
1.8434
 20
-30.9678
 30
0.0
 10
1.7513
 20
-30.9151
 30
0.0
 10
1.6455
 20
-30.837
 30
0.0
 10
1.6455
 20
-30.837
 30
0.0
 10
1.6455
 20
-30.837
 30
0.0
 10
1.414
 20
-31.0962
 30
0.0
 10
1.414
 20
-31.0962
 30
0.0
 10
1.414
 20
-31.0962
 30
0.0
 10
1.414
 20
-31.0962
 30
0.0
 10
1.2776
 20
-30.9804
 30
0.0
 10
1.2776
 20
-30.9804
 30
0.0
 10
1.2776
 20
-30.9804
 30
0.0
 10
1.2776
 20
-30.9804
 30
0.0
 10
1.5203
 20
-30.7091
 30
0.0
 10
1.5203
 20
-30.7091
 30
0.0
 10
1.5203
 20
-30.7091
 30
0.0
 10
1.43
 20
-30.5722
 30
0.0
 10
1.3698
 20
-30.4551
 30
0.0
 10
1.3396
 20
-30.3582
 30
0.0
 10
1.3396
 20
-30.3582
 30
0.0
 10
1.3096
 20
-30.2613
 30
0.0
 10
1.294
 20
-30.1446
 30
0.0
 10
1.294
 20
-30.0087
 30
0.0
 10
1.294
 20
-30.0087
 30
0.0
 10
1.294
 20
-29.8013
 30
0.0
 10
1.3354
 20
-29.6164
 30
0.0
 10
1.4182
 20
-29.4542
 30
0.0
 10
1.4182
 20
-29.4542
 30
0.0
 10
1.5011
 20
-29.2919
 30
0.0
 10
1.6167
 20
-29.1691
 30
0.0
 10
1.7663
 20
-29.0854
 30
0.0
 10
1.7663
 20
-29.0854
 30
0.0
 10
1.9154
 20
-29.0022
 30
0.0
 10
2.0815
 20
-28.9603
 30
0.0
 10
2.2645
 20
-28.9603
 30
0.0
 10
2.2645
 20
-28.9603
 30
0.0
 10
2.3877
 20
-28.9603
 30
0.0
 10
2.4953
 20
-28.9763
 30
0.0
 10
2.5875
 20
-29.0092
 30
0.0
 10
2.5875
 20
-29.0092
 30
0.0
 10
2.6796
 20
-29.0417
 30
0.0
 10
2.7794
 20
-29.0986
 30
0.0
 10
2.8857
 20
-29.1795
 30
0.0
  0
SPLINE
  5
4E
330
1F
100
AcDbEntity
  8
VRSTVA_1
 62
   250
100
AcDbSpline
210
0.0
220
0.0
230
1.0
 70
    11
 71
     3
 72
    32
 73
    28
 74
     0
 42
0.0000000001
 43
0.0000000001
 40
0.0
 40
0.0
 40
0.0
 40
0.0
 40
0.125
 40
0.125
 40
0.125
 40
0.125
 40
0.25
 40
0.25
 40
0.25
 40
0.25
 40
0.375
 40
0.375
 40
0.375
 40
0.375
 40
0.5
 40
0.5
 40
0.5
 40
0.5
 40
0.625
 40
0.625
 40
0.625
 40
0.625
 40
0.75
 40
0.75
 40
0.75
 40
0.75
 40
1.0
 40
1.0
 40
1.0
 40
1.0
 10
2.7207
 20
-29.3653
 30
0.0
 10
2.6341
 20
-29.2975
 30
0.0
 10
2.5583
 20
-29.2509
 30
0.0
 10
2.4939
 20
-29.2261
 30
0.0
 10
2.4939
 20
-29.2261
 30
0.0
 10
2.429
 20
-29.2016
 30
0.0
 10
2.3528
 20
-29.189
 30
0.0
 10
2.2658
 20
-29.189
 30
0.0
 10
2.2658
 20
-29.189
 30
0.0
 10
2.0645
 20
-29.189
 30
0.0
 10
1.8984
 20
-29.2572
 30
0.0
 10
1.7668
 20
-29.3934
 30
0.0
 10
1.7668
 20
-29.3934
 30
0.0
 10
1.6356
 20
-29.5298
 30
0.0
 10
1.5697
 20
-29.7336
 30
0.0
 10
1.5697
 20
-30.0049
 30
0.0
 10
1.5697
 20
-30.0049
 30
0.0
 10
1.5697
 20
-30.1112
 30
0.0
 10
1.58
 20
-30.2057
 30
0.0
 10
1.6002
 20
-30.2886
 30
0.0
 10
1.6002
 20
-30.2886
 30
0.0
 10
1.6149
 20
-30.3502
 30
0.0
 10
1.6455
 20
-30.426
 30
0.0
 10
1.6925
 20
-30.5158
 30
0.0
 10
1.6925
 20
-30.5158
 30
0.0
 10
1.6925
 20
-30.5158
 30
0.0
 10
2.7207
 20
-29.3653
 30
0.0
 10
2.7207
 20
-29.3653
 30
0.0
  0
SPLINE
  5
4F
330
1F
100
AcDbEntity
  8
VRSTVA_1
 62
   250
100
AcDbSpline
210
0.0
220
0.0
230
1.0
 70
    11
 71
     3
 72
    28
 73
    24
 74
     0
 42
0.0000000001
 43
0.0000000001
 40
0.0
 40
0.0
 40
0.0
 40
0.0
 40
0.1428571428571428
 40
0.1428571428571428
 40
0.1428571428571428
 40
0.1428571428571428
 40
0.2857142857142857
 40
0.2857142857142857
 40
0.2857142857142857
 40
0.2857142857142857
 40
0.4285714285714285
 40
0.4285714285714285
 40
0.4285714285714285
 40
0.4285714285714285
 40
0.5714285714285714
 40
0.5714285714285714
 40
0.5714285714285714
 40
0.5714285714285714
 40
0.7142857142857143
 40
0.7142857142857143
 40
0.7142857142857143
 40
0.7142857142857143
 40
1.0
 40
1.0
 40
1.0
 40
1.0
 10
2.8336
 20
-29.5073
 30
0.0
 10
2.8336
 20
-29.5073
 30
0.0
 10
1.8096
 20
-30.6535
 30
0.0
 10
1.8096
 20
-30.6535
 30
0.0
 10
1.8096
 20
-30.6535
 30
0.0
 10
1.8801
 20
-30.7114
 30
0.0
 10
1.9455
 20
-30.7519
 30
0.0
 10
2.0052
 20
-30.7749
 30
0.0
 10
2.0052
 20
-30.7749
 30
0.0
 10
2.0834
 20
-30.8054
 30
0.0
 10
2.168
 20
-30.8205
 30
0.0
 10
2.2587
 20
-30.8205
 30
0.0
 10
2.2587
 20
-30.8205
 30
0.0
 10
2.4591
 20
-30.8205
 30
0.0
 10
2.6242
 20
-30.75
 30
0.0
 10
2.7549
 20
-30.6084
 30
0.0
 10
2.7549
 20
-30.6084
 30
0.0
 10
2.8852
 20
-30.4669
 30
0.0
 10
2.9507
 20
-30.2684
 30
0.0
 10
2.9507
 20
-30.013
 30
0.0
 10
2.9507
 20
-30.013
 30
0.0
 10
2.9507
 20
-29.8219
 30
0.0
 10
2.9116
 20
-29.6532
 30
0.0
 10
2.8336
 20
-29.5073
 30
0.0
  0
SPLINE
  5
50
330
1F
100
AcDbEntity
  8
VRSTVA_1
 62
   250
100
AcDbSpline
210
0.0
220
0.0
230
1.0
 70
    11
 71
     3
 72
    48
 73
    44
 74
     0
 42
0.0000000001
 43
0.0000000001
 40
0.0
 40
0.0
 40
0.0
 40
0.0
 40
0.0833333333333333
 40
0.0833333333333333
 40
0.0833333333333333
 40
0.0833333333333333
 40
0.1666666666666667
 40
0.1666666666666667
 40
0.1666666666666667
 40
0.1666666666666667
 40
0.25
 40
0.25
 40
0.25
 40
0.25
 40
0.3333333333333333
 40
0.3333333333333333
 40
0.3333333333333333
 40
0.3333333333333333
 40
0.4166666666666667
 40
0.4166666666666667
 40
0.4166666666666667
 40
0.4166666666666667
 40
0.5
 40
0.5
 40
0.5
 40
0.5
 40
0.5833333333333334
 40
0.5833333333333334
 40
0.5833333333333334
 40
0.5833333333333334
 40
0.6666666666666666
 40
0.6666666666666666
 40
0.6666666666666666
 40
0.6666666666666666
 40
0.75
 40
0.75
 40
0.75
 40
0.75
 40
0.8333333333333334
 40
0.8333333333333334
 40
0.8333333333333334
 40
0.8333333333333334
 40
1.0
 40
1.0
 40
1.0
 40
1.0
 10
3.492
 20
-29.2595
 30
0.0
 10
3.492
 20
-29.2595
 30
0.0
 10
3.492
 20
-29.021
 30
0.0
 10
3.492
 20
-29.021
 30
0.0
 10
3.492
 20
-29.021
 30
0.0
 10
3.492
 20
-29.021
 30
0.0
 10
4.7996
 20
-29.021
 30
0.0
 10
4.7996
 20
-29.021
 30
0.0
 10
4.7996
 20
-29.021
 30
0.0
 10
4.7996
 20
-29.021
 30
0.0
 10
4.7996
 20
-29.2138
 30
0.0
 10
4.7996
 20
-29.2138
 30
0.0
 10
4.7996
 20
-29.2138
 30
0.0
 10
4.6711
 20
-29.3506
 30
0.0
 10
4.5437
 20
-29.5327
 30
0.0
 10
4.4172
 20
-29.7594
 30
0.0
 10
4.4172
 20
-29.7594
 30
0.0
 10
4.2911
 20
-29.9862
 30
0.0
 10
4.1933
 20
-30.2199
 30
0.0
 10
4.1247
 20
-30.4593
 30
0.0
 10
4.1247
 20
-30.4593
 30
0.0
 10
4.0748
 20
-30.6287
 30
0.0
 10
4.0433
 20
-30.8135
 30
0.0
 10
4.0296
 20
-31.0148
 30
0.0
 10
4.0296
 20
-31.0148
 30
0.0
 10
4.0296
 20
-31.0148
 30
0.0
 10
3.7747
 20
-31.0148
 30
0.0
 10
3.7747
 20
-31.0148
 30
0.0
 10
3.7747
 20
-31.0148
 30
0.0
 10
3.7775
 20
-30.8558
 30
0.0
 10
3.8085
 20
-30.6639
 30
0.0
 10
3.8683
 20
-30.4386
 30
0.0
 10
3.8683
 20
-30.4386
 30
0.0
 10
3.9279
 20
-30.2138
 30
0.0
 10
4.0137
 20
-29.9965
 30
0.0
 10
4.1251
 20
-29.7877
 30
0.0
 10
4.1251
 20
-29.7877
 30
0.0
 10
4.237
 20
-29.5789
 30
0.0
 10
4.3555
 20
-29.4024
 30
0.0
 10
4.4816
 20
-29.2595
 30
0.0
 10
4.4816
 20
-29.2595
 30
0.0
 10
4.4816
 20
-29.2595
 30
0.0
 10
3.492
 20
-29.2595
 30
0.0
 10
3.492
 20
-29.2595
 30
0.0
  0
SPLINE
  5
51
330
1F
100
AcDbEntity
  8
VRSTVA_1
 62
   250
100
AcDbSpline
210
0.0
220
0.0
230
1.0
 70
    11
 71
     3
 72
    52
 73
    48
 74
     0
 42
0.0000000001
 43
0.0000000001
 40
0.0
 40
0.0
 40
0.0
 40
0.0
 40
0.0769230769230769
 40
0.0769230769230769
 40
0.0769230769230769
 40
0.0769230769230769
 40
0.1538461538461539
 40
0.1538461538461539
 40
0.1538461538461539
 40
0.1538461538461539
 40
0.2307692307692308
 40
0.2307692307692308
 40
0.2307692307692308
 40
0.2307692307692308
 40
0.3076923076923077
 40
0.3076923076923077
 40
0.3076923076923077
 40
0.3076923076923077
 40
0.3846153846153846
 40
0.3846153846153846
 40
0.3846153846153846
 40
0.3846153846153846
 40
0.4615384615384616
 40
0.4615384615384616
 40
0.4615384615384616
 40
0.4615384615384616
 40
0.5384615384615384
 40
0.5384615384615384
 40
0.5384615384615384
 40
0.5384615384615384
 40
0.6153846153846154
 40
0.6153846153846154
 40
0.6153846153846154
 40
0.6153846153846154
 40
0.6923076923076923
 40
0.6923076923076923
 40
0.6923076923076923
 40
0.6923076923076923
 40
0.7692307692307693
 40
0.7692307692307693
 40
0.7692307692307693
 40
0.7692307692307693
 40
0.8461538461538461
 40
0.8461538461538461
 40
0.8461538461538461
 40
0.8461538461538461
 40
1.0
 40
1.0
 40
1.0
 40
1.0
 10
5.0451
 20
-30.0185
 30
0.0
 10
5.0451
 20
-29.7797
 30
0.0
 10
5.0696
 20
-29.5873
 30
0.0
 10
5.119
 20
-29.4419
 30
0.0
 10
5.119
 20
-29.4419
 30
0.0
 10
5.1679
 20
-29.2962
 30
0.0
 10
5.2413
 20
-29.1837
 30
0.0
 10
5.3382
 20
-29.1047
 30
0.0
 10
5.3382
 20
-29.1047
 30
0.0
 10
5.435
 20
-29.0257
 30
0.0
 10
5.5569
 20
-28.9861
 30
0.0
 10
5.7036
 20
-28.9861
 30
0.0
 10
5.7036
 20
-28.9861
 30
0.0
 10
5.8123
 20
-28.9861
 30
0.0
 10
5.9073
 20
-29.0083
 30
0.0
 10
5.9891
 20
-29.052
 30
0.0
 10
5.9891
 20
-29.052
 30
0.0
 10
6.071
 20
-29.0954
 30
0.0
 10
6.1383
 20
-29.1583
 30
0.0
 10
6.1918
 20
-29.2406
 30
0.0
 10
6.1918
 20
-29.2406
 30
0.0
 10
6.2451
 20
-29.3229
 30
0.0
 10
6.2869
 20
-29.4232
 30
0.0
 10
6.3169
 20
-29.5413
 30
0.0
 10
6.3169
 20
-29.5413
 30
0.0
 10
6.3475
 20
-29.6593
 30
0.0
 10
6.3626
 20
-29.8183
 30
0.0
 10
6.3626
 20
-30.0185
 30
0.0
 10
6.3626
 20
-30.0185
 30
0.0
 10
6.3626
 20
-30.2556
 30
0.0
 10
6.3381
 20
-30.4466
 30
0.0
 10
6.2896
 20
-30.5924
 30
0.0
 10
6.2896
 20
-30.5924
 30
0.0
 10
6.2407
 20
-30.7382
 30
0.0
 10
6.1679
 20
-30.8507
 30
0.0
 10
6.071
 20
-30.9302
 30
0.0
 10
6.071
 20
-30.9302
 30
0.0
 10
5.974
 20
-31.0096
 30
0.0
 10
5.8517
 20
-31.0492
 30
0.0
 10
5.7036
 20
-31.0492
 30
0.0
 10
5.7036
 20
-31.0492
 30
0.0
 10
5.509
 20
-31.0492
 30
0.0
 10
5.356
 20
-30.9795
 30
0.0
 10
5.245
 20
-30.8398
 30
0.0
 10
5.245
 20
-30.8398
 30
0.0
 10
5.112
 20
-30.6719
 30
0.0
 10
5.0451
 20
-30.3977
 30
0.0
 10
5.0451
 20
-30.0185
 30
0.0
  0
SPLINE
  5
52
330
1F
100
AcDbEntity
  8
VRSTVA_1
 62
   250
100
AcDbSpline
210
0.0
220
0.0
230
1.0
 70
    11
 71
     3
 72
    36
 73
    32
 74
     0
 42
0.0000000001
 43
0.0000000001
 40
0.0
 40
0.0
 40
0.0
 40
0.0
 40
0.1111111111111111
 40
0.1111111111111111
 40
0.1111111111111111
 40
0.1111111111111111
 40
0.2222222222222222
 40
0.2222222222222222
 40
0.2222222222222222
 40
0.2222222222222222
 40
0.3333333333333333
 40
0.3333333333333333
 40
0.3333333333333333
 40
0.3333333333333333
 40
0.4444444444444444
 40
0.4444444444444444
 40
0.4444444444444444
 40
0.4444444444444444
 40
0.5555555555555556
 40
0.5555555555555556
 40
0.5555555555555556
 40
0.5555555555555556
 40
0.6666666666666666
 40
0.6666666666666666
 40
0.6666666666666666
 40
0.6666666666666666
 40
0.7777777777777778
 40
0.7777777777777778
 40
0.7777777777777778
 40
0.7777777777777778
 40
1.0
 40
1.0
 40
1.0
 40
1.0
 10
5.3
 20
-30.0185
 30
0.0
 10
5.3
 20
-30.3502
 30
0.0
 10
5.3391
 20
-30.5708
 30
0.0
 10
5.4167
 20
-30.6809
 30
0.0
 10
5.4167
 20
-30.6809
 30
0.0
 10
5.4943
 20
-30.7905
 30
0.0
 10
5.5898
 20
-30.8455
 30
0.0
 10
5.7036
 20
-30.8455
 30
0.0
 10
5.7036
 20
-30.8455
 30
0.0
 10
5.8179
 20
-30.8455
 30
0.0
 10
5.9134
 20
-30.79
 30
0.0
 10
5.991
 20
-30.6799
 30
0.0
 10
5.991
 20
-30.6799
 30
0.0
 10
6.0686
 20
-30.5699
 30
0.0
 10
6.1077
 20
-30.3492
 30
0.0
 10
6.1077
 20
-30.0185
 30
0.0
 10
6.1077
 20
-30.0185
 30
0.0
 10
6.1077
 20
-29.6861
 30
0.0
 10
6.0686
 20
-29.465
 30
0.0
 10
5.991
 20
-29.3559
 30
0.0
 10
5.991
 20
-29.3559
 30
0.0
 10
5.9134
 20
-29.2463
 30
0.0
 10
5.817
 20
-29.1917
 30
0.0
 10
5.7013
 20
-29.1917
 30
0.0
 10
5.7013
 20
-29.1917
 30
0.0
 10
5.5869
 20
-29.1917
 30
0.0
 10
5.4962
 20
-29.2402
 30
0.0
 10
5.428
 20
-29.3366
 30
0.0
 10
5.428
 20
-29.3366
 30
0.0
 10
5.3428
 20
-29.4593
 30
0.0
 10
5.3
 20
-29.687
 30
0.0
 10
5.3
 20
-30.0185
 30
0.0
  0
SPLINE
  5
53
330
1F
100
AcDbEntity
  8
VRSTVA_1
 62
   250
100
AcDbSpline
210
0.0
220
0.0
230
1.0
 70
    11
 71
     3
 72
    92
 73
    88
 74
     0
 42
0.0000000001
 43
0.0000000001
 40
0.0
 40
0.0
 40
0.0
 40
0.0
 40
0.0434782608695652
 40
0.0434782608695652
 40
0.0434782608695652
 40
0.0434782608695652
 40
0.0869565217391304
 40
0.0869565217391304
 40
0.0869565217391304
 40
0.0869565217391304
 40
0.1304347826086956
 40
0.1304347826086956
 40
0.1304347826086956
 40
0.1304347826086956
 40
0.1739130434782609
 40
0.1739130434782609
 40
0.1739130434782609
 40
0.1739130434782609
 40
0.2173913043478261
 40
0.2173913043478261
 40
0.2173913043478261
 40
0.2173913043478261
 40
0.2608695652173913
 40
0.2608695652173913
 40
0.2608695652173913
 40
0.2608695652173913
 40
0.3043478260869565
 40
0.3043478260869565
 40
0.3043478260869565
 40
0.3043478260869565
 40
0.3478260869565217
 40
0.3478260869565217
 40
0.3478260869565217
 40
0.3478260869565217
 40
0.391304347826087
 40
0.391304347826087
 40
0.391304347826087
 40
0.391304347826087
 40
0.4347826086956522
 40
0.4347826086956522
 40
0.4347826086956522
 40
0.4347826086956522
 40
0.4782608695652174
 40
0.4782608695652174
 40
0.4782608695652174
 40
0.4782608695652174
 40
0.5217391304347826
 40
0.5217391304347826
 40
0.5217391304347826
 40
0.5217391304347826
 40
0.5652173913043478
 40
0.5652173913043478
 40
0.5652173913043478
 40
0.5652173913043478
 40
0.6086956521739131
 40
0.6086956521739131
 40
0.6086956521739131
 40
0.6086956521739131
 40
0.6521739130434783
 40
0.6521739130434783
 40
0.6521739130434783
 40
0.6521739130434783
 40
0.6956521739130435
 40
0.6956521739130435
 40
0.6956521739130435
 40
0.6956521739130435
 40
0.7391304347826086
 40
0.7391304347826086
 40
0.7391304347826086
 40
0.7391304347826086
 40
0.782608695652174
 40
0.782608695652174
 40
0.782608695652174
 40
0.782608695652174
 40
0.8260869565217391
 40
0.8260869565217391
 40
0.8260869565217391
 40
0.8260869565217391
 40
0.8695652173913043
 40
0.8695652173913043
 40
0.8695652173913043
 40
0.8695652173913043
 40
0.9130434782608695
 40
0.9130434782608695
 40
0.9130434782608695
 40
0.9130434782608695
 40
1.0
 40
1.0
 40
1.0
 40
1.0
 10
-15.4896
 20
0.6154
 30
0.0
 10
-15.4896
 20
0.6154
 30
0.0
 10
-15.2512
 20
0.6154
 30
0.0
 10
-15.2512
 20
0.6154
 30
0.0
 10
-15.2512
 20
0.6154
 30
0.0
 10
-15.2512
 20
0.6154
 30
0.0
 10
-15.2512
 20
-0.72
 30
0.0
 10
-15.2512
 20
-0.72
 30
0.0
 10
-15.2512
 20
-0.72
 30
0.0
 10
-15.311
 20
-0.7219
 30
0.0
 10
-15.3683
 20
-0.7125
 30
0.0
 10
-15.4233
 20
-0.6913
 30
0.0
 10
-15.4233
 20
-0.6913
 30
0.0
 10
-15.5146
 20
-0.6574
 30
0.0
 10
-15.604
 20
-0.6029
 30
0.0
 10
-15.6923
 20
-0.528
 30
0.0
 10
-15.6923
 20
-0.528
 30
0.0
 10
-15.7804
 20
-0.4528
 30
0.0
 10
-15.8824
 20
-0.3446
 30
0.0
 10
-15.9982
 20
-0.2036
 30
0.0
 10
-15.9982
 20
-0.2036
 30
0.0
 10
-16.1783
 20
0.0161
 30
0.0
 10
-16.3208
 20
0.1647
 30
0.0
 10
-16.4261
 20
0.2419
 30
0.0
 10
-16.4261
 20
0.2419
 30
0.0
 10
-16.531
 20
0.3191
 30
0.0
 10
-16.6307
 20
0.3576
 30
0.0
 10
-16.7243
 20
0.3576
 30
0.0
 10
-16.7243
 20
0.3576
 30
0.0
 10
-16.8227
 20
0.3576
 30
0.0
 10
-16.9054
 20
0.3223
 30
0.0
 10
-16.9731
 20
0.2522
 30
0.0
 10
-16.9731
 20
0.2522
 30
0.0
 10
-17.0404
 20
0.1817
 30
0.0
 10
-17.0743
 20
0.09
 30
0.0
 10
-17.0743
 20
-0.0229
 30
0.0
 10
-17.0743
 20
-0.0229
 30
0.0
 10
-17.0743
 20
-0.1425
 30
0.0
 10
-17.0386
 20
-0.2378
 30
0.0
 10
-16.9666
 20
-0.3094
 30
0.0
 10
-16.9666
 20
-0.3094
 30
0.0
 10
-16.8951
 20
-0.3813
 30
0.0
 10
-16.7958
 20
-0.4176
 30
0.0
 10
-16.6693
 20
-0.4185
 30
0.0
 10
-16.6693
 20
-0.4185
 30
0.0
 10
-16.6693
 20
-0.4185
 30
0.0
 10
-16.6951
 20
-0.6734
 30
0.0
 10
-16.6951
 20
-0.6734
 30
0.0
 10
-16.6951
 20
-0.6734
 30
0.0
 10
-16.8856
 20
-0.656
 30
0.0
 10
-17.0306
 20
-0.5901
 30
0.0
 10
-17.1303
 20
-0.4764
 30
0.0
 10
-17.1303
 20
-0.4764
 30
0.0
 10
-17.23
 20
-0.3626
 30
0.0
 10
-17.2799
 20
-0.2092
 30
0.0
 10
-17.2799
 20
-0.0173
 30
0.0
 10
-17.2799
 20
-0.0173
 30
0.0
 10
-17.2799
 20
0.1765
 30
0.0
 10
-17.2257
 20
0.3298
 30
0.0
 10
-17.1185
 20
0.4427
 30
0.0
 10
-17.1185
 20
0.4427
 30
0.0
 10
-17.0107
 20
0.556
 30
0.0
 10
-16.8777
 20
0.6125
 30
0.0
 10
-16.7186
 20
0.6125
 30
0.0
 10
-16.7186
 20
0.6125
 30
0.0
 10
-16.6378
 20
0.6125
 30
0.0
 10
-16.5583
 20
0.5961
 30
0.0
 10
-16.4802
 20
0.5627
 30
0.0
 10
-16.4802
 20
0.5627
 30
0.0
 10
-16.4022
 20
0.5298
 30
0.0
 10
-16.3199
 20
0.4748
 30
0.0
 10
-16.2337
 20
0.398
 30
0.0
 10
-16.2337
 20
0.398
 30
0.0
 10
-16.1472
 20
0.3214
 30
0.0
 10
-16.0287
 20
0.1939
 30
0.0
 10
-15.8782
 20
0.0157
 30
0.0
 10
-15.8782
 20
0.0157
 30
0.0
 10
-15.7531
 20
-0.133
 30
0.0
 10
-15.6684
 20
-0.2285
 30
0.0
 10
-15.6237
 20
-0.2709
 30
0.0
 10
-15.6237
 20
-0.2709
 30
0.0
 10
-15.5794
 20
-0.3131
 30
0.0
 10
-15.5349
 20
-0.3479
 30
0.0
 10
-15.4896
 20
-0.3757
 30
0.0
 10
-15.4896
 20
-0.3757
 30
0.0
 10
-15.4896
 20
-0.3757
 30
0.0
 10
-15.4896
 20
0.6154
 30
0.0
 10
-15.4896
 20
0.6154
 30
0.0
  0
SPLINE
  5
54
330
1F
100
AcDbEntity
  8
VRSTVA_1
 62
   250
100
AcDbSpline
210
0.0
220
0.0
230
1.0
 70
    11
 71
     3
 72
    52
 73
    48
 74
     0
 42
0.0000000001
 43
0.0000000001
 40
0.0
 40
0.0
 40
0.0
 40
0.0
 40
0.0769230769230769
 40
0.0769230769230769
 40
0.0769230769230769
 40
0.0769230769230769
 40
0.1538461538461539
 40
0.1538461538461539
 40
0.1538461538461539
 40
0.1538461538461539
 40
0.2307692307692308
 40
0.2307692307692308
 40
0.2307692307692308
 40
0.2307692307692308
 40
0.3076923076923077
 40
0.3076923076923077
 40
0.3076923076923077
 40
0.3076923076923077
 40
0.3846153846153846
 40
0.3846153846153846
 40
0.3846153846153846
 40
0.3846153846153846
 40
0.4615384615384616
 40
0.4615384615384616
 40
0.4615384615384616
 40
0.4615384615384616
 40
0.5384615384615384
 40
0.5384615384615384
 40
0.5384615384615384
 40
0.5384615384615384
 40
0.6153846153846154
 40
0.6153846153846154
 40
0.6153846153846154
 40
0.6153846153846154
 40
0.6923076923076923
 40
0.6923076923076923
 40
0.6923076923076923
 40
0.6923076923076923
 40
0.7692307692307693
 40
0.7692307692307693
 40
0.7692307692307693
 40
0.7692307692307693
 40
0.8461538461538461
 40
0.8461538461538461
 40
0.8461538461538461
 40
0.8461538461538461
 40
1.0
 40
1.0
 40
1.0
 40
1.0
 10
-16.2475
 20
0.8811
 30
0.0
 10
-16.4863
 20
0.8811
 30
0.0
 10
-16.6787
 20
0.9056
 30
0.0
 10
-16.8241
 20
0.955
 30
0.0
 10
-16.8241
 20
0.955
 30
0.0
 10
-16.9698
 20
1.0039
 30
0.0
 10
-17.0823
 20
1.0773
 30
0.0
 10
-17.1613
 20
1.1742
 30
0.0
 10
-17.1613
 20
1.1742
 30
0.0
 10
-17.2403
 20
1.271
 30
0.0
 10
-17.2799
 20
1.3929
 30
0.0
 10
-17.2799
 20
1.5396
 30
0.0
 10
-17.2799
 20
1.5396
 30
0.0
 10
-17.2799
 20
1.6483
 30
0.0
 10
-17.2577
 20
1.7433
 30
0.0
 10
-17.214
 20
1.8251
 30
0.0
 10
-17.214
 20
1.8251
 30
0.0
 10
-17.1706
 20
1.907
 30
0.0
 10
-17.1077
 20
1.9743
 30
0.0
 10
-17.0254
 20
2.0278
 30
0.0
 10
-17.0254
 20
2.0278
 30
0.0
 10
-16.9431
 20
2.081
 30
0.0
 10
-16.8428
 20
2.1229
 30
0.0
 10
-16.7247
 20
2.1529
 30
0.0
 10
-16.7247
 20
2.1529
 30
0.0
 10
-16.6067
 20
2.1835
 30
0.0
 10
-16.4477
 20
2.1986
 30
0.0
 10
-16.2475
 20
2.1986
 30
0.0
 10
-16.2475
 20
2.1986
 30
0.0
 10
-16.0104
 20
2.1986
 30
0.0
 10
-15.8194
 20
2.1741
 30
0.0
 10
-15.6736
 20
2.1256
 30
0.0
 10
-15.6736
 20
2.1256
 30
0.0
 10
-15.5278
 20
2.0767
 30
0.0
 10
-15.4153
 20
2.0039
 30
0.0
 10
-15.3358
 20
1.907
 30
0.0
 10
-15.3358
 20
1.907
 30
0.0
 10
-15.2564
 20
1.81
 30
0.0
 10
-15.2168
 20
1.6877
 30
0.0
 10
-15.2168
 20
1.5396
 30
0.0
 10
-15.2168
 20
1.5396
 30
0.0
 10
-15.2168
 20
1.3449
 30
0.0
 10
-15.2865
 20
1.192
 30
0.0
 10
-15.4262
 20
1.081
 30
0.0
 10
-15.4262
 20
1.081
 30
0.0
 10
-15.5941
 20
0.948
 30
0.0
 10
-15.8683
 20
0.8811
 30
0.0
 10
-16.2475
 20
0.8811
 30
0.0
  0
SPLINE
  5
55
330
1F
100
AcDbEntity
  8
VRSTVA_1
 62
   250
100
AcDbSpline
210
0.0
220
0.0
230
1.0
 70
    11
 71
     3
 72
    36
 73
    32
 74
     0
 42
0.0000000001
 43
0.0000000001
 40
0.0
 40
0.0
 40
0.0
 40
0.0
 40
0.1111111111111111
 40
0.1111111111111111
 40
0.1111111111111111
 40
0.1111111111111111
 40
0.2222222222222222
 40
0.2222222222222222
 40
0.2222222222222222
 40
0.2222222222222222
 40
0.3333333333333333
 40
0.3333333333333333
 40
0.3333333333333333
 40
0.3333333333333333
 40
0.4444444444444444
 40
0.4444444444444444
 40
0.4444444444444444
 40
0.4444444444444444
 40
0.5555555555555556
 40
0.5555555555555556
 40
0.5555555555555556
 40
0.5555555555555556
 40
0.6666666666666666
 40
0.6666666666666666
 40
0.6666666666666666
 40
0.6666666666666666
 40
0.7777777777777778
 40
0.7777777777777778
 40
0.7777777777777778
 40
0.7777777777777778
 40
1.0
 40
1.0
 40
1.0
 40
1.0
 10
-16.2475
 20
1.136
 30
0.0
 10
-15.9158
 20
1.136
 30
0.0
 10
-15.6952
 20
1.1751
 30
0.0
 10
-15.5851
 20
1.2527
 30
0.0
 10
-15.5851
 20
1.2527
 30
0.0
 10
-15.4755
 20
1.3303
 30
0.0
 10
-15.4205
 20
1.4258
 30
0.0
 10
-15.4205
 20
1.5396
 30
0.0
 10
-15.4205
 20
1.5396
 30
0.0
 10
-15.4205
 20
1.6539
 30
0.0
 10
-15.476
 20
1.7494
 30
0.0
 10
-15.5861
 20
1.827
 30
0.0
 10
-15.5861
 20
1.827
 30
0.0
 10
-15.6961
 20
1.9046
 30
0.0
 10
-15.9168
 20
1.9437
 30
0.0
 10
-16.2475
 20
1.9437
 30
0.0
 10
-16.2475
 20
1.9437
 30
0.0
 10
-16.5799
 20
1.9437
 30
0.0
 10
-16.801
 20
1.9046
 30
0.0
 10
-16.9101
 20
1.827
 30
0.0
 10
-16.9101
 20
1.827
 30
0.0
 10
-17.0197
 20
1.7494
 30
0.0
 10
-17.0743
 20
1.6529
 30
0.0
 10
-17.0743
 20
1.5373
 30
0.0
 10
-17.0743
 20
1.5373
 30
0.0
 10
-17.0743
 20
1.4229
 30
0.0
 10
-17.0258
 20
1.3322
 30
0.0
 10
-16.9294
 20
1.264
 30
0.0
 10
-16.9294
 20
1.264
 30
0.0
 10
-16.8067
 20
1.1788
 30
0.0
 10
-16.579
 20
1.136
 30
0.0
 10
-16.2475
 20
1.136
 30
0.0
  0
SPLINE
  5
56
330
1F
100
AcDbEntity
  8
VRSTVA_1
 62
   250
100
AcDbSpline
210
0.0
220
0.0
230
1.0
 70
    11
 71
     3
 72
    52
 73
    48
 74
     0
 42
0.0000000001
 43
0.0000000001
 40
0.0
 40
0.0
 40
0.0
 40
0.0
 40
0.0769230769230769
 40
0.0769230769230769
 40
0.0769230769230769
 40
0.0769230769230769
 40
0.1538461538461539
 40
0.1538461538461539
 40
0.1538461538461539
 40
0.1538461538461539
 40
0.2307692307692308
 40
0.2307692307692308
 40
0.2307692307692308
 40
0.2307692307692308
 40
0.3076923076923077
 40
0.3076923076923077
 40
0.3076923076923077
 40
0.3076923076923077
 40
0.3846153846153846
 40
0.3846153846153846
 40
0.3846153846153846
 40
0.3846153846153846
 40
0.4615384615384616
 40
0.4615384615384616
 40
0.4615384615384616
 40
0.4615384615384616
 40
0.5384615384615384
 40
0.5384615384615384
 40
0.5384615384615384
 40
0.5384615384615384
 40
0.6153846153846154
 40
0.6153846153846154
 40
0.6153846153846154
 40
0.6153846153846154
 40
0.6923076923076923
 40
0.6923076923076923
 40
0.6923076923076923
 40
0.6923076923076923
 40
0.7692307692307693
 40
0.7692307692307693
 40
0.7692307692307693
 40
0.7692307692307693
 40
0.8461538461538461
 40
0.8461538461538461
 40
0.8461538461538461
 40
0.8461538461538461
 40
1.0
 40
1.0
 40
1.0
 40
1.0
 10
-16.2475
 20
2.4507
 30
0.0
 10
-16.4863
 20
2.4507
 30
0.0
 10
-16.6787
 20
2.4752
 30
0.0
 10
-16.8241
 20
2.5246
 30
0.0
 10
-16.8241
 20
2.5246
 30
0.0
 10
-16.9698
 20
2.5735
 30
0.0
 10
-17.0823
 20
2.6469
 30
0.0
 10
-17.1613
 20
2.7438
 30
0.0
 10
-17.1613
 20
2.7438
 30
0.0
 10
-17.2403
 20
2.8406
 30
0.0
 10
-17.2799
 20
2.9625
 30
0.0
 10
-17.2799
 20
3.1092
 30
0.0
 10
-17.2799
 20
3.1092
 30
0.0
 10
-17.2799
 20
3.2179
 30
0.0
 10
-17.2577
 20
3.3129
 30
0.0
 10
-17.214
 20
3.3947
 30
0.0
 10
-17.214
 20
3.3947
 30
0.0
 10
-17.1706
 20
3.4766
 30
0.0
 10
-17.1077
 20
3.5439
 30
0.0
 10
-17.0254
 20
3.5974
 30
0.0
 10
-17.0254
 20
3.5974
 30
0.0
 10
-16.9431
 20
3.6506
 30
0.0
 10
-16.8428
 20
3.6925
 30
0.0
 10
-16.7247
 20
3.7225
 30
0.0
 10
-16.7247
 20
3.7225
 30
0.0
 10
-16.6067
 20
3.7531
 30
0.0
 10
-16.4477
 20
3.7682
 30
0.0
 10
-16.2475
 20
3.7682
 30
0.0
 10
-16.2475
 20
3.7682
 30
0.0
 10
-16.0104
 20
3.7682
 30
0.0
 10
-15.8194
 20
3.7437
 30
0.0
 10
-15.6736
 20
3.6952
 30
0.0
 10
-15.6736
 20
3.6952
 30
0.0
 10
-15.5278
 20
3.6463
 30
0.0
 10
-15.4153
 20
3.5735
 30
0.0
 10
-15.3358
 20
3.4766
 30
0.0
 10
-15.3358
 20
3.4766
 30
0.0
 10
-15.2564
 20
3.3796
 30
0.0
 10
-15.2168
 20
3.2573
 30
0.0
 10
-15.2168
 20
3.1092
 30
0.0
 10
-15.2168
 20
3.1092
 30
0.0
 10
-15.2168
 20
2.9146
 30
0.0
 10
-15.2865
 20
2.7616
 30
0.0
 10
-15.4262
 20
2.6506
 30
0.0
 10
-15.4262
 20
2.6506
 30
0.0
 10
-15.5941
 20
2.5176
 30
0.0
 10
-15.8683
 20
2.4507
 30
0.0
 10
-16.2475
 20
2.4507
 30
0.0
  0
SPLINE
  5
57
330
1F
100
AcDbEntity
  8
VRSTVA_1
 62
   250
100
AcDbSpline
210
0.0
220
0.0
230
1.0
 70
    11
 71
     3
 72
    36
 73
    32
 74
     0
 42
0.0000000001
 43
0.0000000001
 40
0.0
 40
0.0
 40
0.0
 40
0.0
 40
0.1111111111111111
 40
0.1111111111111111
 40
0.1111111111111111
 40
0.1111111111111111
 40
0.2222222222222222
 40
0.2222222222222222
 40
0.2222222222222222
 40
0.2222222222222222
 40
0.3333333333333333
 40
0.3333333333333333
 40
0.3333333333333333
 40
0.3333333333333333
 40
0.4444444444444444
 40
0.4444444444444444
 40
0.4444444444444444
 40
0.4444444444444444
 40
0.5555555555555556
 40
0.5555555555555556
 40
0.5555555555555556
 40
0.5555555555555556
 40
0.6666666666666666
 40
0.6666666666666666
 40
0.6666666666666666
 40
0.6666666666666666
 40
0.7777777777777778
 40
0.7777777777777778
 40
0.7777777777777778
 40
0.7777777777777778
 40
1.0
 40
1.0
 40
1.0
 40
1.0
 10
-16.2475
 20
2.7056
 30
0.0
 10
-15.9158
 20
2.7056
 30
0.0
 10
-15.6952
 20
2.7447
 30
0.0
 10
-15.5851
 20
2.8223
 30
0.0
 10
-15.5851
 20
2.8223
 30
0.0
 10
-15.4755
 20
2.8999
 30
0.0
 10
-15.4205
 20
2.9954
 30
0.0
 10
-15.4205
 20
3.1092
 30
0.0
 10
-15.4205
 20
3.1092
 30
0.0
 10
-15.4205
 20
3.2235
 30
0.0
 10
-15.476
 20
3.319
 30
0.0
 10
-15.5861
 20
3.3966
 30
0.0
 10
-15.5861
 20
3.3966
 30
0.0
 10
-15.6961
 20
3.4742
 30
0.0
 10
-15.9168
 20
3.5133
 30
0.0
 10
-16.2475
 20
3.5133
 30
0.0
 10
-16.2475
 20
3.5133
 30
0.0
 10
-16.5799
 20
3.5133
 30
0.0
 10
-16.801
 20
3.4742
 30
0.0
 10
-16.9101
 20
3.3966
 30
0.0
 10
-16.9101
 20
3.3966
 30
0.0
 10
-17.0197
 20
3.319
 30
0.0
 10
-17.0743
 20
3.2225
 30
0.0
 10
-17.0743
 20
3.1069
 30
0.0
 10
-17.0743
 20
3.1069
 30
0.0
 10
-17.0743
 20
2.9925
 30
0.0
 10
-17.0258
 20
2.9018
 30
0.0
 10
-16.9294
 20
2.8336
 30
0.0
 10
-16.9294
 20
2.8336
 30
0.0
 10
-16.8067
 20
2.7484
 30
0.0
 10
-16.579
 20
2.7056
 30
0.0
 10
-16.2475
 20
2.7056
 30
0.0
  0
SPLINE
  5
58
330
1F
100
AcDbEntity
  8
VRSTVA_1
 62
   250
100
AcDbSpline
210
0.0
220
0.0
230
1.0
 70
    11
 71
     3
 72
    20
 73
    16
 74
     0
 42
0.0000000001
 43
0.0000000001
 40
0.0
 40
0.0
 40
0.0
 40
0.0
 40
0.2
 40
0.2
 40
0.2
 40
0.2
 40
0.4
 40
0.4
 40
0.4
 40
0.4
 40
0.6
 40
0.6
 40
0.6
 40
0.6
 40
1.0
 40
1.0
 40
1.0
 40
1.0
 10
-15.8575
 20
4.7767
 30
0.0
 10
-15.8575
 20
4.7767
 30
0.0
 10
-16.1067
 20
4.7767
 30
0.0
 10
-16.1067
 20
4.7767
 30
0.0
 10
-16.1067
 20
4.7767
 30
0.0
 10
-16.1067
 20
4.7767
 30
0.0
 10
-16.1067
 20
5.5391
 30
0.0
 10
-16.1067
 20
5.5391
 30
0.0
 10
-16.1067
 20
5.5391
 30
0.0
 10
-16.1067
 20
5.5391
 30
0.0
 10
-15.8575
 20
5.5391
 30
0.0
 10
-15.8575
 20
5.5391
 30
0.0
 10
-15.8575
 20
5.5391
 30
0.0
 10
-15.8575
 20
5.5391
 30
0.0
 10
-15.8575
 20
4.7767
 30
0.0
 10
-15.8575
 20
4.7767
 30
0.0
  0
SPLINE
  5
59
330
1F
100
AcDbEntity
  8
VRSTVA_1
 62
   250
100
AcDbSpline
210
0.0
220
0.0
230
1.0
 70
    11
 71
     3
 72
    92
 73
    88
 74
     0
 42
0.0000000001
 43
0.0000000001
 40
0.0
 40
0.0
 40
0.0
 40
0.0
 40
0.0434782608695652
 40
0.0434782608695652
 40
0.0434782608695652
 40
0.0434782608695652
 40
0.0869565217391304
 40
0.0869565217391304
 40
0.0869565217391304
 40
0.0869565217391304
 40
0.1304347826086956
 40
0.1304347826086956
 40
0.1304347826086956
 40
0.1304347826086956
 40
0.1739130434782609
 40
0.1739130434782609
 40
0.1739130434782609
 40
0.1739130434782609
 40
0.2173913043478261
 40
0.2173913043478261
 40
0.2173913043478261
 40
0.2173913043478261
 40
0.2608695652173913
 40
0.2608695652173913
 40
0.2608695652173913
 40
0.2608695652173913
 40
0.3043478260869565
 40
0.3043478260869565
 40
0.3043478260869565
 40
0.3043478260869565
 40
0.3478260869565217
 40
0.3478260869565217
 40
0.3478260869565217
 40
0.3478260869565217
 40
0.391304347826087
 40
0.391304347826087
 40
0.391304347826087
 40
0.391304347826087
 40
0.4347826086956522
 40
0.4347826086956522
 40
0.4347826086956522
 40
0.4347826086956522
 40
0.4782608695652174
 40
0.4782608695652174
 40
0.4782608695652174
 40
0.4782608695652174
 40
0.5217391304347826
 40
0.5217391304347826
 40
0.5217391304347826
 40
0.5217391304347826
 40
0.5652173913043478
 40
0.5652173913043478
 40
0.5652173913043478
 40
0.5652173913043478
 40
0.6086956521739131
 40
0.6086956521739131
 40
0.6086956521739131
 40
0.6086956521739131
 40
0.6521739130434783
 40
0.6521739130434783
 40
0.6521739130434783
 40
0.6521739130434783
 40
0.6956521739130435
 40
0.6956521739130435
 40
0.6956521739130435
 40
0.6956521739130435
 40
0.7391304347826086
 40
0.7391304347826086
 40
0.7391304347826086
 40
0.7391304347826086
 40
0.782608695652174
 40
0.782608695652174
 40
0.782608695652174
 40
0.782608695652174
 40
0.8260869565217391
 40
0.8260869565217391
 40
0.8260869565217391
 40
0.8260869565217391
 40
0.8695652173913043
 40
0.8695652173913043
 40
0.8695652173913043
 40
0.8695652173913043
 40
0.9130434782608695
 40
0.9130434782608695
 40
0.9130434782608695
 40
0.9130434782608695
 40
1.0
 40
1.0
 40
1.0
 40
1.0
 10
-15.4896
 20
7.832
 30
0.0
 10
-15.4896
 20
7.832
 30
0.0
 10
-15.2512
 20
7.832
 30
0.0
 10
-15.2512
 20
7.832
 30
0.0
 10
-15.2512
 20
7.832
 30
0.0
 10
-15.2512
 20
7.832
 30
0.0
 10
-15.2512
 20
6.4967
 30
0.0
 10
-15.2512
 20
6.4967
 30
0.0
 10
-15.2512
 20
6.4967
 30
0.0
 10
-15.311
 20
6.4948
 30
0.0
 10
-15.3683
 20
6.5041
 30
0.0
 10
-15.4233
 20
6.5253
 30
0.0
 10
-15.4233
 20
6.5253
 30
0.0
 10
-15.5146
 20
6.5593
 30
0.0
 10
-15.604
 20
6.6138
 30
0.0
 10
-15.6923
 20
6.6886
 30
0.0
 10
-15.6923
 20
6.6886
 30
0.0
 10
-15.7804
 20
6.7639
 30
0.0
 10
-15.8824
 20
6.8721
 30
0.0
 10
-15.9982
 20
7.0131
 30
0.0
 10
-15.9982
 20
7.0131
 30
0.0
 10
-16.1783
 20
7.2328
 30
0.0
 10
-16.3208
 20
7.3814
 30
0.0
 10
-16.4261
 20
7.4586
 30
0.0
 10
-16.4261
 20
7.4586
 30
0.0
 10
-16.531
 20
7.5357
 30
0.0
 10
-16.6307
 20
7.5743
 30
0.0
 10
-16.7243
 20
7.5743
 30
0.0
 10
-16.7243
 20
7.5743
 30
0.0
 10
-16.8227
 20
7.5743
 30
0.0
 10
-16.9054
 20
7.539
 30
0.0
 10
-16.9731
 20
7.4689
 30
0.0
 10
-16.9731
 20
7.4689
 30
0.0
 10
-17.0404
 20
7.3984
 30
0.0
 10
-17.0743
 20
7.3067
 30
0.0
 10
-17.0743
 20
7.1938
 30
0.0
 10
-17.0743
 20
7.1938
 30
0.0
 10
-17.0743
 20
7.0742
 30
0.0
 10
-17.0386
 20
6.9788
 30
0.0
 10
-16.9666
 20
6.9072
 30
0.0
 10
-16.9666
 20
6.9072
 30
0.0
 10
-16.8951
 20
6.8354
 30
0.0
 10
-16.7958
 20
6.7991
 30
0.0
 10
-16.6693
 20
6.7981
 30
0.0
 10
-16.6693
 20
6.7981
 30
0.0
 10
-16.6693
 20
6.7981
 30
0.0
 10
-16.6951
 20
6.5433
 30
0.0
 10
-16.6951
 20
6.5433
 30
0.0
 10
-16.6951
 20
6.5433
 30
0.0
 10
-16.8856
 20
6.5607
 30
0.0
 10
-17.0306
 20
6.6266
 30
0.0
 10
-17.1303
 20
6.7403
 30
0.0
 10
-17.1303
 20
6.7403
 30
0.0
 10
-17.23
 20
6.8541
 30
0.0
 10
-17.2799
 20
7.0075
 30
0.0
 10
-17.2799
 20
7.1993
 30
0.0
 10
-17.2799
 20
7.1993
 30
0.0
 10
-17.2799
 20
7.3932
 30
0.0
 10
-17.2257
 20
7.5465
 30
0.0
 10
-17.1185
 20
7.6594
 30
0.0
 10
-17.1185
 20
7.6594
 30
0.0
 10
-17.0107
 20
7.7727
 30
0.0
 10
-16.8777
 20
7.8292
 30
0.0
 10
-16.7186
 20
7.8292
 30
0.0
 10
-16.7186
 20
7.8292
 30
0.0
 10
-16.6378
 20
7.8292
 30
0.0
 10
-16.5583
 20
7.8128
 30
0.0
 10
-16.4802
 20
7.7793
 30
0.0
 10
-16.4802
 20
7.7793
 30
0.0
 10
-16.4022
 20
7.7465
 30
0.0
 10
-16.3199
 20
7.6914
 30
0.0
 10
-16.2337
 20
7.6147
 30
0.0
 10
-16.2337
 20
7.6147
 30
0.0
 10
-16.1472
 20
7.538
 30
0.0
 10
-16.0287
 20
7.4106
 30
0.0
 10
-15.8782
 20
7.2324
 30
0.0
 10
-15.8782
 20
7.2324
 30
0.0
 10
-15.7531
 20
7.0837
 30
0.0
 10
-15.6684
 20
6.9882
 30
0.0
 10
-15.6237
 20
6.9458
 30
0.0
 10
-15.6237
 20
6.9458
 30
0.0
 10
-15.5794
 20
6.9036
 30
0.0
 10
-15.5349
 20
6.8688
 30
0.0
 10
-15.4896
 20
6.8409
 30
0.0
 10
-15.4896
 20
6.8409
 30
0.0
 10
-15.4896
 20
6.8409
 30
0.0
 10
-15.4896
 20
7.832
 30
0.0
 10
-15.4896
 20
7.832
 30
0.0
  0
SPLINE
  5
5A
330
1F
100
AcDbEntity
  8
VRSTVA_1
 62
   250
100
AcDbSpline
210
0.0
220
0.0
230
1.0
 70
    11
 71
     3
 72
    68
 73
    64
 74
     0
 42
0.0000000001
 43
0.0000000001
 40
0.0
 40
0.0
 40
0.0
 40
0.0
 40
0.0588235294117647
 40
0.0588235294117647
 40
0.0588235294117647
 40
0.0588235294117647
 40
0.1176470588235294
 40
0.1176470588235294
 40
0.1176470588235294
 40
0.1176470588235294
 40
0.1764705882352941
 40
0.1764705882352941
 40
0.1764705882352941
 40
0.1764705882352941
 40
0.2352941176470588
 40
0.2352941176470588
 40
0.2352941176470588
 40
0.2352941176470588
 40
0.2941176470588235
 40
0.2941176470588235
 40
0.2941176470588235
 40
0.2941176470588235
 40
0.3529411764705883
 40
0.3529411764705883
 40
0.3529411764705883
 40
0.3529411764705883
 40
0.4117647058823529
 40
0.4117647058823529
 40
0.4117647058823529
 40
0.4117647058823529
 40
0.4705882352941176
 40
0.4705882352941176
 40
0.4705882352941176
 40
0.4705882352941176
 40
0.5294117647058824
 40
0.5294117647058824
 40
0.5294117647058824
 40
0.5294117647058824
 40
0.5882352941176471
 40
0.5882352941176471
 40
0.5882352941176471
 40
0.5882352941176471
 40
0.6470588235294118
 40
0.6470588235294118
 40
0.6470588235294118
 40
0.6470588235294118
 40
0.7058823529411765
 40
0.7058823529411765
 40
0.7058823529411765
 40
0.7058823529411765
 40
0.7647058823529411
 40
0.7647058823529411
 40
0.7647058823529411
 40
0.7647058823529411
 40
0.8235294117647058
 40
0.8235294117647058
 40
0.8235294117647058
 40
0.8235294117647058
 40
0.8823529411764706
 40
0.8823529411764706
 40
0.8823529411764706
 40
0.8823529411764706
 40
1.0
 40
1.0
 40
1.0
 40
1.0
 10
-16.3466
 20
8.4797
 30
0.0
 10
-16.3843
 20
8.3767
 30
0.0
 10
-16.4379
 20
8.3005
 30
0.0
 10
-16.5079
 20
8.2506
 30
0.0
 10
-16.5079
 20
8.2506
 30
0.0
 10
-16.5776
 20
8.2013
 30
0.0
 10
-16.6613
 20
8.1763
 30
0.0
 10
-16.7587
 20
8.1763
 30
0.0
 10
-16.7587
 20
8.1763
 30
0.0
 10
-16.9059
 20
8.1763
 30
0.0
 10
-17.0291
 20
8.229
 30
0.0
 10
-17.1293
 20
8.3349
 30
0.0
 10
-17.1293
 20
8.3349
 30
0.0
 10
-17.2295
 20
8.4407
 30
0.0
 10
-17.2799
 20
8.5809
 30
0.0
 10
-17.2799
 20
8.7563
 30
0.0
 10
-17.2799
 20
8.7563
 30
0.0
 10
-17.2799
 20
8.9327
 30
0.0
 10
-17.2285
 20
9.0748
 30
0.0
 10
-17.1261
 20
9.1824
 30
0.0
 10
-17.1261
 20
9.1824
 30
0.0
 10
-17.0235
 20
9.2897
 30
0.0
 10
-16.8988
 20
9.3432
 30
0.0
 10
-16.7516
 20
9.3432
 30
0.0
 10
-16.7516
 20
9.3432
 30
0.0
 10
-16.658
 20
9.3432
 30
0.0
 10
-16.5767
 20
9.3188
 30
0.0
 10
-16.5071
 20
9.2699
 30
0.0
 10
-16.5071
 20
9.2699
 30
0.0
 10
-16.4379
 20
9.2206
 30
0.0
 10
-16.3843
 20
9.1462
 30
0.0
 10
-16.3466
 20
9.046
 30
0.0
 10
-16.3466
 20
9.046
 30
0.0
 10
-16.3062
 20
9.1697
 30
0.0
 10
-16.2414
 20
9.2643
 30
0.0
 10
-16.151
 20
9.3292
 30
0.0
 10
-16.151
 20
9.3292
 30
0.0
 10
-16.0612
 20
9.3936
 30
0.0
 10
-15.9535
 20
9.4261
 30
0.0
 10
-15.8287
 20
9.4261
 30
0.0
 10
-15.8287
 20
9.4261
 30
0.0
 10
-15.6557
 20
9.4261
 30
0.0
 10
-15.5108
 20
9.365
 30
0.0
 10
-15.3933
 20
9.2431
 30
0.0
 10
-15.3933
 20
9.2431
 30
0.0
 10
-15.2757
 20
9.1208
 30
0.0
 10
-15.2168
 20
8.96
 30
0.0
 10
-15.2168
 20
8.7605
 30
0.0
 10
-15.2168
 20
8.7605
 30
0.0
 10
-15.2168
 20
8.5611
 30
0.0
 10
-15.2757
 20
8.4008
 30
0.0
 10
-15.3937
 20
8.2784
 30
0.0
 10
-15.3937
 20
8.2784
 30
0.0
 10
-15.5118
 20
8.1561
 30
0.0
 10
-15.6591
 20
8.0949
 30
0.0
 10
-15.8354
 20
8.0949
 30
0.0
 10
-15.8354
 20
8.0949
 30
0.0
 10
-15.9666
 20
8.0949
 30
0.0
 10
-16.0767
 20
8.1284
 30
0.0
 10
-16.1655
 20
8.1952
 30
0.0
 10
-16.1655
 20
8.1952
 30
0.0
 10
-16.254
 20
8.2615
 30
0.0
 10
-16.3147
 20
8.3565
 30
0.0
 10
-16.3466
 20
8.4797
 30
0.0
  0
SPLINE
  5
5B
330
1F
100
AcDbEntity
  8
VRSTVA_1
 62
   250
100
AcDbSpline
210
0.0
220
0.0
230
1.0
 70
    11
 71
     3
 72
    36
 73
    32
 74
     0
 42
0.0000000001
 43
0.0000000001
 40
0.0
 40
0.0
 40
0.0
 40
0.0
 40
0.1111111111111111
 40
0.1111111111111111
 40
0.1111111111111111
 40
0.1111111111111111
 40
0.2222222222222222
 40
0.2222222222222222
 40
0.2222222222222222
 40
0.2222222222222222
 40
0.3333333333333333
 40
0.3333333333333333
 40
0.3333333333333333
 40
0.3333333333333333
 40
0.4444444444444444
 40
0.4444444444444444
 40
0.4444444444444444
 40
0.4444444444444444
 40
0.5555555555555556
 40
0.5555555555555556
 40
0.5555555555555556
 40
0.5555555555555556
 40
0.6666666666666666
 40
0.6666666666666666
 40
0.6666666666666666
 40
0.6666666666666666
 40
0.7777777777777778
 40
0.7777777777777778
 40
0.7777777777777778
 40
0.7777777777777778
 40
1.0
 40
1.0
 40
1.0
 40
1.0
 10
-16.7671
 20
8.4298
 30
0.0
 10
-16.6716
 20
8.4298
 30
0.0
 10
-16.5936
 20
8.461
 30
0.0
 10
-16.5329
 20
8.5221
 30
0.0
 10
-16.5329
 20
8.5221
 30
0.0
 10
-16.4722
 20
8.5836
 30
0.0
 10
-16.4416
 20
8.6637
 30
0.0
 10
-16.4416
 20
8.7619
 30
0.0
 10
-16.4416
 20
8.7619
 30
0.0
 10
-16.4416
 20
8.8574
 30
0.0
 10
-16.4718
 20
8.9359
 30
0.0
 10
-16.532
 20
8.9971
 30
0.0
 10
-16.532
 20
8.9971
 30
0.0
 10
-16.5921
 20
9.0582
 30
0.0
 10
-16.6661
 20
9.0884
 30
0.0
 10
-16.753
 20
9.0884
 30
0.0
 10
-16.753
 20
9.0884
 30
0.0
 10
-16.8443
 20
9.0884
 30
0.0
 10
-16.9205
 20
9.0574
 30
0.0
 10
-16.9826
 20
8.9943
 30
0.0
 10
-16.9826
 20
8.9943
 30
0.0
 10
-17.0447
 20
8.9313
 30
0.0
 10
-17.0757
 20
8.8532
 30
0.0
 10
-17.0757
 20
8.7592
 30
0.0
 10
-17.0757
 20
8.7592
 30
0.0
 10
-17.0757
 20
8.6646
 30
0.0
 10
-17.0451
 20
8.5861
 30
0.0
 10
-16.9849
 20
8.5234
 30
0.0
 10
-16.9849
 20
8.5234
 30
0.0
 10
-16.9242
 20
8.461
 30
0.0
 10
-16.8514
 20
8.4298
 30
0.0
 10
-16.7671
 20
8.4298
 30
0.0
  0
SPLINE
  5
5C
330
1F
100
AcDbEntity
  8
VRSTVA_1
 62
   250
100
AcDbSpline
210
0.0
220
0.0
230
1.0
 70
    11
 71
     3
 72
    40
 73
    36
 74
     0
 42
0.0000000001
 43
0.0000000001
 40
0.0
 40
0.0
 40
0.0
 40
0.0
 40
0.1
 40
0.1
 40
0.1
 40
0.1
 40
0.2
 40
0.2
 40
0.2
 40
0.2
 40
0.3
 40
0.3
 40
0.3
 40
0.3
 40
0.4
 40
0.4
 40
0.4
 40
0.4
 40
0.5
 40
0.5
 40
0.5
 40
0.5
 40
0.6
 40
0.6
 40
0.6
 40
0.6
 40
0.7
 40
0.7
 40
0.7
 40
0.7
 40
0.8
 40
0.8
 40
0.8
 40
0.8
 40
1.0
 40
1.0
 40
1.0
 40
1.0
 10
-15.8339
 20
8.35
 30
0.0
 10
-15.7634
 20
8.35
 30
0.0
 10
-15.6948
 20
8.3668
 30
0.0
 10
-15.6289
 20
8.4002
 30
0.0
 10
-15.6289
 20
8.4002
 30
0.0
 10
-15.5626
 20
8.4336
 30
0.0
 10
-15.5112
 20
8.4835
 30
0.0
 10
-15.4751
 20
8.5498
 30
0.0
 10
-15.4751
 20
8.5498
 30
0.0
 10
-15.4388
 20
8.6161
 30
0.0
 10
-15.4205
 20
8.6872
 30
0.0
 10
-15.4205
 20
8.7634
 30
0.0
 10
-15.4205
 20
8.7634
 30
0.0
 10
-15.4205
 20
8.8818
 30
0.0
 10
-15.4587
 20
8.9797
 30
0.0
 10
-15.5353
 20
9.0568
 30
0.0
 10
-15.5353
 20
9.0568
 30
0.0
 10
-15.6115
 20
9.134
 30
0.0
 10
-15.7084
 20
9.1726
 30
0.0
 10
-15.826
 20
9.1726
 30
0.0
 10
-15.826
 20
9.1726
 30
0.0
 10
-15.9454
 20
9.1726
 30
0.0
 10
-16.0442
 20
9.1331
 30
0.0
 10
-16.1223
 20
9.0536
 30
0.0
 10
-16.1223
 20
9.0536
 30
0.0
 10
-16.2003
 20
8.9741
 30
0.0
 10
-16.2395
 20
8.8744
 30
0.0
 10
-16.2395
 20
8.7548
 30
0.0
 10
-16.2395
 20
8.7548
 30
0.0
 10
-16.2395
 20
8.6382
 30
0.0
 10
-16.2009
 20
8.5418
 30
0.0
 10
-16.1237
 20
8.4652
 30
0.0
 10
-16.1237
 20
8.4652
 30
0.0
 10
-16.0461
 20
8.3885
 30
0.0
 10
-15.9497
 20
8.35
 30
0.0
 10
-15.8339
 20
8.35
 30
0.0
  0
SPLINE
  5
5D
330
1F
100
AcDbEntity
  8
VRSTVA_1
 62
   250
100
AcDbSpline
210
0.0
220
0.0
230
1.0
 70
    11
 71
     3
 72
    52
 73
    48
 74
     0
 42
0.0000000001
 43
0.0000000001
 40
0.0
 40
0.0
 40
0.0
 40
0.0
 40
0.0769230769230769
 40
0.0769230769230769
 40
0.0769230769230769
 40
0.0769230769230769
 40
0.1538461538461539
 40
0.1538461538461539
 40
0.1538461538461539
 40
0.1538461538461539
 40
0.2307692307692308
 40
0.2307692307692308
 40
0.2307692307692308
 40
0.2307692307692308
 40
0.3076923076923077
 40
0.3076923076923077
 40
0.3076923076923077
 40
0.3076923076923077
 40
0.3846153846153846
 40
0.3846153846153846
 40
0.3846153846153846
 40
0.3846153846153846
 40
0.4615384615384616
 40
0.4615384615384616
 40
0.4615384615384616
 40
0.4615384615384616
 40
0.5384615384615384
 40
0.5384615384615384
 40
0.5384615384615384
 40
0.5384615384615384
 40
0.6153846153846154
 40
0.6153846153846154
 40
0.6153846153846154
 40
0.6153846153846154
 40
0.6923076923076923
 40
0.6923076923076923
 40
0.6923076923076923
 40
0.6923076923076923
 40
0.7692307692307693
 40
0.7692307692307693
 40
0.7692307692307693
 40
0.7692307692307693
 40
0.8461538461538461
 40
0.8461538461538461
 40
0.8461538461538461
 40
0.8461538461538461
 40
1.0
 40
1.0
 40
1.0
 40
1.0
 10
-16.2475
 20
9.6674
 30
0.0
 10
-16.4863
 20
9.6674
 30
0.0
 10
-16.6787
 20
9.6919
 30
0.0
 10
-16.8241
 20
9.7413
 30
0.0
 10
-16.8241
 20
9.7413
 30
0.0
 10
-16.9698
 20
9.7902
 30
0.0
 10
-17.0823
 20
9.8636
 30
0.0
 10
-17.1613
 20
9.9605
 30
0.0
 10
-17.1613
 20
9.9605
 30
0.0
 10
-17.2403
 20
10.0573
 30
0.0
 10
-17.2799
 20
10.1792
 30
0.0
 10
-17.2799
 20
10.3259
 30
0.0
 10
-17.2799
 20
10.3259
 30
0.0
 10
-17.2799
 20
10.4346
 30
0.0
 10
-17.2577
 20
10.5296
 30
0.0
 10
-17.214
 20
10.6114
 30
0.0
 10
-17.214
 20
10.6114
 30
0.0
 10
-17.1706
 20
10.6933
 30
0.0
 10
-17.1077
 20
10.7605
 30
0.0
 10
-17.0254
 20
10.8141
 30
0.0
 10
-17.0254
 20
10.8141
 30
0.0
 10
-16.9431
 20
10.8673
 30
0.0
 10
-16.8428
 20
10.9092
 30
0.0
 10
-16.7247
 20
10.9392
 30
0.0
 10
-16.7247
 20
10.9392
 30
0.0
 10
-16.6067
 20
10.9698
 30
0.0
 10
-16.4477
 20
10.9848
 30
0.0
 10
-16.2475
 20
10.9848
 30
0.0
 10
-16.2475
 20
10.9848
 30
0.0
 10
-16.0104
 20
10.9848
 30
0.0
 10
-15.8194
 20
10.9604
 30
0.0
 10
-15.6736
 20
10.9119
 30
0.0
 10
-15.6736
 20
10.9119
 30
0.0
 10
-15.5278
 20
10.863
 30
0.0
 10
-15.4153
 20
10.7902
 30
0.0
 10
-15.3358
 20
10.6933
 30
0.0
 10
-15.3358
 20
10.6933
 30
0.0
 10
-15.2564
 20
10.5963
 30
0.0
 10
-15.2168
 20
10.474
 30
0.0
 10
-15.2168
 20
10.3259
 30
0.0
 10
-15.2168
 20
10.3259
 30
0.0
 10
-15.2168
 20
10.1312
 30
0.0
 10
-15.2865
 20
9.9782
 30
0.0
 10
-15.4262
 20
9.8673
 30
0.0
 10
-15.4262
 20
9.8673
 30
0.0
 10
-15.5941
 20
9.7342
 30
0.0
 10
-15.8683
 20
9.6674
 30
0.0
 10
-16.2475
 20
9.6674
 30
0.0
  0
SPLINE
  5
5E
330
1F
100
AcDbEntity
  8
VRSTVA_1
 62
   250
100
AcDbSpline
210
0.0
220
0.0
230
1.0
 70
    11
 71
     3
 72
    36
 73
    32
 74
     0
 42
0.0000000001
 43
0.0000000001
 40
0.0
 40
0.0
 40
0.0
 40
0.0
 40
0.1111111111111111
 40
0.1111111111111111
 40
0.1111111111111111
 40
0.1111111111111111
 40
0.2222222222222222
 40
0.2222222222222222
 40
0.2222222222222222
 40
0.2222222222222222
 40
0.3333333333333333
 40
0.3333333333333333
 40
0.3333333333333333
 40
0.3333333333333333
 40
0.4444444444444444
 40
0.4444444444444444
 40
0.4444444444444444
 40
0.4444444444444444
 40
0.5555555555555556
 40
0.5555555555555556
 40
0.5555555555555556
 40
0.5555555555555556
 40
0.6666666666666666
 40
0.6666666666666666
 40
0.6666666666666666
 40
0.6666666666666666
 40
0.7777777777777778
 40
0.7777777777777778
 40
0.7777777777777778
 40
0.7777777777777778
 40
1.0
 40
1.0
 40
1.0
 40
1.0
 10
-16.2475
 20
9.9223
 30
0.0
 10
-15.9158
 20
9.9223
 30
0.0
 10
-15.6952
 20
9.9614
 30
0.0
 10
-15.5851
 20
10.039
 30
0.0
 10
-15.5851
 20
10.039
 30
0.0
 10
-15.4755
 20
10.1166
 30
0.0
 10
-15.4205
 20
10.2121
 30
0.0
 10
-15.4205
 20
10.3259
 30
0.0
 10
-15.4205
 20
10.3259
 30
0.0
 10
-15.4205
 20
10.4402
 30
0.0
 10
-15.476
 20
10.5357
 30
0.0
 10
-15.5861
 20
10.6133
 30
0.0
 10
-15.5861
 20
10.6133
 30
0.0
 10
-15.6961
 20
10.6908
 30
0.0
 10
-15.9168
 20
10.73
 30
0.0
 10
-16.2475
 20
10.73
 30
0.0
 10
-16.2475
 20
10.73
 30
0.0
 10
-16.5799
 20
10.73
 30
0.0
 10
-16.801
 20
10.6908
 30
0.0
 10
-16.9101
 20
10.6133
 30
0.0
 10
-16.9101
 20
10.6133
 30
0.0
 10
-17.0197
 20
10.5357
 30
0.0
 10
-17.0743
 20
10.4392
 30
0.0
 10
-17.0743
 20
10.3236
 30
0.0
 10
-17.0743
 20
10.3236
 30
0.0
 10
-17.0743
 20
10.2092
 30
0.0
 10
-17.0258
 20
10.1185
 30
0.0
 10
-16.9294
 20
10.0503
 30
0.0
 10
-16.9294
 20
10.0503
 30
0.0
 10
-16.8067
 20
9.9651
 30
0.0
 10
-16.579
 20
9.9223
 30
0.0
 10
-16.2475
 20
9.9223
 30
0.0
  0
SPLINE
  5
5F
330
1F
100
AcDbEntity
  8
VRSTVA_1
 62
   250
100
AcDbSpline
210
0.0
220
0.0
230
1.0
 70
    24
 71
     3
 72
     8
 73
     4
 74
     0
 42
0.0000000001
 43
0.0000000001
 40
0.0
 40
0.0
 40
0.0
 40
0.0
 40
1.0
 40
1.0
 40
1.0
 40
1.0
 10
15.5461
 20
-31.9079
 30
0.0
 10
15.5461
 20
-31.9079
 30
0.0
 10
-7.8331
 20
-31.9079
 30
0.0
 10
-7.8331
 20
-31.9079
 30
0.0
  0
SPLINE
  5
60
330
1F
100
AcDbEntity
  8
VRSTVA_1
 62
   250
100
AcDbSpline
210
0.0
220
0.0
230
1.0
 70
    24
 71
     3
 72
     8
 73
     4
 74
     0
 42
0.0000000001
 43
0.0000000001
 40
0.0
 40
0.0
 40
0.0
 40
0.0
 40
1.0
 40
1.0
 40
1.0
 40
1.0
 10
10.9427
 20
-24.7428
 30
0.0
 10
10.9427
 20
-24.7428
 30
0.0
 10
10.9427
 20
-32.3861
 30
0.0
 10
10.9427
 20
-32.3861
 30
0.0
  0
SPLINE
  5
61
330
1F
100
AcDbEntity
  8
VRSTVA_1
 62
   250
100
AcDbSpline
210
0.0
220
0.0
230
1.0
 70
    24
 71
     3
 72
     8
 73
     4
 74
     0
 42
0.0000000001
 43
0.0000000001
 40
0.0
 40
0.0
 40
0.0
 40
0.0
 40
1.0
 40
1.0
 40
1.0
 40
1.0
 10
-3.4542
 20
-24.8701
 30
0.0
 10
-3.4542
 20
-24.8701
 30
0.0
 10
-3.4542
 20
-32.4422
 30
0.0
 10
-3.4542
 20
-32.4422
 30
0.0
  0
SPLINE
  5
62
330
1F
100
AcDbEntity
  8
VRSTVA_1
 62
   250
100
AcDbSpline
210
0.0
220
0.0
230
1.0
 70
    11
 71
     3
 72
    20
 73
    16
 74
     0
 42
0.0000000001
 43
0.0000000001
 40
0.0
 40
0.0
 40
0.0
 40
0.0
 40
0.2
 40
0.2
 40
0.2
 40
0.2
 40
0.4
 40
0.4
 40
0.4
 40
0.4
 40
0.6
 40
0.6
 40
0.6
 40
0.6
 40
1.0
 40
1.0
 40
1.0
 40
1.0
 10
14.1637
 20
-32.3645
 30
0.0
 10
14.1637
 20
-32.3645
 30
0.0
 10
10.963
 20
-31.9128
 30
0.0
 10
10.963
 20
-31.9128
 30
0.0
 10
10.963
 20
-31.9128
 30
0.0
 10
10.963
 20
-31.9128
 30
0.0
 10
10.963
 20
-31.8125
 30
0.0
 10
10.963
 20
-31.8125
 30
0.0
 10
10.963
 20
-31.8125
 30
0.0
 10
10.963
 20
-31.8125
 30
0.0
 10
14.1637
 20
-31.3307
 30
0.0
 10
14.1637
 20
-31.3307
 30
0.0
 10
14.1637
 20
-31.3307
 30
0.0
 10
14.1637
 20
-31.3307
 30
0.0
 10
14.1637
 20
-32.3645
 30
0.0
 10
14.1637
 20
-32.3645
 30
0.0
  0
SPLINE
  5
63
330
1F
100
AcDbEntity
  8
VRSTVA_1
 62
   250
100
AcDbSpline
210
0.0
220
0.0
230
1.0
 70
    11
 71
     3
 72
    20
 73
    16
 74
     0
 42
0.0000000001
 43
0.0000000001
 40
0.0
 40
0.0
 40
0.0
 40
0.0
 40
0.2
 40
0.2
 40
0.2
 40
0.2
 40
0.4
 40
0.4
 40
0.4
 40
0.4
 40
0.6
 40
0.6
 40
0.6
 40
0.6
 40
1.0
 40
1.0
 40
1.0
 40
1.0
 10
-6.8207
 20
-31.4279
 30
0.0
 10
-6.8207
 20
-31.4279
 30
0.0
 10
-3.6242
 20
-31.8791
 30
0.0
 10
-3.6242
 20
-31.8791
 30
0.0
 10
-3.6242
 20
-31.8791
 30
0.0
 10
-3.6242
 20
-31.8791
 30
0.0
 10
-3.6242
 20
-31.9794
 30
0.0
 10
-3.6242
 20
-31.9794
 30
0.0
 10
-3.6242
 20
-31.9794
 30
0.0
 10
-3.6242
 20
-31.9794
 30
0.0
 10
-6.8207
 20
-32.4602
 30
0.0
 10
-6.8207
 20
-32.4602
 30
0.0
 10
-6.8207
 20
-32.4602
 30
0.0
 10
-6.8207
 20
-32.4602
 30
0.0
 10
-6.8207
 20
-31.4279
 30
0.0
 10
-6.8207
 20
-31.4279
 30
0.0
  0
SPLINE
  5
64
330
1F
100
AcDbEntity
  8
VRSTVA_1
 62
   250
100
AcDbSpline
210
0.0
220
0.0
230
1.0
 70
    11
 71
     3
 72
    20
 73
    16
 74
     0
 42
0.0000000001
 43
0.0000000001
 40
0.0
 40
0.0
 40
0.0
 40
0.0
 40
0.2
 40
0.2
 40
0.2
 40
0.2
 40
0.4
 40
0.4
 40
0.4
 40
0.4
 40
0.6
 40
0.6
 40
0.6
 40
0.6
 40
1.0
 40
1.0
 40
1.0
 40
1.0
 10
-3.3164
 20
-23.7852
 30
0.0
 10
-3.3164
 20
-23.7852
 30
0.0
 10
10.9938
 20
-23.7852
 30
0.0
 10
10.9938
 20
-23.7852
 30
0.0
 10
10.9938
 20
-23.7852
 30
0.0
 10
10.9938
 20
-23.7852
 30
0.0
 10
10.9938
 20
-24.2805
 30
0.0
 10
10.9938
 20
-24.2805
 30
0.0
 10
10.9938
 20
-24.2805
 30
0.0
 10
10.9938
 20
-24.2805
 30
0.0
 10
-3.3164
 20
-24.2805
 30
0.0
 10
-3.3164
 20
-24.2805
 30
0.0
 10
-3.3164
 20
-24.2805
 30
0.0
 10
-3.3164
 20
-24.2805
 30
0.0
 10
-3.3164
 20
-23.7852
 30
0.0
 10
-3.3164
 20
-23.7852
 30
0.0
  0
SPLINE
  5
65
330
1F
100
AcDbEntity
  8
VRSTVA_1
 62
   250
100
AcDbSpline
210
0.0
220
0.0
230
1.0
 70
     8
 71
     3
 72
    32
 73
    28
 74
     0
 42
0.0000000001
 43
0.0000000001
 40
0.0
 40
0.0
 40
0.0
 40
0.0
 40
0.125
 40
0.125
 40
0.125
 40
0.125
 40
0.25
 40
0.25
 40
0.25
 40
0.25
 40
0.375
 40
0.375
 40
0.375
 40
0.375
 40
0.5
 40
0.5
 40
0.5
 40
0.5
 40
0.625
 40
0.625
 40
0.625
 40
0.625
 40
0.75
 40
0.75
 40
0.75
 40
0.75
 40
1.0
 40
1.0
 40
1.0
 40
1.0
 10
9.0832
 20
-24.4174
 30
0.0
 10
9.0832
 20
-24.4174
 30
0.0
 10
9.0832
 20
-24.662
 30
0.0
 10
9.0832
 20
-24.662
 30
0.0
 10
9.0832
 20
-24.662
 30
0.0
 10
9.0832
 20
-24.662
 30
0.0
 10
7.1063
 20
-25.1328
 30
0.0
 10
7.1063
 20
-25.1328
 30
0.0
 10
7.1063
 20
-25.1328
 30
0.0
 10
7.1063
 20
-25.1328
 30
0.0
 10
6.1839
 20
-26.4507
 30
0.0
 10
6.1839
 20
-26.4507
 30
0.0
 10
6.1839
 20
-26.4507
 30
0.0
 10
6.1839
 20
-26.4507
 30
0.0
 10
1.4394
 20
-26.4507
 30
0.0
 10
1.4394
 20
-26.4507
 30
0.0
 10
1.4394
 20
-26.4507
 30
0.0
 10
1.4394
 20
-26.4507
 30
0.0
 10
0.4604
 20
-25.0762
 30
0.0
 10
0.4604
 20
-25.0762
 30
0.0
 10
0.4604
 20
-25.0762
 30
0.0
 10
0.4604
 20
-25.0762
 30
0.0
 10
-1.5353
 20
-24.6809
 30
0.0
 10
-1.5353
 20
-24.6809
 30
0.0
 10
-1.5353
 20
-24.6809
 30
0.0
 10
-1.5353
 20
-24.6809
 30
0.0
 10
-1.5244
 20
-24.3025
 30
0.0
 10
-1.5244
 20
-24.3025
 30
0.0
  0
SPLINE
  5
66
330
1F
100
AcDbEntity
  8
VRSTVA_1
 62
   250
100
AcDbSpline
210
0.0
220
0.0
230
1.0
 70
     8
 71
     3
 72
    28
 73
    24
 74
     0
 42
0.0000000001
 43
0.0000000001
 40
0.0
 40
0.0
 40
0.0
 40
0.0
 40
0.1428571428571428
 40
0.1428571428571428
 40
0.1428571428571428
 40
0.1428571428571428
 40
0.2857142857142857
 40
0.2857142857142857
 40
0.2857142857142857
 40
0.2857142857142857
 40
0.4285714285714285
 40
0.4285714285714285
 40
0.4285714285714285
 40
0.4285714285714285
 40
0.5714285714285714
 40
0.5714285714285714
 40
0.5714285714285714
 40
0.5714285714285714
 40
0.7142857142857143
 40
0.7142857142857143
 40
0.7142857142857143
 40
0.7142857142857143
 40
1.0
 40
1.0
 40
1.0
 40
1.0
 10
7.4639
 20
-18.9026
 30
0.0
 10
7.4639
 20
-18.9026
 30
0.0
 10
7.4639
 20
-22.3775
 30
0.0
 10
7.4639
 20
-22.3775
 30
0.0
 10
7.4639
 20
-22.3775
 30
0.0
 10
7.4639
 20
-22.3775
 30
0.0
 10
7.5131
 20
-22.9046
 30
0.0
 10
7.5131
 20
-22.9046
 30
0.0
 10
7.5131
 20
-22.9046
 30
0.0
 10
7.5131
 20
-22.9046
 30
0.0
 10
7.8254
 20
-23.1966
 30
0.0
 10
7.8254
 20
-23.1966
 30
0.0
 10
7.8254
 20
-23.1966
 30
0.0
 10
7.8254
 20
-23.1966
 30
0.0
 10
8.3252
 20
-23.468
 30
0.0
 10
8.3252
 20
-23.468
 30
0.0
 10
8.3252
 20
-23.468
 30
0.0
 10
8.3252
 20
-23.468
 30
0.0
 10
8.6376
 20
-23.468
 30
0.0
 10
8.6376
 20
-23.468
 30
0.0
 10
8.6376
 20
-23.468
 30
0.0
 10
8.6376
 20
-23.468
 30
0.0
 10
8.6376
 20
-23.7809
 30
0.0
 10
8.6376
 20
-23.7809
 30
0.0
  0
SPLINE
  5
67
330
1F
100
AcDbEntity
  8
VRSTVA_1
 62
   250
100
AcDbSpline
210
0.0
220
0.0
230
1.0
 70
     8
 71
     3
 72
    28
 73
    24
 74
     0
 42
0.0000000001
 43
0.0000000001
 40
0.0
 40
0.0
 40
0.0
 40
0.0
 40
0.1428571428571428
 40
0.1428571428571428
 40
0.1428571428571428
 40
0.1428571428571428
 40
0.2857142857142857
 40
0.2857142857142857
 40
0.2857142857142857
 40
0.2857142857142857
 40
0.4285714285714285
 40
0.4285714285714285
 40
0.4285714285714285
 40
0.4285714285714285
 40
0.5714285714285714
 40
0.5714285714285714
 40
0.5714285714285714
 40
0.5714285714285714
 40
0.7142857142857143
 40
0.7142857142857143
 40
0.7142857142857143
 40
0.7142857142857143
 40
1.0
 40
1.0
 40
1.0
 40
1.0
 10
-0.0118
 20
-18.9653
 30
0.0
 10
-0.0118
 20
-18.9653
 30
0.0
 10
-0.0118
 20
-22.4402
 30
0.0
 10
-0.0118
 20
-22.4402
 30
0.0
 10
-0.0118
 20
-22.4402
 30
0.0
 10
-0.0118
 20
-22.4402
 30
0.0
 10
-0.0614
 20
-22.9673
 30
0.0
 10
-0.0614
 20
-22.9673
 30
0.0
 10
-0.0614
 20
-22.9673
 30
0.0
 10
-0.0614
 20
-22.9673
 30
0.0
 10
-0.3751
 20
-23.2593
 30
0.0
 10
-0.3751
 20
-23.2593
 30
0.0
 10
-0.3751
 20
-23.2593
 30
0.0
 10
-0.3751
 20
-23.2593
 30
0.0
 10
-0.8772
 20
-23.5306
 30
0.0
 10
-0.8772
 20
-23.5306
 30
0.0
 10
-0.8772
 20
-23.5306
 30
0.0
 10
-0.8772
 20
-23.5306
 30
0.0
 10
-1.1912
 20
-23.5306
 30
0.0
 10
-1.1912
 20
-23.5306
 30
0.0
 10
-1.1912
 20
-23.5306
 30
0.0
 10
-1.1912
 20
-23.5306
 30
0.0
 10
-1.1912
 20
-23.8436
 30
0.0
 10
-1.1912
 20
-23.8436
 30
0.0
  0
SPLINE
  5
68
330
1F
100
AcDbEntity
  8
VRSTVA_1
 62
   250
100
AcDbSpline
210
0.0
220
0.0
230
1.0
 70
    24
 71
     3
 72
     8
 73
     4
 74
     0
 42
0.0000000001
 43
0.0000000001
 40
0.0
 40
0.0
 40
0.0
 40
0.0
 40
1.0
 40
1.0
 40
1.0
 40
1.0
 10
-0.0626
 20
-23.1246
 30
0.0
 10
-0.0626
 20
-23.1246
 30
0.0
 10
7.5301
 20
-23.1002
 30
0.0
 10
7.5301
 20
-23.1002
 30
0.0
  0
SPLINE
  5
69
330
1F
100
AcDbEntity
  8
VRSTVA_1
 62
   250
100
AcDbSpline
210
0.0
220
0.0
230
1.0
 70
    24
 71
     3
 72
     8
 73
     4
 74
     0
 42
0.0000000001
 43
0.0000000001
 40
0.0
 40
0.0
 40
0.0
 40
0.0
 40
1.0
 40
1.0
 40
1.0
 40
1.0
 10
0.558
 20
-25.0386
 30
0.0
 10
0.558
 20
-25.0386
 30
0.0
 10
7.3881
 20
-25.0386
 30
0.0
 10
7.3881
 20
-25.0386
 30
0.0
  0
SPLINE
  5
6A
330
1F
100
AcDbEntity
  8
VRSTVA_1
 62
   250
100
AcDbSpline
210
0.0
220
0.0
230
1.0
 70
    11
 71
     3
 72
    20
 73
    16
 74
     0
 42
0.0000000001
 43
0.0000000001
 40
0.0
 40
0.0
 40
0.0
 40
0.0
 40
0.2
 40
0.2
 40
0.2
 40
0.2
 40
0.4
 40
0.4
 40
0.4
 40
0.4
 40
0.6
 40
0.6
 40
0.6
 40
0.6
 40
1.0
 40
1.0
 40
1.0
 40
1.0
 10
15.7429
 20
-6.7872
 30
0.0
 10
15.7429
 20
-6.7872
 30
0.0
 10
12.5423
 20
-6.3354
 30
0.0
 10
12.5423
 20
-6.3354
 30
0.0
 10
12.5423
 20
-6.3354
 30
0.0
 10
12.5423
 20
-6.3354
 30
0.0
 10
12.5423
 20
-6.2351
 30
0.0
 10
12.5423
 20
-6.2351
 30
0.0
 10
12.5423
 20
-6.2351
 30
0.0
 10
12.5423
 20
-6.2351
 30
0.0
 10
15.7429
 20
-5.7533
 30
0.0
 10
15.7429
 20
-5.7533
 30
0.0
 10
15.7429
 20
-5.7533
 30
0.0
 10
15.7429
 20
-5.7533
 30
0.0
 10
15.7429
 20
-6.7872
 30
0.0
 10
15.7429
 20
-6.7872
 30
0.0
  0
SPLINE
  5
6B
330
1F
100
AcDbEntity
  8
VRSTVA_1
 62
   250
100
AcDbSpline
210
0.0
220
0.0
230
1.0
 70
    11
 71
     3
 72
    20
 73
    16
 74
     0
 42
0.0000000001
 43
0.0000000001
 40
0.0
 40
0.0
 40
0.0
 40
0.0
 40
0.2
 40
0.2
 40
0.2
 40
0.2
 40
0.4
 40
0.4
 40
0.4
 40
0.4
 40
0.6
 40
0.6
 40
0.6
 40
0.6
 40
1.0
 40
1.0
 40
1.0
 40
1.0
 10
-7.8724
 20
-5.7819
 30
0.0
 10
-7.8724
 20
-5.7819
 30
0.0
 10
-4.6758
 20
-6.2331
 30
0.0
 10
-4.6758
 20
-6.2331
 30
0.0
 10
-4.6758
 20
-6.2331
 30
0.0
 10
-4.6758
 20
-6.2331
 30
0.0
 10
-4.6758
 20
-6.3333
 30
0.0
 10
-4.6758
 20
-6.3333
 30
0.0
 10
-4.6758
 20
-6.3333
 30
0.0
 10
-4.6758
 20
-6.3333
 30
0.0
 10
-7.8724
 20
-6.8143
 30
0.0
 10
-7.8724
 20
-6.8143
 30
0.0
 10
-7.8724
 20
-6.8143
 30
0.0
 10
-7.8724
 20
-6.8143
 30
0.0
 10
-7.8724
 20
-5.7819
 30
0.0
 10
-7.8724
 20
-5.7819
 30
0.0
  0
SPLINE
  5
6C
330
1F
100
AcDbEntity
  8
VRSTVA_1
 62
   250
100
AcDbSpline
210
0.0
220
0.0
230
1.0
 70
    27
 71
     3
 72
    12
 73
     8
 74
     0
 42
0.0000000001
 43
0.0000000001
 40
0.0
 40
0.0
 40
0.0
 40
0.0
 40
0.3333333333333333
 40
0.3333333333333333
 40
0.3333333333333333
 40
0.3333333333333333
 40
1.0
 40
1.0
 40
1.0
 40
1.0
 10
-15.1457
 20
30.5704
 30
0.0
 10
-15.1457
 20
30.5704
 30
0.0
 10
1.2606
 20
30.5704
 30
0.0
 10
1.2606
 20
30.5704
 30
0.0
 10
1.2606
 20
30.5704
 30
0.0
 10
1.2606
 20
30.5704
 30
0.0
 10
-15.1457
 20
30.5704
 30
0.0
 10
-15.1457
 20
30.5704
 30
0.0
  0
SPLINE
  5
6D
330
1F
100
AcDbEntity
  8
VRSTVA_1
 62
   250
100
AcDbSpline
210
0.0
220
0.0
230
1.0
 70
    27
 71
     3
 72
    12
 73
     8
 74
     0
 42
0.0000000001
 43
0.0000000001
 40
0.0
 40
0.0
 40
0.0
 40
0.0
 40
0.3333333333333333
 40
0.3333333333333333
 40
0.3333333333333333
 40
0.3333333333333333
 40
1.0
 40
1.0
 40
1.0
 40
1.0
 10
-14.3255
 20
30.3476
 30
0.0
 10
-14.3255
 20
30.3476
 30
0.0
 10
-14.3255
 20
-18.1764
 30
0.0
 10
-14.3255
 20
-18.1764
 30
0.0
 10
-14.3255
 20
-18.1764
 30
0.0
 10
-14.3255
 20
-18.1764
 30
0.0
 10
-14.3255
 20
30.3476
 30
0.0
 10
-14.3255
 20
30.3476
 30
0.0
  0
SPLINE
  5
6E
330
1F
100
AcDbEntity
  8
VRSTVA_1
 62
   250
100
AcDbSpline
210
0.0
220
0.0
230
1.0
 70
    27
 71
     3
 72
    12
 73
     8
 74
     0
 42
0.0000000001
 43
0.0000000001
 40
0.0
 40
0.0
 40
0.0
 40
0.0
 40
0.3333333333333333
 40
0.3333333333333333
 40
0.3333333333333333
 40
0.3333333333333333
 40
1.0
 40
1.0
 40
1.0
 40
1.0
 10
-15.1457
 20
-18.9331
 30
0.0
 10
-15.1457
 20
-18.9331
 30
0.0
 10
-5.8603
 20
-18.9331
 30
0.0
 10
-5.8603
 20
-18.9331
 30
0.0
 10
-5.8603
 20
-18.9331
 30
0.0
 10
-5.8603
 20
-18.9331
 30
0.0
 10
-15.1457
 20
-18.9331
 30
0.0
 10
-15.1457
 20
-18.9331
 30
0.0
  0
SPLINE
  5
6F
330
1F
100
AcDbEntity
  8
VRSTVA_1
 62
   250
100
AcDbSpline
210
0.0
220
0.0
230
1.0
 70
    11
 71
     3
 72
    20
 73
    16
 74
     0
 42
0.0000000001
 43
0.0000000001
 40
0.0
 40
0.0
 40
0.0
 40
0.0
 40
0.2
 40
0.2
 40
0.2
 40
0.2
 40
0.4
 40
0.4
 40
0.4
 40
0.4
 40
0.6
 40
0.6
 40
0.6
 40
0.6
 40
1.0
 40
1.0
 40
1.0
 40
1.0
 10
-13.8175
 20
-15.6255
 30
0.0
 10
-13.8175
 20
-15.6255
 30
0.0
 10
-14.2692
 20
-18.8261
 30
0.0
 10
-14.2692
 20
-18.8261
 30
0.0
 10
-14.2692
 20
-18.8261
 30
0.0
 10
-14.2692
 20
-18.8261
 30
0.0
 10
-14.3695
 20
-18.8261
 30
0.0
 10
-14.3695
 20
-18.8261
 30
0.0
 10
-14.3695
 20
-18.8261
 30
0.0
 10
-14.3695
 20
-18.8261
 30
0.0
 10
-14.8513
 20
-15.6255
 30
0.0
 10
-14.8513
 20
-15.6255
 30
0.0
 10
-14.8513
 20
-15.6255
 30
0.0
 10
-14.8513
 20
-15.6255
 30
0.0
 10
-13.8175
 20
-15.6255
 30
0.0
 10
-13.8175
 20
-15.6255
 30
0.0
  0
SPLINE
  5
70
330
1F
100
AcDbEntity
  8
VRSTVA_1
 62
   250
100
AcDbSpline
210
0.0
220
0.0
230
1.0
 70
    11
 71
     3
 72
    20
 73
    16
 74
     0
 42
0.0000000001
 43
0.0000000001
 40
0.0
 40
0.0
 40
0.0
 40
0.0
 40
0.2
 40
0.2
 40
0.2
 40
0.2
 40
0.4
 40
0.4
 40
0.4
 40
0.4
 40
0.6
 40
0.6
 40
0.6
 40
0.6
 40
1.0
 40
1.0
 40
1.0
 40
1.0
 10
-14.7442
 20
27.0831
 30
0.0
 10
-14.7442
 20
27.0831
 30
0.0
 10
-14.2931
 20
30.2796
 30
0.0
 10
-14.2931
 20
30.2796
 30
0.0
 10
-14.2931
 20
30.2796
 30
0.0
 10
-14.2931
 20
30.2796
 30
0.0
 10
-14.1928
 20
30.2796
 30
0.0
 10
-14.1928
 20
30.2796
 30
0.0
 10
-14.1928
 20
30.2796
 30
0.0
 10
-14.1928
 20
30.2796
 30
0.0
 10
-13.7118
 20
27.0831
 30
0.0
 10
-13.7118
 20
27.0831
 30
0.0
 10
-13.7118
 20
27.0831
 30
0.0
 10
-13.7118
 20
27.0831
 30
0.0
 10
-14.7442
 20
27.0831
 30
0.0
 10
-14.7442
 20
27.0831
 30
0.0
  0
SPLINE
  5
71
330
1F
100
AcDbEntity
  8
VRSTVA_1
 62
   250
100
AcDbSpline
210
0.0
220
0.0
230
1.0
 70
     8
 71
     3
 72
    32
 73
    28
 74
     0
 42
0.0000000001
 43
0.0000000001
 40
0.0
 40
0.0
 40
0.0
 40
0.0
 40
0.125
 40
0.125
 40
0.125
 40
0.125
 40
0.25
 40
0.25
 40
0.25
 40
0.25
 40
0.375
 40
0.375
 40
0.375
 40
0.375
 40
0.5
 40
0.5
 40
0.5
 40
0.5
 40
0.625
 40
0.625
 40
0.625
 40
0.625
 40
0.75
 40
0.75
 40
0.75
 40
0.75
 40
1.0
 40
1.0
 40
1.0
 40
1.0
 10
-4.2114
 20
9.8301
 30
0.0
 10
-4.2114
 20
9.8301
 30
0.0
 10
-4.1604
 20
4.2378
 30
0.0
 10
-4.1604
 20
4.2378
 30
0.0
 10
-4.1604
 20
4.2378
 30
0.0
 10
-4.1604
 20
4.2378
 30
0.0
 10
-7.2837
 20
4.2635
 30
0.0
 10
-7.2837
 20
4.2635
 30
0.0
 10
-7.2837
 20
4.2635
 30
0.0
 10
-7.2837
 20
4.2635
 30
0.0
 10
-7.2155
 20
9.8294
 30
0.0
 10
-7.2155
 20
9.8294
 30
0.0
 10
-7.2155
 20
9.8294
 30
0.0
 10
-7.2155
 20
9.8294
 30
0.0
 10
15.2092
 20
9.8294
 30
0.0
 10
15.2092
 20
9.8294
 30
0.0
 10
15.2092
 20
9.8294
 30
0.0
 10
15.2092
 20
9.8294
 30
0.0
 10
15.1995
 20
4.3413
 30
0.0
 10
15.1995
 20
4.3413
 30
0.0
 10
15.1995
 20
4.3413
 30
0.0
 10
15.1995
 20
4.3413
 30
0.0
 10
12.1023
 20
4.3223
 30
0.0
 10
12.1023
 20
4.3223
 30
0.0
 10
12.1023
 20
4.3223
 30
0.0
 10
12.1023
 20
4.3223
 30
0.0
 10
12.1213
 20
9.8294
 30
0.0
 10
12.1213
 20
9.8294
 30
0.0
  0
SPLINE
  5
72
330
1F
100
AcDbEntity
  8
VRSTVA_1
 62
   250
100
AcDbSpline
210
0.0
220
0.0
230
1.0
 70
     8
 71
     3
 72
    48
 73
    44
 74
     0
 42
0.0000000001
 43
0.0000000001
 40
0.0
 40
0.0
 40
0.0
 40
0.0
 40
0.0833333333333333
 40
0.0833333333333333
 40
0.0833333333333333
 40
0.0833333333333333
 40
0.1666666666666667
 40
0.1666666666666667
 40
0.1666666666666667
 40
0.1666666666666667
 40
0.25
 40
0.25
 40
0.25
 40
0.25
 40
0.3333333333333333
 40
0.3333333333333333
 40
0.3333333333333333
 40
0.3333333333333333
 40
0.4166666666666667
 40
0.4166666666666667
 40
0.4166666666666667
 40
0.4166666666666667
 40
0.5
 40
0.5
 40
0.5
 40
0.5
 40
0.5833333333333334
 40
0.5833333333333334
 40
0.5833333333333334
 40
0.5833333333333334
 40
0.6666666666666666
 40
0.6666666666666666
 40
0.6666666666666666
 40
0.6666666666666666
 40
0.75
 40
0.75
 40
0.75
 40
0.75
 40
0.8333333333333334
 40
0.8333333333333334
 40
0.8333333333333334
 40
0.8333333333333334
 40
1.0
 40
1.0
 40
1.0
 40
1.0
 10
4.4764
 20
-18.8604
 30
0.0
 10
4.4764
 20
-18.8604
 30
0.0
 10
4.4595
 20
-17.4396
 30
0.0
 10
4.4595
 20
-17.4396
 30
0.0
 10
4.4595
 20
-17.4396
 30
0.0
 10
4.4595
 20
-17.4396
 30
0.0
 10
4.4262
 20
-17.3473
 30
0.0
 10
4.4262
 20
-17.3473
 30
0.0
 10
4.4262
 20
-17.3473
 30
0.0
 10
4.4262
 20
-17.3473
 30
0.0
 10
4.3507
 20
-17.2044
 30
0.0
 10
4.3507
 20
-17.2044
 30
0.0
 10
4.3507
 20
-17.2044
 30
0.0
 10
4.3507
 20
-17.2044
 30
0.0
 10
4.0991
 20
-17.0616
 30
0.0
 10
4.0991
 20
-17.0616
 30
0.0
 10
4.0991
 20
-17.0616
 30
0.0
 10
4.0991
 20
-17.0616
 30
0.0
 10
2.74
 20
-17.0446
 30
0.0
 10
2.74
 20
-17.0446
 30
0.0
 10
2.74
 20
-17.0446
 30
0.0
 10
2.74
 20
-17.0446
 30
0.0
 10
2.6026
 20
-17.08
 30
0.0
 10
2.6026
 20
-17.08
 30
0.0
 10
2.6026
 20
-17.08
 30
0.0
 10
2.4301
 20
-17.1326
 30
0.0
 10
2.3013
 20
-17.2768
 30
0.0
 10
2.268
 20
-17.4537
 30
0.0
 10
2.268
 20
-17.4537
 30
0.0
 10
2.2347
 20
-17.6306
 30
0.0
 10
2.3023
 20
-17.8117
 30
0.0
 10
2.4439
 20
-17.9234
 30
0.0
 10
2.4439
 20
-17.9234
 30
0.0
 10
2.5852
 20
-18.035
 30
0.0
 10
2.777
 20
-18.0589
 30
0.0
 10
2.9414
 20
-17.9853
 30
0.0
 10
2.9414
 20
-17.9853
 30
0.0
 10
2.9414
 20
-17.9853
 30
0.0
 10
3.5201
 20
-17.9692
 30
0.0
 10
3.5201
 20
-17.9692
 30
0.0
 10
3.5201
 20
-17.9692
 30
0.0
 10
3.5201
 20
-17.9692
 30
0.0
 10
3.5201
 20
-18.8266
 30
0.0
 10
3.5201
 20
-18.8266
 30
0.0
  0
SPLINE
  5
73
330
1F
100
AcDbEntity
  8
VRSTVA_1
 62
   250
100
AcDbSpline
210
0.0
220
0.0
230
1.0
 70
     8
 71
     3
 72
    40
 73
    36
 74
     0
 42
0.0000000001
 43
0.0000000001
 40
0.0
 40
0.0
 40
0.0
 40
0.0
 40
0.1
 40
0.1
 40
0.1
 40
0.1
 40
0.2
 40
0.2
 40
0.2
 40
0.2
 40
0.3
 40
0.3
 40
0.3
 40
0.3
 40
0.4
 40
0.4
 40
0.4
 40
0.4
 40
0.5
 40
0.5
 40
0.5
 40
0.5
 40
0.6
 40
0.6
 40
0.6
 40
0.6
 40
0.7
 40
0.7
 40
0.7
 40
0.7
 40
0.8
 40
0.8
 40
0.8
 40
0.8
 40
1.0
 40
1.0
 40
1.0
 40
1.0
 10
-4.5099
 20
4.3548
 30
0.0
 10
-4.5099
 20
4.3548
 30
0.0
 10
-4.5099
 20
-14.6442
 30
0.0
 10
-4.5099
 20
-14.6442
 30
0.0
 10
-4.5099
 20
-14.6442
 30
0.0
 10
-4.5099
 20
-14.6442
 30
0.0
 10
-4.9588
 20
-14.8974
 30
0.0
 10
-4.9588
 20
-14.8974
 30
0.0
 10
-4.9588
 20
-14.8974
 30
0.0
 10
-4.9588
 20
-14.8974
 30
0.0
 10
-4.9832
 20
-18.901
 30
0.0
 10
-4.9832
 20
-18.901
 30
0.0
 10
-4.9832
 20
-18.901
 30
0.0
 10
-4.9832
 20
-18.901
 30
0.0
 10
13.0372
 20
-18.8547
 30
0.0
 10
13.0372
 20
-18.8547
 30
0.0
 10
13.0372
 20
-18.8547
 30
0.0
 10
13.0372
 20
-18.8547
 30
0.0
 10
13.0034
 20
-14.9161
 30
0.0
 10
13.0034
 20
-14.9161
 30
0.0
 10
13.0034
 20
-14.9161
 30
0.0
 10
13.0034
 20
-14.9161
 30
0.0
 10
-5.0704
 20
-14.8867
 30
0.0
 10
-5.0704
 20
-14.8867
 30
0.0
 10
-5.0704
 20
-14.8867
 30
0.0
 10
-5.0704
 20
-14.8867
 30
0.0
 10
13.0552
 20
-14.9253
 30
0.0
 10
13.0552
 20
-14.9253
 30
0.0
 10
13.0552
 20
-14.9253
 30
0.0
 10
13.0552
 20
-14.9253
 30
0.0
 10
12.4791
 20
-14.4634
 30
0.0
 10
12.4791
 20
-14.4634
 30
0.0
 10
12.4791
 20
-14.4634
 30
0.0
 10
12.4791
 20
-14.4634
 30
0.0
 10
12.4983
 20
4.122
 30
0.0
 10
12.4983
 20
4.122
 30
0.0
  0
SPLINE
  5
74
330
1F
100
AcDbEntity
  8
VRSTVA_1
 62
   250
100
AcDbSpline
210
0.0
220
0.0
230
1.0
 70
    11
 71
     3
 72
    20
 73
    16
 74
     0
 42
0.0000000001
 43
0.0000000001
 40
0.0
 40
0.0
 40
0.0
 40
0.0
 40
0.2
 40
0.2
 40
0.2
 40
0.2
 40
0.4
 40
0.4
 40
0.4
 40
0.4
 40
0.6
 40
0.6
 40
0.6
 40
0.6
 40
1.0
 40
1.0
 40
1.0
 40
1.0
 10
-5.2047
 20
8.3555
 30
0.0
 10
-5.2047
 20
8.5882
 30
0.0
 10
-5.3933
 20
8.7766
 30
0.0
 10
-5.6259
 20
8.7766
 30
0.0
 10
-5.6259
 20
8.7766
 30
0.0
 10
-5.8583
 20
8.7766
 30
0.0
 10
-6.0469
 20
8.5882
 30
0.0
 10
-6.0469
 20
8.3555
 30
0.0
 10
-6.0469
 20
8.3555
 30
0.0
 10
-6.0469
 20
8.1229
 30
0.0
 10
-5.8583
 20
7.9345
 30
0.0
 10
-5.6259
 20
7.9345
 30
0.0
 10
-5.6259
 20
7.9345
 30
0.0
 10
-5.3933
 20
7.9345
 30
0.0
 10
-5.2047
 20
8.1229
 30
0.0
 10
-5.2047
 20
8.3555
 30
0.0
  0
SPLINE
  5
75
330
1F
100
AcDbEntity
  8
VRSTVA_1
 62
   250
100
AcDbSpline
210
0.0
220
0.0
230
1.0
 70
    11
 71
     3
 72
    20
 73
    16
 74
     0
 42
0.0000000001
 43
0.0000000001
 40
0.0
 40
0.0
 40
0.0
 40
0.0
 40
0.2
 40
0.2
 40
0.2
 40
0.2
 40
0.4
 40
0.4
 40
0.4
 40
0.4
 40
0.6
 40
0.6
 40
0.6
 40
0.6
 40
1.0
 40
1.0
 40
1.0
 40
1.0
 10
14.0403
 20
8.3555
 30
0.0
 10
14.0403
 20
8.5882
 30
0.0
 10
13.8519
 20
8.7766
 30
0.0
 10
13.6193
 20
8.7766
 30
0.0
 10
13.6193
 20
8.7766
 30
0.0
 10
13.3867
 20
8.7766
 30
0.0
 10
13.1983
 20
8.5882
 30
0.0
 10
13.1983
 20
8.3555
 30
0.0
 10
13.1983
 20
8.3555
 30
0.0
 10
13.1983
 20
8.1229
 30
0.0
 10
13.3867
 20
7.9345
 30
0.0
 10
13.6193
 20
7.9345
 30
0.0
 10
13.6193
 20
7.9345
 30
0.0
 10
13.8519
 20
7.9345
 30
0.0
 10
14.0403
 20
8.1229
 30
0.0
 10
14.0403
 20
8.3555
 30
0.0
  0
SPLINE
  5
76
330
1F
100
AcDbEntity
  8
VRSTVA_1
 62
   250
100
AcDbSpline
210
0.0
220
0.0
230
1.0
 70
    11
 71
     3
 72
    20
 73
    16
 74
     0
 42
0.0000000001
 43
0.0000000001
 40
0.0
 40
0.0
 40
0.0
 40
0.0
 40
0.2
 40
0.2
 40
0.2
 40
0.2
 40
0.4
 40
0.4
 40
0.4
 40
0.4
 40
0.6
 40
0.6
 40
0.6
 40
0.6
 40
1.0
 40
1.0
 40
1.0
 40
1.0
 10
14.0403
 20
5.8289
 30
0.0
 10
14.0403
 20
6.0616
 30
0.0
 10
13.8519
 20
6.2499
 30
0.0
 10
13.6193
 20
6.2499
 30
0.0
 10
13.6193
 20
6.2499
 30
0.0
 10
13.3867
 20
6.2499
 30
0.0
 10
13.1983
 20
6.0616
 30
0.0
 10
13.1983
 20
5.8289
 30
0.0
 10
13.1983
 20
5.8289
 30
0.0
 10
13.1983
 20
5.5963
 30
0.0
 10
13.3867
 20
5.4076
 30
0.0
 10
13.6193
 20
5.4076
 30
0.0
 10
13.6193
 20
5.4076
 30
0.0
 10
13.8519
 20
5.4076
 30
0.0
 10
14.0403
 20
5.5963
 30
0.0
 10
14.0403
 20
5.8289
 30
0.0
  0
SPLINE
  5
77
330
1F
100
AcDbEntity
  8
VRSTVA_1
 62
   250
100
AcDbSpline
210
0.0
220
0.0
230
1.0
 70
    11
 71
     3
 72
    20
 73
    16
 74
     0
 42
0.0000000001
 43
0.0000000001
 40
0.0
 40
0.0
 40
0.0
 40
0.0
 40
0.2
 40
0.2
 40
0.2
 40
0.2
 40
0.4
 40
0.4
 40
0.4
 40
0.4
 40
0.6
 40
0.6
 40
0.6
 40
0.6
 40
1.0
 40
1.0
 40
1.0
 40
1.0
 10
-5.2047
 20
5.8289
 30
0.0
 10
-5.2047
 20
6.0616
 30
0.0
 10
-5.3933
 20
6.2499
 30
0.0
 10
-5.6259
 20
6.2499
 30
0.0
 10
-5.6259
 20
6.2499
 30
0.0
 10
-5.8583
 20
6.2499
 30
0.0
 10
-6.0469
 20
6.0616
 30
0.0
 10
-6.0469
 20
5.8289
 30
0.0
 10
-6.0469
 20
5.8289
 30
0.0
 10
-6.0469
 20
5.5963
 30
0.0
 10
-5.8583
 20
5.4076
 30
0.0
 10
-5.6259
 20
5.4076
 30
0.0
 10
-5.6259
 20
5.4076
 30
0.0
 10
-5.3933
 20
5.4076
 30
0.0
 10
-5.2047
 20
5.5963
 30
0.0
 10
-5.2047
 20
5.8289
 30
0.0
  0
SPLINE
  5
78
330
1F
100
AcDbEntity
  8
VRSTVA_1
 62
   250
100
AcDbSpline
210
0.0
220
0.0
230
1.0
 70
    11
 71
     3
 72
    36
 73
    32
 74
     0
 42
0.0000000001
 43
0.0000000001
 40
0.0
 40
0.0
 40
0.0
 40
0.0
 40
0.1111111111111111
 40
0.1111111111111111
 40
0.1111111111111111
 40
0.1111111111111111
 40
0.2222222222222222
 40
0.2222222222222222
 40
0.2222222222222222
 40
0.2222222222222222
 40
0.3333333333333333
 40
0.3333333333333333
 40
0.3333333333333333
 40
0.3333333333333333
 40
0.4444444444444444
 40
0.4444444444444444
 40
0.4444444444444444
 40
0.4444444444444444
 40
0.5555555555555556
 40
0.5555555555555556
 40
0.5555555555555556
 40
0.5555555555555556
 40
0.6666666666666666
 40
0.6666666666666666
 40
0.6666666666666666
 40
0.6666666666666666
 40
0.7777777777777778
 40
0.7777777777777778
 40
0.7777777777777778
 40
0.7777777777777778
 40
1.0
 40
1.0
 40
1.0
 40
1.0
 10
7.5595
 20
9.8709
 30
0.0
 10
7.5595
 20
9.8709
 30
0.0
 10
7.5595
 20
11.6954
 30
0.0
 10
7.5595
 20
11.6954
 30
0.0
 10
7.5595
 20
11.6954
 30
0.0
 10
7.5595
 20
11.6954
 30
0.0
 10
7.5061
 20
11.7848
 30
0.0
 10
7.5061
 20
11.7848
 30
0.0
 10
7.5061
 20
11.7848
 30
0.0
 10
7.5061
 20
11.7848
 30
0.0
 10
7.2741
 20
11.7907
 30
0.0
 10
7.2741
 20
11.7907
 30
0.0
 10
7.2741
 20
11.7907
 30
0.0
 10
7.2741
 20
11.7907
 30
0.0
 10
7.0443
 20
11.7912
 30
0.0
 10
7.0443
 20
11.7912
 30
0.0
 10
7.0443
 20
11.7912
 30
0.0
 10
7.1397
 20
11.9567
 30
0.0
 10
7.3347
 20
12.0373
 30
0.0
 10
7.5194
 20
11.9879
 30
0.0
 10
7.5194
 20
11.9879
 30
0.0
 10
7.7039
 20
11.9385
 30
0.0
 10
7.8323
 20
11.771
 30
0.0
 10
7.8323
 20
11.5799
 30
0.0
 10
7.8323
 20
11.5799
 30
0.0
 10
7.8323
 20
11.5799
 30
0.0
 10
7.8392
 20
9.8591
 30
0.0
 10
7.8392
 20
9.8591
 30
0.0
 10
7.8392
 20
9.8591
 30
0.0
 10
7.8392
 20
9.8591
 30
0.0
 10
7.5595
 20
9.8709
 30
0.0
 10
7.5595
 20
9.8709
 30
0.0
  0
SPLINE
  5
79
330
1F
100
AcDbEntity
  8
VRSTVA_1
 62
   250
100
AcDbSpline
210
0.0
220
0.0
230
1.0
 70
    11
 71
     3
 72
    28
 73
    24
 74
     0
 42
0.0000000001
 43
0.0000000001
 40
0.0
 40
0.0
 40
0.0
 40
0.0
 40
0.1428571428571428
 40
0.1428571428571428
 40
0.1428571428571428
 40
0.1428571428571428
 40
0.2857142857142857
 40
0.2857142857142857
 40
0.2857142857142857
 40
0.2857142857142857
 40
0.4285714285714285
 40
0.4285714285714285
 40
0.4285714285714285
 40
0.4285714285714285
 40
0.5714285714285714
 40
0.5714285714285714
 40
0.5714285714285714
 40
0.5714285714285714
 40
0.7142857142857143
 40
0.7142857142857143
 40
0.7142857142857143
 40
0.7142857142857143
 40
1.0
 40
1.0
 40
1.0
 40
1.0
 10
1.7122
 20
9.8039
 30
0.0
 10
1.7122
 20
9.8039
 30
0.0
 10
1.7297
 20
11.5799
 30
0.0
 10
1.7297
 20
11.5799
 30
0.0
 10
1.7297
 20
11.5799
 30
0.0
 10
1.7297
 20
11.771
 30
0.0
 10
1.8581
 20
11.9385
 30
0.0
 10
2.0428
 20
11.9879
 30
0.0
 10
2.0428
 20
11.9879
 30
0.0
 10
2.2273
 20
12.0373
 30
0.0
 10
2.4223
 20
11.9567
 30
0.0
 10
2.5177
 20
11.7912
 30
0.0
 10
2.5177
 20
11.7912
 30
0.0
 10
2.5177
 20
11.7912
 30
0.0
 10
2.3583
 20
11.7549
 30
0.0
 10
2.3583
 20
11.7549
 30
0.0
 10
2.3583
 20
11.7549
 30
0.0
 10
2.3583
 20
11.7549
 30
0.0
 10
2.3936
 20
9.7862
 30
0.0
 10
2.3936
 20
9.7862
 30
0.0
 10
2.3936
 20
9.7862
 30
0.0
 10
2.3936
 20
9.7862
 30
0.0
 10
1.7122
 20
9.8039
 30
0.0
 10
1.7122
 20
9.8039
 30
0.0
  0
SPLINE
  5
7A
330
1F
100
AcDbEntity
  8
VRSTVA_1
 62
   250
100
AcDbSpline
210
0.0
220
0.0
230
1.0
 70
    11
 71
     3
 72
    32
 73
    28
 74
     0
 42
0.0000000001
 43
0.0000000001
 40
0.0
 40
0.0
 40
0.0
 40
0.0
 40
0.125
 40
0.125
 40
0.125
 40
0.125
 40
0.25
 40
0.25
 40
0.25
 40
0.25
 40
0.375
 40
0.375
 40
0.375
 40
0.375
 40
0.5
 40
0.5
 40
0.5
 40
0.5
 40
0.625
 40
0.625
 40
0.625
 40
0.625
 40
0.75
 40
0.75
 40
0.75
 40
0.75
 40
1.0
 40
1.0
 40
1.0
 40
1.0
 10
5.3983
 20
9.8932
 30
0.0
 10
5.3983
 20
9.8932
 30
0.0
 10
5.3903
 20
11.6588
 30
0.0
 10
5.3903
 20
11.6588
 30
0.0
 10
5.3903
 20
11.6588
 30
0.0
 10
5.3903
 20
11.6588
 30
0.0
 10
5.3741
 20
11.7474
 30
0.0
 10
5.3741
 20
11.7474
 30
0.0
 10
5.3741
 20
11.7474
 30
0.0
 10
5.3741
 20
11.7474
 30
0.0
 10
5.2916
 20
11.7912
 30
0.0
 10
5.2916
 20
11.7912
 30
0.0
 10
5.2916
 20
11.7912
 30
0.0
 10
5.3872
 20
11.9567
 30
0.0
 10
5.582
 20
12.0373
 30
0.0
 10
5.7667
 20
11.9879
 30
0.0
 10
5.7667
 20
11.9879
 30
0.0
 10
5.9514
 20
11.9385
 30
0.0
 10
6.0797
 20
11.771
 30
0.0
 10
6.0797
 20
11.5799
 30
0.0
 10
6.0797
 20
11.5799
 30
0.0
 10
6.0797
 20
11.5799
 30
0.0
 10
6.0661
 20
9.8367
 30
0.0
 10
6.0661
 20
9.8367
 30
0.0
 10
6.0661
 20
9.8367
 30
0.0
 10
6.0661
 20
9.8367
 30
0.0
 10
5.3983
 20
9.8932
 30
0.0
 10
5.3983
 20
9.8932
 30
0.0
  0
SPLINE
  5
7B
330
1F
100
AcDbEntity
  8
VRSTVA_1
 62
   250
100
AcDbSpline
210
0.0
220
0.0
230
1.0
 70
    11
 71
     3
 72
    48
 73
    44
 74
     0
 42
0.0000000001
 43
0.0000000001
 40
0.0
 40
0.0
 40
0.0
 40
0.0
 40
0.0833333333333333
 40
0.0833333333333333
 40
0.0833333333333333
 40
0.0833333333333333
 40
0.1666666666666667
 40
0.1666666666666667
 40
0.1666666666666667
 40
0.1666666666666667
 40
0.25
 40
0.25
 40
0.25
 40
0.25
 40
0.3333333333333333
 40
0.3333333333333333
 40
0.3333333333333333
 40
0.3333333333333333
 40
0.4166666666666667
 40
0.4166666666666667
 40
0.4166666666666667
 40
0.4166666666666667
 40
0.5
 40
0.5
 40
0.5
 40
0.5
 40
0.5833333333333334
 40
0.5833333333333334
 40
0.5833333333333334
 40
0.5833333333333334
 40
0.6666666666666666
 40
0.6666666666666666
 40
0.6666666666666666
 40
0.6666666666666666
 40
0.75
 40
0.75
 40
0.75
 40
0.75
 40
0.8333333333333334
 40
0.8333333333333334
 40
0.8333333333333334
 40
0.8333333333333334
 40
1.0
 40
1.0
 40
1.0
 40
1.0
 10
0.7651
 20
11.7912
 30
0.0
 10
0.6696
 20
11.9567
 30
0.0
 10
0.4747
 20
12.0373
 30
0.0
 10
0.2901
 20
11.9879
 30
0.0
 10
0.2901
 20
11.9879
 30
0.0
 10
0.1054
 20
11.9385
 30
0.0
 10
-0.023
 20
11.771
 30
0.0
 10
-0.023
 20
11.5799
 30
0.0
 10
-0.023
 20
11.5799
 30
0.0
 10
-0.023
 20
11.5799
 30
0.0
 10
-0.0313
 20
9.8394
 30
0.0
 10
-0.0313
 20
9.8394
 30
0.0
 10
-0.0313
 20
9.8394
 30
0.0
 10
-0.0313
 20
9.8394
 30
0.0
 10
0.2166
 20
9.8394
 30
0.0
 10
0.2166
 20
9.8394
 30
0.0
 10
0.2166
 20
9.8394
 30
0.0
 10
0.2166
 20
9.8394
 30
0.0
 10
0.2342
 20
11.6218
 30
0.0
 10
0.2342
 20
11.6218
 30
0.0
 10
0.2342
 20
11.6218
 30
0.0
 10
0.2342
 20
11.6218
 30
0.0
 10
0.2785
 20
11.7371
 30
0.0
 10
0.2785
 20
11.7371
 30
0.0
 10
0.2785
 20
11.7371
 30
0.0
 10
0.2785
 20
11.7371
 30
0.0
 10
0.3581
 20
11.7726
 30
0.0
 10
0.3581
 20
11.7726
 30
0.0
 10
0.3581
 20
11.7726
 30
0.0
 10
0.3581
 20
11.7726
 30
0.0
 10
0.4555
 20
11.7904
 30
0.0
 10
0.4555
 20
11.7904
 30
0.0
 10
0.4555
 20
11.7904
 30
0.0
 10
0.4555
 20
11.7904
 30
0.0
 10
0.7651
 20
11.7912
 30
0.0
 10
0.7651
 20
11.7912
 30
0.0
 10
0.7651
 20
11.7912
 30
0.0
 10
0.7651
 20
11.7912
 30
0.0
 10
1.7863
 20
11.7912
 30
0.0
 10
1.7863
 20
11.7912
 30
0.0
 10
1.7863
 20
11.7912
 30
0.0
 10
1.7863
 20
11.7912
 30
0.0
 10
0.7651
 20
11.7912
 30
0.0
 10
0.7651
 20
11.7912
 30
0.0
  0
SPLINE
  5
7C
330
1F
100
AcDbEntity
  8
VRSTVA_1
 62
   250
100
AcDbSpline
210
0.0
220
0.0
230
1.0
 70
    27
 71
     3
 72
    20
 73
    16
 74
     0
 42
0.0000000001
 43
0.0000000001
 40
0.0
 40
0.0
 40
0.0
 40
0.0
 40
0.2
 40
0.2
 40
0.2
 40
0.2
 40
0.4
 40
0.4
 40
0.4
 40
0.4
 40
0.6
 40
0.6
 40
0.6
 40
0.6
 40
1.0
 40
1.0
 40
1.0
 40
1.0
 10
5.3791
 20
11.7912
 30
0.0
 10
5.3791
 20
11.7912
 30
0.0
 10
5.2916
 20
11.7912
 30
0.0
 10
5.2916
 20
11.7912
 30
0.0
 10
5.2916
 20
11.7912
 30
0.0
 10
5.2916
 20
11.7912
 30
0.0
 10
2.4304
 20
11.7912
 30
0.0
 10
2.4304
 20
11.7912
 30
0.0
 10
2.4304
 20
11.7912
 30
0.0
 10
2.4304
 20
11.7912
 30
0.0
 10
5.2916
 20
11.7912
 30
0.0
 10
5.2916
 20
11.7912
 30
0.0
 10
5.2916
 20
11.7912
 30
0.0
 10
5.2916
 20
11.7912
 30
0.0
 10
5.3791
 20
11.7912
 30
0.0
 10
5.3791
 20
11.7912
 30
0.0
  0
SPLINE
  5
7D
330
1F
100
AcDbEntity
  8
VRSTVA_1
 62
   250
100
AcDbSpline
210
0.0
220
0.0
230
1.0
 70
    27
 71
     3
 72
    20
 73
    16
 74
     0
 42
0.0000000001
 43
0.0000000001
 40
0.0
 40
0.0
 40
0.0
 40
0.0
 40
0.2
 40
0.2
 40
0.2
 40
0.2
 40
0.4
 40
0.4
 40
0.4
 40
0.4
 40
0.6
 40
0.6
 40
0.6
 40
0.6
 40
1.0
 40
1.0
 40
1.0
 40
1.0
 10
7.4763
 20
11.7912
 30
0.0
 10
7.4763
 20
11.7912
 30
0.0
 10
7.0443
 20
11.7912
 30
0.0
 10
7.0443
 20
11.7912
 30
0.0
 10
7.0443
 20
11.7912
 30
0.0
 10
7.0443
 20
11.7912
 30
0.0
 10
6.023
 20
11.7912
 30
0.0
 10
6.023
 20
11.7912
 30
0.0
 10
6.023
 20
11.7912
 30
0.0
 10
6.023
 20
11.7912
 30
0.0
 10
7.0443
 20
11.7912
 30
0.0
 10
7.0443
 20
11.7912
 30
0.0
 10
7.0443
 20
11.7912
 30
0.0
 10
7.0443
 20
11.7912
 30
0.0
 10
7.4763
 20
11.7912
 30
0.0
 10
7.4763
 20
11.7912
 30
0.0
  0
SPLINE
  5
7E
330
1F
100
AcDbEntity
  8
VRSTVA_1
 62
   250
100
AcDbSpline
210
0.0
220
0.0
230
1.0
 70
     8
 71
     3
 72
    32
 73
    28
 74
     0
 42
0.0000000001
 43
0.0000000001
 40
0.0
 40
0.0
 40
0.0
 40
0.0
 40
0.125
 40
0.125
 40
0.125
 40
0.125
 40
0.25
 40
0.25
 40
0.25
 40
0.25
 40
0.375
 40
0.375
 40
0.375
 40
0.375
 40
0.5
 40
0.5
 40
0.5
 40
0.5
 40
0.625
 40
0.625
 40
0.625
 40
0.625
 40
0.75
 40
0.75
 40
0.75
 40
0.75
 40
1.0
 40
1.0
 40
1.0
 40
1.0
 10
7.5595
 20
9.8709
 30
0.0
 10
7.5595
 20
9.8709
 30
0.0
 10
7.5595
 20
11.6954
 30
0.0
 10
7.5595
 20
11.6954
 30
0.0
 10
7.5595
 20
11.6954
 30
0.0
 10
7.5595
 20
11.6954
 30
0.0
 10
7.5061
 20
11.7848
 30
0.0
 10
7.5061
 20
11.7848
 30
0.0
 10
7.5061
 20
11.7848
 30
0.0
 10
7.5061
 20
11.7848
 30
0.0
 10
7.2741
 20
11.7907
 30
0.0
 10
7.2741
 20
11.7907
 30
0.0
 10
7.2741
 20
11.7907
 30
0.0
 10
7.2741
 20
11.7907
 30
0.0
 10
7.0443
 20
11.7912
 30
0.0
 10
7.0443
 20
11.7912
 30
0.0
 10
7.0443
 20
11.7912
 30
0.0
 10
7.1397
 20
11.9567
 30
0.0
 10
7.3347
 20
12.0373
 30
0.0
 10
7.5194
 20
11.9879
 30
0.0
 10
7.5194
 20
11.9879
 30
0.0
 10
7.7039
 20
11.9385
 30
0.0
 10
7.8323
 20
11.771
 30
0.0
 10
7.8323
 20
11.5799
 30
0.0
 10
7.8323
 20
11.5799
 30
0.0
 10
7.8323
 20
11.5799
 30
0.0
 10
7.8392
 20
9.8591
 30
0.0
 10
7.8392
 20
9.8591
 30
0.0
  0
SPLINE
  5
7F
330
1F
100
AcDbEntity
  8
VRSTVA_1
 62
   250
100
AcDbSpline
210
0.0
220
0.0
230
1.0
 70
     8
 71
     3
 72
    24
 73
    20
 74
     0
 42
0.0000000001
 43
0.0000000001
 40
0.0
 40
0.0
 40
0.0
 40
0.0
 40
0.1666666666666667
 40
0.1666666666666667
 40
0.1666666666666667
 40
0.1666666666666667
 40
0.3333333333333333
 40
0.3333333333333333
 40
0.3333333333333333
 40
0.3333333333333333
 40
0.5
 40
0.5
 40
0.5
 40
0.5
 40
0.6666666666666666
 40
0.6666666666666666
 40
0.6666666666666666
 40
0.6666666666666666
 40
1.0
 40
1.0
 40
1.0
 40
1.0
 10
1.7122
 20
9.8039
 30
0.0
 10
1.7122
 20
9.8039
 30
0.0
 10
1.7297
 20
11.5799
 30
0.0
 10
1.7297
 20
11.5799
 30
0.0
 10
1.7297
 20
11.5799
 30
0.0
 10
1.7297
 20
11.771
 30
0.0
 10
1.8581
 20
11.9385
 30
0.0
 10
2.0428
 20
11.9879
 30
0.0
 10
2.0428
 20
11.9879
 30
0.0
 10
2.2273
 20
12.0373
 30
0.0
 10
2.4223
 20
11.9567
 30
0.0
 10
2.5177
 20
11.7912
 30
0.0
 10
2.5177
 20
11.7912
 30
0.0
 10
2.5177
 20
11.7912
 30
0.0
 10
2.3583
 20
11.7549
 30
0.0
 10
2.3583
 20
11.7549
 30
0.0
 10
2.3583
 20
11.7549
 30
0.0
 10
2.3583
 20
11.7549
 30
0.0
 10
2.3936
 20
9.7862
 30
0.0
 10
2.3936
 20
9.7862
 30
0.0
  0
SPLINE
  5
80
330
1F
100
AcDbEntity
  8
VRSTVA_1
 62
   250
100
AcDbSpline
210
0.0
220
0.0
230
1.0
 70
     8
 71
     3
 72
    28
 73
    24
 74
     0
 42
0.0000000001
 43
0.0000000001
 40
0.0
 40
0.0
 40
0.0
 40
0.0
 40
0.1428571428571428
 40
0.1428571428571428
 40
0.1428571428571428
 40
0.1428571428571428
 40
0.2857142857142857
 40
0.2857142857142857
 40
0.2857142857142857
 40
0.2857142857142857
 40
0.4285714285714285
 40
0.4285714285714285
 40
0.4285714285714285
 40
0.4285714285714285
 40
0.5714285714285714
 40
0.5714285714285714
 40
0.5714285714285714
 40
0.5714285714285714
 40
0.7142857142857143
 40
0.7142857142857143
 40
0.7142857142857143
 40
0.7142857142857143
 40
1.0
 40
1.0
 40
1.0
 40
1.0
 10
5.3983
 20
9.8932
 30
0.0
 10
5.3983
 20
9.8932
 30
0.0
 10
5.3903
 20
11.6588
 30
0.0
 10
5.3903
 20
11.6588
 30
0.0
 10
5.3903
 20
11.6588
 30
0.0
 10
5.3903
 20
11.6588
 30
0.0
 10
5.3741
 20
11.7474
 30
0.0
 10
5.3741
 20
11.7474
 30
0.0
 10
5.3741
 20
11.7474
 30
0.0
 10
5.3741
 20
11.7474
 30
0.0
 10
5.2916
 20
11.7912
 30
0.0
 10
5.2916
 20
11.7912
 30
0.0
 10
5.2916
 20
11.7912
 30
0.0
 10
5.3872
 20
11.9567
 30
0.0
 10
5.582
 20
12.0373
 30
0.0
 10
5.7667
 20
11.9879
 30
0.0
 10
5.7667
 20
11.9879
 30
0.0
 10
5.9514
 20
11.9385
 30
0.0
 10
6.0797
 20
11.771
 30
0.0
 10
6.0797
 20
11.5799
 30
0.0
 10
6.0797
 20
11.5799
 30
0.0
 10
6.0797
 20
11.5799
 30
0.0
 10
6.0661
 20
9.8367
 30
0.0
 10
6.0661
 20
9.8367
 30
0.0
  0
SPLINE
  5
81
330
1F
100
AcDbEntity
  8
VRSTVA_1
 62
   250
100
AcDbSpline
210
0.0
220
0.0
230
1.0
 70
    11
 71
     3
 72
    48
 73
    44
 74
     0
 42
0.0000000001
 43
0.0000000001
 40
0.0
 40
0.0
 40
0.0
 40
0.0
 40
0.0833333333333333
 40
0.0833333333333333
 40
0.0833333333333333
 40
0.0833333333333333
 40
0.1666666666666667
 40
0.1666666666666667
 40
0.1666666666666667
 40
0.1666666666666667
 40
0.25
 40
0.25
 40
0.25
 40
0.25
 40
0.3333333333333333
 40
0.3333333333333333
 40
0.3333333333333333
 40
0.3333333333333333
 40
0.4166666666666667
 40
0.4166666666666667
 40
0.4166666666666667
 40
0.4166666666666667
 40
0.5
 40
0.5
 40
0.5
 40
0.5
 40
0.5833333333333334
 40
0.5833333333333334
 40
0.5833333333333334
 40
0.5833333333333334
 40
0.6666666666666666
 40
0.6666666666666666
 40
0.6666666666666666
 40
0.6666666666666666
 40
0.75
 40
0.75
 40
0.75
 40
0.75
 40
0.8333333333333334
 40
0.8333333333333334
 40
0.8333333333333334
 40
0.8333333333333334
 40
1.0
 40
1.0
 40
1.0
 40
1.0
 10
0.7651
 20
11.7912
 30
0.0
 10
0.6696
 20
11.9567
 30
0.0
 10
0.4747
 20
12.0373
 30
0.0
 10
0.2901
 20
11.9879
 30
0.0
 10
0.2901
 20
11.9879
 30
0.0
 10
0.1054
 20
11.9385
 30
0.0
 10
-0.023
 20
11.771
 30
0.0
 10
-0.023
 20
11.5799
 30
0.0
 10
-0.023
 20
11.5799
 30
0.0
 10
-0.023
 20
11.5799
 30
0.0
 10
-0.0313
 20
9.8394
 30
0.0
 10
-0.0313
 20
9.8394
 30
0.0
 10
-0.0313
 20
9.8394
 30
0.0
 10
-0.0313
 20
9.8394
 30
0.0
 10
0.2166
 20
9.8394
 30
0.0
 10
0.2166
 20
9.8394
 30
0.0
 10
0.2166
 20
9.8394
 30
0.0
 10
0.2166
 20
9.8394
 30
0.0
 10
0.2342
 20
11.6218
 30
0.0
 10
0.2342
 20
11.6218
 30
0.0
 10
0.2342
 20
11.6218
 30
0.0
 10
0.2342
 20
11.6218
 30
0.0
 10
0.2785
 20
11.7371
 30
0.0
 10
0.2785
 20
11.7371
 30
0.0
 10
0.2785
 20
11.7371
 30
0.0
 10
0.2785
 20
11.7371
 30
0.0
 10
0.3581
 20
11.7726
 30
0.0
 10
0.3581
 20
11.7726
 30
0.0
 10
0.3581
 20
11.7726
 30
0.0
 10
0.3581
 20
11.7726
 30
0.0
 10
0.4555
 20
11.7904
 30
0.0
 10
0.4555
 20
11.7904
 30
0.0
 10
0.4555
 20
11.7904
 30
0.0
 10
0.4555
 20
11.7904
 30
0.0
 10
0.7651
 20
11.7912
 30
0.0
 10
0.7651
 20
11.7912
 30
0.0
 10
0.7651
 20
11.7912
 30
0.0
 10
0.7651
 20
11.7912
 30
0.0
 10
1.7863
 20
11.7912
 30
0.0
 10
1.7863
 20
11.7912
 30
0.0
 10
1.7863
 20
11.7912
 30
0.0
 10
1.7863
 20
11.7912
 30
0.0
 10
0.7651
 20
11.7912
 30
0.0
 10
0.7651
 20
11.7912
 30
0.0
  0
SPLINE
  5
82
330
1F
100
AcDbEntity
  8
VRSTVA_1
 62
   250
100
AcDbSpline
210
0.0
220
0.0
230
1.0
 70
    27
 71
     3
 72
    20
 73
    16
 74
     0
 42
0.0000000001
 43
0.0000000001
 40
0.0
 40
0.0
 40
0.0
 40
0.0
 40
0.2
 40
0.2
 40
0.2
 40
0.2
 40
0.4
 40
0.4
 40
0.4
 40
0.4
 40
0.6
 40
0.6
 40
0.6
 40
0.6
 40
1.0
 40
1.0
 40
1.0
 40
1.0
 10
5.3791
 20
11.7912
 30
0.0
 10
5.3791
 20
11.7912
 30
0.0
 10
5.2916
 20
11.7912
 30
0.0
 10
5.2916
 20
11.7912
 30
0.0
 10
5.2916
 20
11.7912
 30
0.0
 10
5.2916
 20
11.7912
 30
0.0
 10
2.4304
 20
11.7912
 30
0.0
 10
2.4304
 20
11.7912
 30
0.0
 10
2.4304
 20
11.7912
 30
0.0
 10
2.4304
 20
11.7912
 30
0.0
 10
5.2916
 20
11.7912
 30
0.0
 10
5.2916
 20
11.7912
 30
0.0
 10
5.2916
 20
11.7912
 30
0.0
 10
5.2916
 20
11.7912
 30
0.0
 10
5.3791
 20
11.7912
 30
0.0
 10
5.3791
 20
11.7912
 30
0.0
  0
SPLINE
  5
83
330
1F
100
AcDbEntity
  8
VRSTVA_1
 62
   250
100
AcDbSpline
210
0.0
220
0.0
230
1.0
 70
    27
 71
     3
 72
    20
 73
    16
 74
     0
 42
0.0000000001
 43
0.0000000001
 40
0.0
 40
0.0
 40
0.0
 40
0.0
 40
0.2
 40
0.2
 40
0.2
 40
0.2
 40
0.4
 40
0.4
 40
0.4
 40
0.4
 40
0.6
 40
0.6
 40
0.6
 40
0.6
 40
1.0
 40
1.0
 40
1.0
 40
1.0
 10
7.4763
 20
11.7912
 30
0.0
 10
7.4763
 20
11.7912
 30
0.0
 10
7.0443
 20
11.7912
 30
0.0
 10
7.0443
 20
11.7912
 30
0.0
 10
7.0443
 20
11.7912
 30
0.0
 10
7.0443
 20
11.7912
 30
0.0
 10
6.023
 20
11.7912
 30
0.0
 10
6.023
 20
11.7912
 30
0.0
 10
6.023
 20
11.7912
 30
0.0
 10
6.023
 20
11.7912
 30
0.0
 10
7.0443
 20
11.7912
 30
0.0
 10
7.0443
 20
11.7912
 30
0.0
 10
7.0443
 20
11.7912
 30
0.0
 10
7.0443
 20
11.7912
 30
0.0
 10
7.4763
 20
11.7912
 30
0.0
 10
7.4763
 20
11.7912
 30
0.0
  0
SPLINE
  5
84
330
1F
100
AcDbEntity
  8
VRSTVA_1
 62
   250
100
AcDbSpline
210
0.0
220
0.0
230
1.0
 70
     8
 71
     3
 72
   112
 73
   108
 74
     0
 42
0.0000000001
 43
0.0000000001
 40
0.0
 40
0.0
 40
0.0
 40
0.0
 40
0.0357142857142857
 40
0.0357142857142857
 40
0.0357142857142857
 40
0.0357142857142857
 40
0.0714285714285714
 40
0.0714285714285714
 40
0.0714285714285714
 40
0.0714285714285714
 40
0.1071428571428571
 40
0.1071428571428571
 40
0.1071428571428571
 40
0.1071428571428571
 40
0.1428571428571428
 40
0.1428571428571428
 40
0.1428571428571428
 40
0.1428571428571428
 40
0.1785714285714286
 40
0.1785714285714286
 40
0.1785714285714286
 40
0.1785714285714286
 40
0.2142857142857143
 40
0.2142857142857143
 40
0.2142857142857143
 40
0.2142857142857143
 40
0.25
 40
0.25
 40
0.25
 40
0.25
 40
0.2857142857142857
 40
0.2857142857142857
 40
0.2857142857142857
 40
0.2857142857142857
 40
0.3214285714285715
 40
0.3214285714285715
 40
0.3214285714285715
 40
0.3214285714285715
 40
0.3571428571428572
 40
0.3571428571428572
 40
0.3571428571428572
 40
0.3571428571428572
 40
0.3928571428571428
 40
0.3928571428571428
 40
0.3928571428571428
 40
0.3928571428571428
 40
0.4285714285714285
 40
0.4285714285714285
 40
0.4285714285714285
 40
0.4285714285714285
 40
0.4642857142857143
 40
0.4642857142857143
 40
0.4642857142857143
 40
0.4642857142857143
 40
0.5
 40
0.5
 40
0.5
 40
0.5
 40
0.5357142857142857
 40
0.5357142857142857
 40
0.5357142857142857
 40
0.5357142857142857
 40
0.5714285714285714
 40
0.5714285714285714
 40
0.5714285714285714
 40
0.5714285714285714
 40
0.6071428571428571
 40
0.6071428571428571
 40
0.6071428571428571
 40
0.6071428571428571
 40
0.6428571428571429
 40
0.6428571428571429
 40
0.6428571428571429
 40
0.6428571428571429
 40
0.6785714285714286
 40
0.6785714285714286
 40
0.6785714285714286
 40
0.6785714285714286
 40
0.7142857142857143
 40
0.7142857142857143
 40
0.7142857142857143
 40
0.7142857142857143
 40
0.75
 40
0.75
 40
0.75
 40
0.75
 40
0.7857142857142857
 40
0.7857142857142857
 40
0.7857142857142857
 40
0.7857142857142857
 40
0.8214285714285714
 40
0.8214285714285714
 40
0.8214285714285714
 40
0.8214285714285714
 40
0.8571428571428571
 40
0.8571428571428571
 40
0.8571428571428571
 40
0.8571428571428571
 40
0.8928571428571429
 40
0.8928571428571429
 40
0.8928571428571429
 40
0.8928571428571429
 40
0.9285714285714286
 40
0.9285714285714286
 40
0.9285714285714286
 40
0.9285714285714286
 40
1.0
 40
1.0
 40
1.0
 40
1.0
 10
0.5428
 20
21.2565
 30
0.0
 10
0.5428
 20
21.2565
 30
0.0
 10
-0.1426
 20
21.287
 30
0.0
 10
-0.1426
 20
21.287
 30
0.0
 10
-0.1426
 20
21.287
 30
0.0
 10
-0.1426
 20
21.287
 30
0.0
 10
-0.2597
 20
21.3651
 30
0.0
 10
-0.2597
 20
21.3651
 30
0.0
 10
-0.2597
 20
21.3651
 30
0.0
 10
-0.2597
 20
21.3651
 30
0.0
 10
-0.3377
 20
21.4821
 30
0.0
 10
-0.3377
 20
21.4821
 30
0.0
 10
-0.3377
 20
21.4821
 30
0.0
 10
-0.3377
 20
21.4821
 30
0.0
 10
-0.3185
 20
24.2498
 30
0.0
 10
-0.3185
 20
24.2498
 30
0.0
 10
-0.3185
 20
24.2498
 30
0.0
 10
-0.3185
 20
24.5996
 30
0.0
 10
-0.035
 20
24.8832
 30
0.0
 10
0.3149
 20
24.8832
 30
0.0
 10
0.3149
 20
24.8832
 30
0.0
 10
0.3149
 20
24.8832
 30
0.0
 10
2.0425
 20
24.8768
 30
0.0
 10
2.0425
 20
24.8768
 30
0.0
 10
2.0425
 20
24.8768
 30
0.0
 10
2.0425
 20
24.8768
 30
0.0
 10
2.1936
 20
24.9809
 30
0.0
 10
2.1936
 20
24.9809
 30
0.0
 10
2.1936
 20
24.9809
 30
0.0
 10
2.1936
 20
24.9809
 30
0.0
 10
2.2158
 20
25.171
 30
0.0
 10
2.2158
 20
25.171
 30
0.0
 10
2.2158
 20
25.171
 30
0.0
 10
2.2158
 20
25.171
 30
0.0
 10
2.1915
 20
30.1984
 30
0.0
 10
2.1915
 20
30.1984
 30
0.0
 10
2.1915
 20
30.1984
 30
0.0
 10
2.1915
 20
30.1984
 30
0.0
 10
2.3079
 20
30.5518
 30
0.0
 10
2.3079
 20
30.5518
 30
0.0
 10
2.3079
 20
30.5518
 30
0.0
 10
2.3079
 20
30.5518
 30
0.0
 10
2.5205
 20
30.7221
 30
0.0
 10
2.5205
 20
30.7221
 30
0.0
 10
2.5205
 20
30.7221
 30
0.0
 10
2.5205
 20
30.7221
 30
0.0
 10
2.846
 20
30.8072
 30
0.0
 10
2.846
 20
30.8072
 30
0.0
 10
2.846
 20
30.8072
 30
0.0
 10
2.846
 20
30.8072
 30
0.0
 10
4.9842
 20
30.7789
 30
0.0
 10
4.9842
 20
30.7789
 30
0.0
 10
4.9842
 20
30.7789
 30
0.0
 10
4.9842
 20
30.7789
 30
0.0
 10
5.2249
 20
30.7504
 30
0.0
 10
5.2249
 20
30.7504
 30
0.0
 10
5.2249
 20
30.7504
 30
0.0
 10
5.2249
 20
30.7504
 30
0.0
 10
5.5081
 20
30.4808
 30
0.0
 10
5.5081
 20
30.4808
 30
0.0
 10
5.5081
 20
30.4808
 30
0.0
 10
5.5081
 20
30.4808
 30
0.0
 10
5.6215
 20
30.1971
 30
0.0
 10
5.6215
 20
30.1971
 30
0.0
 10
5.6215
 20
30.1971
 30
0.0
 10
5.6215
 20
30.1971
 30
0.0
 10
5.6175
 20
25.046
 30
0.0
 10
5.6175
 20
25.046
 30
0.0
 10
5.6175
 20
25.046
 30
0.0
 10
5.6175
 20
25.046
 30
0.0
 10
5.6797
 20
24.9273
 30
0.0
 10
5.6797
 20
24.9273
 30
0.0
 10
5.6797
 20
24.9273
 30
0.0
 10
5.6797
 20
24.9273
 30
0.0
 10
5.8454
 20
24.8821
 30
0.0
 10
5.8454
 20
24.8821
 30
0.0
 10
5.8454
 20
24.8821
 30
0.0
 10
5.8454
 20
24.8821
 30
0.0
 10
7.5777
 20
24.8821
 30
0.0
 10
7.5777
 20
24.8821
 30
0.0
 10
7.5777
 20
24.8821
 30
0.0
 10
7.5777
 20
24.8821
 30
0.0
 10
7.879
 20
24.7613
 30
0.0
 10
7.879
 20
24.7613
 30
0.0
 10
7.879
 20
24.7613
 30
0.0
 10
7.879
 20
24.7613
 30
0.0
 10
8.0597
 20
24.5349
 30
0.0
 10
8.0597
 20
24.5349
 30
0.0
 10
8.0597
 20
24.5349
 30
0.0
 10
8.0597
 20
24.5349
 30
0.0
 10
8.135
 20
24.2934
 30
0.0
 10
8.135
 20
24.2934
 30
0.0
 10
8.135
 20
24.2934
 30
0.0
 10
8.135
 20
24.2934
 30
0.0
 10
8.1502
 20
21.4254
 30
0.0
 10
8.1502
 20
21.4254
 30
0.0
 10
8.1502
 20
21.4254
 30
0.0
 10
8.1502
 20
21.4254
 30
0.0
 10
7.9543
 20
21.2894
 30
0.0
 10
7.9543
 20
21.2894
 30
0.0
 10
7.9543
 20
21.2894
 30
0.0
 10
7.9543
 20
21.2894
 30
0.0
 10
7.6983
 20
21.2894
 30
0.0
 10
7.6983
 20
21.2894
 30
0.0
 10
7.6983
 20
21.2894
 30
0.0
 10
7.6983
 20
21.2894
 30
0.0
 10
7.397
 20
21.3196
 30
0.0
 10
7.397
 20
21.3196
 30
0.0
  0
SPLINE
  5
85
330
1F
100
AcDbEntity
  8
VRSTVA_1
 62
   250
100
AcDbSpline
210
0.0
220
0.0
230
1.0
 70
    11
 71
     3
 72
    36
 73
    32
 74
     0
 42
0.0000000001
 43
0.0000000001
 40
0.0
 40
0.0
 40
0.0
 40
0.0
 40
0.1111111111111111
 40
0.1111111111111111
 40
0.1111111111111111
 40
0.1111111111111111
 40
0.2222222222222222
 40
0.2222222222222222
 40
0.2222222222222222
 40
0.2222222222222222
 40
0.3333333333333333
 40
0.3333333333333333
 40
0.3333333333333333
 40
0.3333333333333333
 40
0.4444444444444444
 40
0.4444444444444444
 40
0.4444444444444444
 40
0.4444444444444444
 40
0.5555555555555556
 40
0.5555555555555556
 40
0.5555555555555556
 40
0.5555555555555556
 40
0.6666666666666666
 40
0.6666666666666666
 40
0.6666666666666666
 40
0.6666666666666666
 40
0.7777777777777778
 40
0.7777777777777778
 40
0.7777777777777778
 40
0.7777777777777778
 40
1.0
 40
1.0
 40
1.0
 40
1.0
 10
3.142
 20
29.7572
 30
0.0
 10
3.142
 20
29.7572
 30
0.0
 10
4.6558
 20
29.7572
 30
0.0
 10
4.6558
 20
29.7572
 30
0.0
 10
4.6558
 20
29.7572
 30
0.0
 10
4.812
 20
29.7572
 30
0.0
 10
4.9396
 20
29.6296
 30
0.0
 10
4.9396
 20
29.4733
 30
0.0
 10
4.9396
 20
29.4733
 30
0.0
 10
4.9396
 20
29.4733
 30
0.0
 10
4.9396
 20
26.1817
 30
0.0
 10
4.9396
 20
26.1817
 30
0.0
 10
4.9396
 20
26.1817
 30
0.0
 10
4.9396
 20
26.0254
 30
0.0
 10
4.812
 20
25.8978
 30
0.0
 10
4.6558
 20
25.8978
 30
0.0
 10
4.6558
 20
25.8978
 30
0.0
 10
4.6558
 20
25.8978
 30
0.0
 10
3.142
 20
25.8978
 30
0.0
 10
3.142
 20
25.8978
 30
0.0
 10
3.142
 20
25.8978
 30
0.0
 10
2.9858
 20
25.8978
 30
0.0
 10
2.8582
 20
26.0254
 30
0.0
 10
2.8582
 20
26.1817
 30
0.0
 10
2.8582
 20
26.1817
 30
0.0
 10
2.8582
 20
26.1817
 30
0.0
 10
2.8582
 20
29.4733
 30
0.0
 10
2.8582
 20
29.4733
 30
0.0
 10
2.8582
 20
29.4733
 30
0.0
 10
2.8582
 20
29.6296
 30
0.0
 10
2.9858
 20
29.7572
 30
0.0
 10
3.142
 20
29.7572
 30
0.0
  0
ENDSEC
  0
SECTION
  2
OBJECTS
  0
DICTIONARY
  5
C
330
0
100
AcDbDictionary
  3
ACAD_GROUP
350
D
  3
ACAD_LAYOUT
350
1A
  3
ACAD_MATERIAL
350
3B
  3
ACAD_MLEADERSTYLE
350
A8
  3
ACAD_MLINESTYLE
350
17
  3
ACAD_PLOTSETTINGS
350
19
  3
ACAD_VISUALSTYLE
350
2A
  3
ACDBHEADERROUNDTRIPXREC
350
86
  3
ACDBVARIABLEDICTIONARY
350
A6
  0
DICTIONARY
  5
D
102
{ACAD_REACTORS
330
C
102
}
330
C
100
AcDbDictionary
  0
DICTIONARY
  5
1A
102
{ACAD_REACTORS
330
C
102
}
330
C
100
AcDbDictionary
  0
DICTIONARY
  5
3B
102
{ACAD_REACTORS
330
C
102
}
330
C
100
AcDbDictionary
  3
BYBLOCK
350
3D
  3
BYLAYER
350
3C
  3
GLOBAL
350
3E
  0
DICTIONARY
  5
A8
102
{ACAD_REACTORS
330
C
102
}
330
C
100
AcDbDictionary
  0
DICTIONARY
  5
17
102
{ACAD_REACTORS
330
C
102
}
330
C
100
AcDbDictionary
  3
STANDARD
350
18
  0
DICTIONARY
  5
19
102
{ACAD_REACTORS
330
C
102
}
330
C
100
AcDbDictionary
  0
DICTIONARY
  5
2A
102
{ACAD_REACTORS
330
C
102
}
330
C
100
AcDbDictionary
  3
2DWIREFRAME
350
2F
  3
3D_HIDDEN
350
31
  3
3DWIREFRAME
350
30
  3
BASIC
350
32
  3
BRIGHTEN
350
36
  3
COLORCHANGE
350
3A
  3
CONCEPTUAL
350
34
  3
DIM
350
35
  3
FACEPATTERN
350
39
  3
FLAT
350
2B
  3
FLATWITHEDGES
350
2C
  3
GOURAUD
350
2D
  3
GOURAUDWITHEDGES
350
2E
  3
LINEPATTERN
350
38
  3
REALISTIC
350
33
  3
THICKEN
350
37
  0
DICTIONARY
  5
86
102
{ACAD_REACTORS
330
C
102
}
330
C
100
AcDbDictionary
  3
CEPSNTYPE
350
8F
  3
DIMSTYLEDATA
350
A5
  3
FINGERPRINTGUID
350
90
  3
HYPERLINKBASE
350
89
  3
INSUNITS
350
8E
  3
LAYOUTDICT
350
8B
  3
LWETCUNION
350
8D
  3
PLOTSETDICT
350
8C
  3
PSVPSCALE
350
92
  3
PUCSBASE
350
95
  3
PUCSORGBACK
350
9B
  3
PUCSORGBOTTOM
350
97
  3
PUCSORGFRONT
350
9A
  3
PUCSORGLEFT
350
98
  3
PUCSORGRIGHT
350
99
  3
PUCSORGTOP
350
96
  3
PUCSORTHOREF
350
93
  3
PUCSORTHOVIEW
350
94
  3
STYLESHEET
350
8A
  3
TSTACKALIGN
350
87
  3
TSTACKSIZE
350
88
  3
UCSBASE
350
9E
  3
UCSORGBACK
350
A4
  3
UCSORGBOTTOM
350
A0
  3
UCSORGFRONT
350
A3
  3
UCSORGLEFT
350
A1
  3
UCSORGRIGHT
350
A2
  3
UCSORGTOP
350
9F
  3
UCSORTHOREF
350
9C
  3
UCSORTHOVIEW
350
9D
  3
VERSIONGUID
350
91
  0
DICTIONARY
  5
A6
102
{ACAD_REACTORS
330
C
102
}
330
C
100
AcDbDictionary
  3
DIMASSOC
350
A9
  3
HIDETEXT
350
AA
  0
MATERIAL
  5
3D
102
{ACAD_REACTORS
330
3B
102
}
102
{ACAD_XDICTIONARY
360
AD
102
}
330
3B
100
AcDbMaterial
  1
ByBlock
  0
MATERIAL
  5
3C
102
{ACAD_REACTORS
330
3B
102
}
102
{ACAD_XDICTIONARY
360
AB
102
}
330
3B
100
AcDbMaterial
  1
ByLayer
  0
MATERIAL
  5
3E
102
{ACAD_REACTORS
330
3B
102
}
102
{ACAD_XDICTIONARY
360
AF
102
}
330
3B
100
AcDbMaterial
  1
Global
  0
MLINESTYLE
  5
18
102
{ACAD_REACTORS
330
17
102
}
330
17
100
AcDbMlineStyle
  2
Standard
 70
     0
  3

 62
   256
 51
90.0
 52
90.0
 71
     2
 49
0.5
 62
   256
  6
BYLAYER
 49
-0.5
 62
   256
  6
BYLAYER
  0
ACAD_PROXY_OBJECT
  5
2F
102
{ACAD_REACTORS
330
2A
102
}
330
2A
100
AcDbProxyObject
 90
      499
 91
      501
 93
      436
310
42CC9915DA5C99599C985B595049028333333333333E3BF0000000000000FB0107901411070040501600405405064090741402480A0340
1001
ACAD
1000
AcDbSavedByObjectVersion
1070
     0
  0
ACAD_PROXY_OBJECT
  5
31
102
{ACAD_REACTORS
330
2A
102
}
330
2A
100
AcDbProxyObject
 90
      499
 91
      501
 93
      500
310
424CD108121A5919195B90640502408333333333333E3BF0000000000000FB01079024090700405020000000000001110200405405064090740C02480A0340
1001
ACAD
1000
AcDbSavedByObjectVersion
1070
     0
  0
ACAD_PROXY_OBJECT
  5
30
102
{ACAD_REACTORS
330
2A
102
}
330
2A
100
AcDbProxyObject
 90
      499
 91
      501
 93
      436
310
42CCD915DA5C99599C985B595059028333333333333E3BF0000000000000FB0107901411070040501600405405064090741402480A0340
1001
ACAD
1000
AcDbSavedByObjectVersion
1070
     0
  0
ACAD_PROXY_OBJECT
  5
32
102
{ACAD_REACTORS
330
2A
102
}
330
2A
100
AcDbProxyObject
 90
      499
 91
      501
 93
      388
310
4150985CDA58D07406404333333333333E3BF0000000000000FB0107A41107004050150841D405064090741402480A0350
1001
ACAD
1000
AcDbSavedByObjectVersion
1070
     0
  0
ACAD_PROXY_OBJECT
  5
36
102
{ACAD_REACTORS
330
2A
102
}
330
2A
100
AcDbProxyObject
 90
      499
 91
      501
 93
      428
310
42109C9A59DA1D195B90C409028333333333333E3BF0000000000000FB010790141107004050150841D405064090741402480A029950
1001
ACAD
1000
AcDbSavedByObjectVersion
1070
     0
  0
ACAD_PROXY_OBJECT
  5
3A
102
{ACAD_REACTORS
330
2A
102
}
330
2A
100
AcDbProxyObject
 90
      499
 91
      501
 93
      452
310
42D0DBDB1BDC90DA185B99D95104090240C333333333333E3BF0000000000000FB0108901411070040501508421405064090741402480A0350
1001
ACAD
1000
AcDbSavedByObjectVersion
1070
     0
  0
ACAD_PROXY_OBJECT
  5
34
102
{ACAD_REACTORS
330
2A
102
}
330
2A
100
AcDbProxyObject
 90
      499
 91
      501
 93
      500
310
4290DBDB98D95C1D1D585B10940D028333333333333E3BF0000000000000FB0107902409070040501000000000000111010841D405064090740C02480A0340
1001
ACAD
1000
AcDbSavedByObjectVersion
1070
     0
  0
ACAD_PROXY_OBJECT
  5
35
102
{ACAD_REACTORS
330
2A
102
}
330
2A
100
AcDbProxyObject
 90
      499
 91
      501
 93
      412
310
40D11A5B50B409028333333333333E3BF0000000000000FB010790141107004050150841D405064090741402480A02677FFFFFD0
1001
ACAD
1000
AcDbSavedByObjectVersion
1070
     0
  0
ACAD_PROXY_OBJECT
  5
39
102
{ACAD_REACTORS
330
2A
102
}
330
2A
100
AcDbProxyObject
 90
      499
 91
      501
 93
      444
310
42D19858D95C185D1D195C9B90F409028333333333333E3BF0000000000000FB010790141107004050150841D405064090741402480A0350
1001
ACAD
1000
AcDbSavedByObjectVersion
1070
     0
  0
ACAD_PROXY_OBJECT
  5
2B
102
{ACAD_REACTORS
330
2A
102
}
330
2A
100
AcDbProxyObject
 90
      499
 91
      501
 93
      388
310
41119B185D240901404333333333333E3BF0000000000000F9010740A41107004050150841D405064090741402480A1B50
1001
ACAD
1000
AcDbSavedByObjectVersion
1070
     0
  0
ACAD_PROXY_OBJECT
  5
2C
102
{ACAD_REACTORS
330
2A
102
}
330
2A
100
AcDbProxyObject
 90
      499
 91
      501
 93
      476
310
43519B185D15DA5D1A115919D95CD0140901404333333333333E3BF0000000000000F9010740901411070040501600405405064090741402480A1B50
1001
ACAD
1000
AcDbSavedByObjectVersion
1070
     0
  0
ACAD_PROXY_OBJECT
  5
2D
102
{ACAD_REACTORS
330
2A
102
}
330
2A
100
AcDbProxyObject
 90
      499
 91
      501
 93
      412
310
41D1DBDD5C985D5910240902404333333333333E3BF0000000000000F9010740A411070040501641D405064090741402480A1B50
1001
ACAD
1000
AcDbSavedByObjectVersion
1070
     0
  0
ACAD_PROXY_OBJECT
  5
2E
102
{ACAD_REACTORS
330
2A
102
}
330
2A
100
AcDbProxyObject
 90
      499
 91
      501
 93
      500
310
4411DBDD5C985D5915DA5D1A115919D95CD0340902404333333333333E3BF0000000000000F9010740901411070040501600405405064090741402480A1B50
1001
ACAD
1000
AcDbSavedByObjectVersion
1070
     0
  0
ACAD_PROXY_OBJECT
  5
38
102
{ACAD_REACTORS
330
2A
102
}
330
2A
100
AcDbProxyObject
 90
      499
 91
      501
 93
      444
310
42D31A5B995C185D1D195C9B90E409028333333333333E3BF0000000000000FB010790141107004050750841D405064090741402483A0350
1001
ACAD
1000
AcDbSavedByObjectVersion
1070
     0
  0
ACAD_PROXY_OBJECT
  5
33
102
{ACAD_REACTORS
330
2A
102
}
330
2A
100
AcDbProxyObject
 90
      499
 91
      501
 93
      420
310
425499585B1A5CDD1A58D08409028333333333333E3BF0000000000000FB01079019070040501508421405064090741402480A1B40
1001
ACAD
1000
AcDbSavedByObjectVersion
1070
     0
  0
ACAD_PROXY_OBJECT
  5
37
102
{ACAD_REACTORS
330
2A
102
}
330
2A
100
AcDbProxyObject
 90
      499
 91
      501
 93
      412
310
41D51A1A58DAD95B90D409028333333333333E3BF0000000000000FB010790141107004050150C41D405064090741402480A0350
1001
ACAD
1000
AcDbSavedByObjectVersion
1070
     0
  0
XRECORD
  5
8F
102
{ACAD_REACTORS
330
86
102
}
330
86
100
AcDbXrecord
 90
        0
  0
XRECORD
  5
A5
102
{ACAD_REACTORS
330
86
102
}
330
86
100
AcDbXrecord
1000
DSTYLE
1002
{
1070
   340
340
11
1002
}
  0
XRECORD
  5
90
102
{ACAD_REACTORS
330
86
102
}
330
86
100
AcDbXrecord
  1
{DF7012E3-2667-4EE3-9354-54E172E8108C}
  0
XRECORD
  5
89
102
{ACAD_REACTORS
330
86
102
}
330
86
100
AcDbXrecord
  1

  0
XRECORD
  5
8E
102
{ACAD_REACTORS
330
86
102
}
330
86
100
AcDbXrecord
 90
        4
  0
XRECORD
  5
8B
102
{ACAD_REACTORS
330
86
102
}
330
86
100
AcDbXrecord
340
1A
  0
XRECORD
  5
8D
102
{ACAD_REACTORS
330
86
102
}
330
86
100
AcDbXrecord
 90
    10781
  0
XRECORD
  5
8C
102
{ACAD_REACTORS
330
86
102
}
330
86
100
AcDbXrecord
340
19
  0
XRECORD
  5
92
102
{ACAD_REACTORS
330
86
102
}
330
86
100
AcDbXrecord
 40
0.0
  0
XRECORD
  5
95
102
{ACAD_REACTORS
330
86
102
}
330
86
100
AcDbXrecord
340
0
  0
XRECORD
  5
9B
102
{ACAD_REACTORS
330
86
102
}
330
86
100
AcDbXrecord
 10
0.0
 20
0.0
 30
0.0
  0
XRECORD
  5
97
102
{ACAD_REACTORS
330
86
102
}
330
86
100
AcDbXrecord
 10
0.0
 20
0.0
 30
0.0
  0
XRECORD
  5
9A
102
{ACAD_REACTORS
330
86
102
}
330
86
100
AcDbXrecord
 10
0.0
 20
0.0
 30
0.0
  0
XRECORD
  5
98
102
{ACAD_REACTORS
330
86
102
}
330
86
100
AcDbXrecord
 10
0.0
 20
0.0
 30
0.0
  0
XRECORD
  5
99
102
{ACAD_REACTORS
330
86
102
}
330
86
100
AcDbXrecord
 10
0.0
 20
0.0
 30
0.0
  0
XRECORD
  5
96
102
{ACAD_REACTORS
330
86
102
}
330
86
100
AcDbXrecord
 10
0.0
 20
0.0
 30
0.0
  0
XRECORD
  5
93
102
{ACAD_REACTORS
330
86
102
}
330
86
100
AcDbXrecord
340
0
  0
XRECORD
  5
94
102
{ACAD_REACTORS
330
86
102
}
330
86
100
AcDbXrecord
 70
     0
  0
XRECORD
  5
8A
102
{ACAD_REACTORS
330
86
102
}
330
86
100
AcDbXrecord
  1

  0
XRECORD
  5
87
102
{ACAD_REACTORS
330
86
102
}
330
86
100
AcDbXrecord
 90
        1
  0
XRECORD
  5
88
102
{ACAD_REACTORS
330
86
102
}
330
86
100
AcDbXrecord
 90
       70
  0
XRECORD
  5
9E
102
{ACAD_REACTORS
330
86
102
}
330
86
100
AcDbXrecord
340
0
  0
XRECORD
  5
A4
102
{ACAD_REACTORS
330
86
102
}
330
86
100
AcDbXrecord
 10
0.0
 20
0.0
 30
0.0
  0
XRECORD
  5
A0
102
{ACAD_REACTORS
330
86
102
}
330
86
100
AcDbXrecord
 10
0.0
 20
0.0
 30
0.0
  0
XRECORD
  5
A3
102
{ACAD_REACTORS
330
86
102
}
330
86
100
AcDbXrecord
 10
0.0
 20
0.0
 30
0.0
  0
XRECORD
  5
A1
102
{ACAD_REACTORS
330
86
102
}
330
86
100
AcDbXrecord
 10
0.0
 20
0.0
 30
0.0
  0
XRECORD
  5
A2
102
{ACAD_REACTORS
330
86
102
}
330
86
100
AcDbXrecord
 10
0.0
 20
0.0
 30
0.0
  0
XRECORD
  5
9F
102
{ACAD_REACTORS
330
86
102
}
330
86
100
AcDbXrecord
 10
0.0
 20
0.0
 30
0.0
  0
XRECORD
  5
9C
102
{ACAD_REACTORS
330
86
102
}
330
86
100
AcDbXrecord
340
0
  0
XRECORD
  5
9D
102
{ACAD_REACTORS
330
86
102
}
330
86
100
AcDbXrecord
 70
     0
  0
XRECORD
  5
91
102
{ACAD_REACTORS
330
86
102
}
330
86
100
AcDbXrecord
  1
{FAEB1C32-E019-11D5-929B-00C0DF256EC4}
  0
DICTIONARYVAR
  5
A9
102
{ACAD_REACTORS
330
A6
102
}
330
A6
100
DictionaryVariables
280
     0
  1
2
  0
DICTIONARYVAR
  5
AA
102
{ACAD_REACTORS
330
A6
102
}
330
A6
100
DictionaryVariables
280
     0
  1
1
  0
DICTIONARY
  5
AD
330
3D
100
AcDbDictionary
280
     1
  3
ACAD_XREC_ROUNDTRIP
360
AE
  0
DICTIONARY
  5
AB
330
3C
100
AcDbDictionary
280
     1
  3
ACAD_XREC_ROUNDTRIP
360
AC
  0
DICTIONARY
  5
AF
330
3E
100
AcDbDictionary
280
     1
  3
ACAD_XREC_ROUNDTRIP
360
B0
  0
XRECORD
  5
AE
102
{ACAD_REACTORS
330
AD
102
}
330
AD
100
AcDbXrecord
102
MATERIAL
148
0.0
149
0.0
149
0.0
 93
        0
 94
      127
282
     0
 72
     1
 77
     1
171
     1
175
     1
179
     1
273
     0
  0
XRECORD
  5
AC
102
{ACAD_REACTORS
330
AB
102
}
330
AB
100
AcDbXrecord
102
MATERIAL
148
0.0
149
0.0
149
0.0
 93
        0
 94
      127
282
     0
 72
     1
 77
     1
171
     1
175
     1
179
     1
273
     0
  0
XRECORD
  5
B0
102
{ACAD_REACTORS
330
AF
102
}
330
AF
100
AcDbXrecord
102
MATERIAL
148
0.0
149
0.0
149
0.0
 93
        0
 94
      127
282
     0
 72
     1
 77
     1
171
     1
175
     1
179
     1
273
     0
  0
ENDSEC
  0
EOF
