  0
SECTION
  2
HEADER
  9
$ACADVER
  1
AC1014
  9
$ACADMAINTVER
 70
     9
  9
$DWGCODEPAGE
  3
ANSI_1250
  9
$INSBASE
 10
0.0
 20
0.0
 30
0.0
  9
$EXTMIN
 10
-13.8485
 20
-37.7961
 30
0.0
  9
$EXTMAX
 10
13.8485
 20
37.725
 30
0.0
  9
$LIMMIN
 10
0.0
 20
0.0
  9
$LIMMAX
 10
12.0
 20
9.0
  9
$ORTHOMODE
 70
     0
  9
$REGENMODE
 70
     1
  9
$FILLMODE
 70
     1
  9
$QTEXTMODE
 70
     0
  9
$MIRRTEXT
 70
     1
  9
$DRAGMODE
 70
     2
  9
$LTSCALE
 40
1.0
  9
$OSMODE
 70
    37
  9
$ATTMODE
 70
     1
  9
$TEXTSIZE
 40
0.2
  9
$TRACEWID
 40
0.05
  9
$TEXTSTYLE
  7
STANDARD
  9
$CLAYER
  8
0
  9
$CELTYPE
  6
BYLAYER
  9
$CECOLOR
 62
   256
  9
$CELTSCALE
 40
1.0
  9
$DELOBJ
 70
     1
  9
$DISPSILH
 70
     0
  9
$DIMSCALE
 40
1.0
  9
$DIMASZ
 40
0.18
  9
$DIMEXO
 40
0.0625
  9
$DIMDLI
 40
0.38
  9
$DIMRND
 40
0.0
  9
$DIMDLE
 40
0.0
  9
$DIMEXE
 40
0.18
  9
$DIMTP
 40
0.0
  9
$DIMTM
 40
0.0
  9
$DIMTXT
 40
0.18
  9
$DIMCEN
 40
0.09
  9
$DIMTSZ
 40
0.0
  9
$DIMTOL
 70
     0
  9
$DIMLIM
 70
     0
  9
$DIMTIH
 70
     1
  9
$DIMTOH
 70
     1
  9
$DIMSE1
 70
     0
  9
$DIMSE2
 70
     0
  9
$DIMTAD
 70
     0
  9
$DIMZIN
 70
     0
  9
$DIMBLK
  1

  9
$DIMASO
 70
     1
  9
$DIMSHO
 70
     1
  9
$DIMPOST
  1

  9
$DIMAPOST
  1

  9
$DIMALT
 70
     0
  9
$DIMALTD
 70
     2
  9
$DIMALTF
 40
25.4
  9
$DIMLFAC
 40
1.0
  9
$DIMTOFL
 70
     0
  9
$DIMTVP
 40
0.0
  9
$DIMTIX
 70
     0
  9
$DIMSOXD
 70
     0
  9
$DIMSAH
 70
     0
  9
$DIMBLK1
  1

  9
$DIMBLK2
  1

  9
$DIMSTYLE
  2
STANDARD
  9
$DIMCLRD
 70
     0
  9
$DIMCLRE
 70
     0
  9
$DIMCLRT
 70
     0
  9
$DIMTFAC
 40
1.0
  9
$DIMGAP
 40
0.09
  9
$DIMJUST
 70
     0
  9
$DIMSD1
 70
     0
  9
$DIMSD2
 70
     0
  9
$DIMTOLJ
 70
     1
  9
$DIMTZIN
 70
     0
  9
$DIMALTZ
 70
     0
  9
$DIMALTTZ
 70
     0
  9
$DIMFIT
 70
     3
  9
$DIMUPT
 70
     0
  9
$DIMUNIT
 70
     2
  9
$DIMDEC
 70
     4
  9
$DIMTDEC
 70
     4
  9
$DIMALTU
 70
     2
  9
$DIMALTTD
 70
     2
  9
$DIMTXSTY
  7
STANDARD
  9
$DIMAUNIT
 70
     0
  9
$LUNITS
 70
     2
  9
$LUPREC
 70
     4
  9
$SKETCHINC
 40
0.1
  9
$FILLETRAD
 40
0.5
  9
$AUNITS
 70
     0
  9
$AUPREC
 70
     0
  9
$MENU
  1
.
  9
$ELEVATION
 40
0.0
  9
$PELEVATION
 40
0.0
  9
$THICKNESS
 40
0.0
  9
$LIMCHECK
 70
     0
  9
$CHAMFERA
 40
0.5
  9
$CHAMFERB
 40
0.5
  9
$CHAMFERC
 40
1.0
  9
$CHAMFERD
 40
0.0
  9
$SKPOLY
 70
     0
  9
$TDCREATE
 40
2456223.343629653
  9
$TDUPDATE
 40
2456223.343629664
  9
$TDINDWG
 40
0.0000000116
  9
$TDUSRTIMER
 40
0.0000000116
  9
$USRTIMER
 70
     1
  9
$ANGBASE
 50
0.0
  9
$ANGDIR
 70
     0
  9
$PDMODE
 70
     0
  9
$PDSIZE
 40
0.0
  9
$PLINEWID
 40
0.0
  9
$COORDS
 70
     1
  9
$SPLFRAME
 70
     0
  9
$SPLINETYPE
 70
     6
  9
$SPLINESEGS
 70
     8
  9
$ATTDIA
 70
     0
  9
$ATTREQ
 70
     1
  9
$HANDLING
 70
     1
  9
$HANDSEED
  5
144
  9
$SURFTAB1
 70
     6
  9
$SURFTAB2
 70
     6
  9
$SURFTYPE
 70
     6
  9
$SURFU
 70
     6
  9
$SURFV
 70
     6
  9
$UCSNAME
  2

  9
$UCSORG
 10
0.0
 20
0.0
 30
0.0
  9
$UCSXDIR
 10
1.0
 20
0.0
 30
0.0
  9
$UCSYDIR
 10
0.0
 20
1.0
 30
0.0
  9
$PUCSNAME
  2

  9
$PUCSORG
 10
0.0
 20
0.0
 30
0.0
  9
$PUCSXDIR
 10
1.0
 20
0.0
 30
0.0
  9
$PUCSYDIR
 10
0.0
 20
1.0
 30
0.0
  9
$USERI1
 70
     0
  9
$USERI2
 70
     0
  9
$USERI3
 70
     0
  9
$USERI4
 70
     0
  9
$USERI5
 70
     0
  9
$USERR1
 40
0.0
  9
$USERR2
 40
0.0
  9
$USERR3
 40
0.0
  9
$USERR4
 40
0.0
  9
$USERR5
 40
0.0
  9
$WORLDVIEW
 70
     1
  9
$SHADEDGE
 70
     3
  9
$SHADEDIF
 70
    70
  9
$TILEMODE
 70
     1
  9
$MAXACTVP
 70
    64
  9
$PINSBASE
 10
0.0
 20
0.0
 30
0.0
  9
$PLIMCHECK
 70
     0
  9
$PEXTMIN
 10
1.000000000000000E+20
 20
1.000000000000000E+20
 30
1.000000000000000E+20
  9
$PEXTMAX
 10
-1.000000000000000E+20
 20
-1.000000000000000E+20
 30
-1.000000000000000E+20
  9
$PLIMMIN
 10
0.0
 20
0.0
  9
$PLIMMAX
 10
12.0
 20
9.0
  9
$UNITMODE
 70
     0
  9
$VISRETAIN
 70
     1
  9
$PLINEGEN
 70
     0
  9
$PSLTSCALE
 70
     1
  9
$TREEDEPTH
 70
  3020
  9
$PICKSTYLE
 70
     1
  9
$CMLSTYLE
  2
STANDARD
  9
$CMLJUST
 70
     0
  9
$CMLSCALE
 40
1.0
  9
$PROXYGRAPHICS
 70
     1
  9
$MEASUREMENT
 70
     0
  0
ENDSEC
  0
SECTION
  2
CLASSES
  0
CLASS
  1
ACDBDICTIONARYWDFLT
  2
AcDbDictionaryWithDefault
  3
ObjectDBX Classes
 90
        0
280
     0
281
     0
  0
CLASS
  1
VISUALSTYLE
  2
AcDbVisualStyle
  3
ObjectDBX Classes
 90
     4095
280
     0
281
     0
  0
CLASS
  1
MATERIAL
  2
AcDbMaterial
  3
ObjectDBX Classes
 90
     1153
280
     0
281
     0
  0
CLASS
  1
DICTIONARYVAR
  2
AcDbDictionaryVar
  3
ObjectDBX Classes
 90
        0
280
     0
281
     0
  0
CLASS
  1
XRECORD
  2
AcDbXrecord
  3
AutoCAD 2000
 90
        0
280
     0
281
     0
  0
CLASS
  1
LWPOLYLINE
  2
AcDbPolyline
  3
AutoCAD 2000
 90
        0
280
     0
281
     1
  0
CLASS
  1
HATCH
  2
AcDbHatch
  3
AutoCAD 2000
 90
        0
280
     0
281
     1
  0
CLASS
  1
ACDBPLACEHOLDER
  2
AcDbPlaceHolder
  3
ObjectDBX Classes
 90
        0
280
     0
281
     0
  0
CLASS
  1
LAYOUT
  2
AcDbLayout
  3
ObjectDBX Classes
 90
        0
280
     0
281
     0
  0
ENDSEC
  0
SECTION
  2
TABLES
  0
TABLE
  2
VPORT
  5
8
330
0
100
AcDbSymbolTable
 70
     1
  0
VPORT
  5
29
330
8
100
AcDbSymbolTableRecord
100
AcDbViewportTableRecord
  2
*ACTIVE
 70
     0
 10
0.0
 20
0.0
 11
1.0
 21
1.0
 12
10.42990654205607
 22
4.5
 13
0.0
 23
0.0
 14
0.5
 24
0.5
 15
0.5
 25
0.5
 16
0.0
 26
0.0
 36
1.0
 17
0.0
 27
0.0
 37
0.0
 40
9.0
 41
1.972972972850329
 42
50.0
 43
0.0
 44
0.0
 50
0.0
 51
0.0
 71
     0
 72
   100
 73
     1
 74
     3
 75
     0
 76
     0
 77
     0
 78
     0
  0
ENDTAB
  0
TABLE
  2
LTYPE
  5
5
330
0
100
AcDbSymbolTable
 70
     2
  0
LTYPE
  5
14
330
5
100
AcDbSymbolTableRecord
100
AcDbLinetypeTableRecord
  2
BYBLOCK
 70
     0
  3

 72
    65
 73
     0
 40
0.0
  0
LTYPE
  5
15
330
5
100
AcDbSymbolTableRecord
100
AcDbLinetypeTableRecord
  2
BYLAYER
 70
     0
  3

 72
    65
 73
     0
 40
0.0
  0
LTYPE
  5
16
330
5
100
AcDbSymbolTableRecord
100
AcDbLinetypeTableRecord
  2
CONTINUOUS
 70
     0
  3
Solid line
 72
    65
 73
     0
 40
0.0
  0
LTYPE
  5
52
330
5
100
AcDbSymbolTableRecord
100
AcDbLinetypeTableRecord
  2
NEW_LINE1
 70
     0
  3

 72
    65
 73
     4
 40
1.2
 49
0.5
 74
     4
 75
     0
340
0
 46
1.0
 50
0.0
 44
0.0
 45
0.0
 49
-0.3
 74
     4
 75
     0
340
0
 46
1.0
 50
0.0
 44
0.0
 45
0.0
 49
0.1
 74
     4
 75
     0
340
0
 46
1.0
 50
0.0
 44
0.0
 45
0.0
 49
-0.3
 74
     4
 75
     0
340
0
 46
1.0
 50
0.0
 44
0.0
 45
0.0
  0
ENDTAB
  0
TABLE
  2
LAYER
  5
2
330
0
100
AcDbSymbolTable
 70
     2
  0
LAYER
  5
10
330
2
100
AcDbSymbolTableRecord
100
AcDbLayerTableRecord
  2
0
 70
     0
 62
     7
  6
CONTINUOUS
  0
LAYER
  5
40
330
2
100
AcDbSymbolTableRecord
100
AcDbLayerTableRecord
  2
VRSTVA_1
 70
     0
 62
     7
  6
CONTINUOUS
  0
ENDTAB
  0
TABLE
  2
STYLE
  5
3
330
0
100
AcDbSymbolTable
 70
     1
  0
STYLE
  5
11
330
3
100
AcDbSymbolTableRecord
100
AcDbTextStyleTableRecord
  2
STANDARD
 70
     0
 40
0.0
 41
1.0
 50
0.0
 71
     0
 42
0.2
  3
txt
  4

  0
ENDTAB
  0
TABLE
  2
VIEW
  5
6
330
0
100
AcDbSymbolTable
 70
     0
  0
ENDTAB
  0
TABLE
  2
UCS
  5
7
330
0
100
AcDbSymbolTable
 70
     0
  0
ENDTAB
  0
TABLE
  2
APPID
  5
9
330
0
100
AcDbSymbolTable
 70
     2
  0
APPID
  5
12
330
9
100
AcDbSymbolTableRecord
100
AcDbRegAppTableRecord
  2
ACAD
 70
     0
  0
APPID
  5
3F
330
9
100
AcDbSymbolTableRecord
100
AcDbRegAppTableRecord
  2
ODA
 70
     0
  0
ENDTAB
  0
TABLE
  2
DIMSTYLE
  5
A
330
0
100
AcDbSymbolTable
 70
     1
  0
DIMSTYLE
105
27
330
A
100
AcDbSymbolTableRecord
100
AcDbDimStyleTableRecord
  2
STANDARD
 70
     0
  3

  4

  5

  6

  7

 40
1.0
 41
0.18
 42
0.0625
 43
0.38
 44
0.18
 45
0.0
 46
0.0
 47
0.0
 48
0.0
140
0.18
141
0.09
142
0.0
143
25.4
144
1.0
145
0.0
146
1.0
147
0.09
 71
     0
 72
     0
 73
     1
 74
     1
 75
     0
 76
     0
 77
     0
 78
     0
170
     0
171
     2
172
     0
173
     0
174
     0
175
     0
176
     0
177
     0
178
     0
270
     2
271
     4
272
     4
273
     2
274
     2
340
11
275
     0
280
     0
281
     0
282
     0
283
     1
284
     0
285
     0
286
     0
287
     3
288
     0
  0
ENDTAB
  0
TABLE
  2
BLOCK_RECORD
  5
1
330
0
100
AcDbSymbolTable
 70
     1
  0
BLOCK_RECORD
  5
1F
330
1
100
AcDbSymbolTableRecord
100
AcDbBlockTableRecord
  2
*MODEL_SPACE
  0
BLOCK_RECORD
  5
1B
330
1
100
AcDbSymbolTableRecord
100
AcDbBlockTableRecord
  2
*PAPER_SPACE
  0
ENDTAB
  0
ENDSEC
  0
SECTION
  2
BLOCKS
  0
BLOCK
  5
20
330
1F
100
AcDbEntity
  8
0
100
AcDbBlockBegin
  2
*MODEL_SPACE
 70
     0
 10
0.0
 20
0.0
 30
0.0
  3
*MODEL_SPACE
  1

  0
ENDBLK
  5
21
330
1F
100
AcDbEntity
  8
0
100
AcDbBlockEnd
  0
BLOCK
  5
1C
330
1B
100
AcDbEntity
 67
     1
  8
0
100
AcDbBlockBegin
  2
*PAPER_SPACE
 70
     0
 10
0.0
 20
0.0
 30
0.0
  3
*PAPER_SPACE
  1

  0
ENDBLK
  5
1D
330
1B
100
AcDbEntity
 67
     1
  8
0
100
AcDbBlockEnd
  0
ENDSEC
  0
SECTION
  2
ENTITIES
  0
SPLINE
  5
41
330
1F
100
AcDbEntity
  8
VRSTVA_1
100
AcDbSpline
210
0.0
220
0.0
230
1.0
 70
    24
 71
     3
 72
     8
 73
     4
 74
     0
 42
0.0000000001
 43
0.0000000001
 40
0.0
 40
0.0
 40
0.0
 40
0.0
 40
1.0
 40
1.0
 40
1.0
 40
1.0
 10
1.7996
 20
8.9655
 30
0.0
 10
1.7996
 20
8.9655
 30
0.0
 10
-5.9161
 20
8.9655
 30
0.0
 10
-5.9161
 20
8.9655
 30
0.0
  0
SPLINE
  5
42
330
1F
100
AcDbEntity
  8
VRSTVA_1
100
AcDbSpline
210
0.0
220
0.0
230
1.0
 70
    24
 71
     3
 72
     8
 73
     4
 74
     0
 42
0.0000000001
 43
0.0000000001
 40
0.0
 40
0.0
 40
0.0
 40
0.0
 40
1.0
 40
1.0
 40
1.0
 40
1.0
 10
-2.1558
 20
-27.3018
 30
0.0
 10
-2.1558
 20
-27.3018
 30
0.0
 10
-10.2578
 20
-27.3018
 30
0.0
 10
-10.2578
 20
-27.3018
 30
0.0
  0
SPLINE
  5
43
330
1F
100
AcDbEntity
  8
VRSTVA_1
100
AcDbSpline
210
0.0
220
0.0
230
1.0
 70
    24
 71
     3
 72
     8
 73
     4
 74
     0
 42
0.0000000001
 43
0.0000000001
 40
0.0
 40
0.0
 40
0.0
 40
0.0
 40
1.0
 40
1.0
 40
1.0
 40
1.0
 10
-5.3214
 20
8.7804
 30
0.0
 10
-5.3214
 20
8.7804
 30
0.0
 10
-5.3214
 20
-27.3145
 30
0.0
 10
-5.3214
 20
-27.3145
 30
0.0
  0
SPLINE
  5
44
330
1F
100
AcDbEntity
  8
VRSTVA_1
100
AcDbSpline
210
0.0
220
0.0
230
1.0
 70
    24
 71
     3
 72
     8
 73
     4
 74
     0
 42
0.0000000001
 43
0.0000000001
 40
0.0
 40
0.0
 40
0.0
 40
0.0
 40
1.0
 40
1.0
 40
1.0
 40
1.0
 10
1.1716
 20
28.0192
 30
0.0
 10
1.1716
 20
28.0192
 30
0.0
 10
-9.9922
 20
28.0192
 30
0.0
 10
-9.9922
 20
28.0192
 30
0.0
  0
SPLINE
  5
45
330
1F
100
AcDbEntity
  8
VRSTVA_1
 62
   250
100
AcDbSpline
210
0.0
220
0.0
230
1.0
 70
    11
 71
     3
 72
    16
 73
    12
 74
     0
 42
0.0000000001
 43
0.0000000001
 40
0.0
 40
0.0
 40
0.0
 40
0.0
 40
0.25
 40
0.25
 40
0.25
 40
0.25
 40
0.5
 40
0.5
 40
0.5
 40
0.5
 40
1.0
 40
1.0
 40
1.0
 40
1.0
 10
-4.8579
 20
-24.1084
 30
0.0
 10
-4.8579
 20
-24.1084
 30
0.0
 10
-5.7952
 20
-24.1084
 30
0.0
 10
-5.7952
 20
-24.1084
 30
0.0
 10
-5.7952
 20
-24.1084
 30
0.0
 10
-5.7952
 20
-24.1084
 30
0.0
 10
-5.3265
 20
-27.1082
 30
0.0
 10
-5.3265
 20
-27.1082
 30
0.0
 10
-5.3265
 20
-27.1082
 30
0.0
 10
-5.3265
 20
-27.1082
 30
0.0
 10
-4.8579
 20
-24.1084
 30
0.0
 10
-4.8579
 20
-24.1084
 30
0.0
  0
SPLINE
  5
46
330
1F
100
AcDbEntity
  8
VRSTVA_1
 62
   250
100
AcDbSpline
210
0.0
220
0.0
230
1.0
 70
    11
 71
     3
 72
    16
 73
    12
 74
     0
 42
0.0000000001
 43
0.0000000001
 40
0.0
 40
0.0
 40
0.0
 40
0.0
 40
0.25
 40
0.25
 40
0.25
 40
0.25
 40
0.5
 40
0.5
 40
0.5
 40
0.5
 40
1.0
 40
1.0
 40
1.0
 40
1.0
 10
-5.8231
 20
5.9477
 30
0.0
 10
-5.8231
 20
5.9477
 30
0.0
 10
-4.8857
 20
5.9477
 30
0.0
 10
-4.8857
 20
5.9477
 30
0.0
 10
-4.8857
 20
5.9477
 30
0.0
 10
-4.8857
 20
5.9477
 30
0.0
 10
-5.3544
 20
8.9481
 30
0.0
 10
-5.3544
 20
8.9481
 30
0.0
 10
-5.3544
 20
8.9481
 30
0.0
 10
-5.3544
 20
8.9481
 30
0.0
 10
-5.8231
 20
5.9477
 30
0.0
 10
-5.8231
 20
5.9477
 30
0.0
  0
SPLINE
  5
47
330
1F
100
AcDbEntity
  8
VRSTVA_1
 62
   250
100
AcDbSpline
210
0.0
220
0.0
230
1.0
 70
    11
 71
     3
 72
    40
 73
    36
 74
     0
 42
0.0000000001
 43
0.0000000001
 40
0.0
 40
0.0
 40
0.0
 40
0.0
 40
0.1
 40
0.1
 40
0.1
 40
0.1
 40
0.2
 40
0.2
 40
0.2
 40
0.2
 40
0.3
 40
0.3
 40
0.3
 40
0.3
 40
0.4
 40
0.4
 40
0.4
 40
0.4
 40
0.5
 40
0.5
 40
0.5
 40
0.5
 40
0.6
 40
0.6
 40
0.6
 40
0.6
 40
0.7
 40
0.7
 40
0.7
 40
0.7
 40
0.8
 40
0.8
 40
0.8
 40
0.8
 40
1.0
 40
1.0
 40
1.0
 40
1.0
 10
-6.0229
 20
-12.7679
 30
0.0
 10
-6.0229
 20
-12.7679
 30
0.0
 10
-6.0229
 20
-13.0158
 30
0.0
 10
-6.0229
 20
-13.0158
 30
0.0
 10
-6.0229
 20
-13.0158
 30
0.0
 10
-6.0229
 20
-13.0158
 30
0.0
 10
-7.6033
 20
-13.0158
 30
0.0
 10
-7.6033
 20
-13.0158
 30
0.0
 10
-7.6033
 20
-13.0158
 30
0.0
 10
-7.5464
 20
-13.0756
 30
0.0
 10
-7.4895
 20
-13.1536
 30
0.0
 10
-7.4326
 20
-13.2505
 30
0.0
 10
-7.4326
 20
-13.2505
 30
0.0
 10
-7.3757
 20
-13.3479
 30
0.0
 10
-7.3329
 20
-13.4349
 30
0.0
 10
-7.3046
 20
-13.5121
 30
0.0
 10
-7.3046
 20
-13.5121
 30
0.0
 10
-7.3046
 20
-13.5121
 30
0.0
 10
-7.5441
 20
-13.5121
 30
0.0
 10
-7.5441
 20
-13.5121
 30
0.0
 10
-7.5441
 20
-13.5121
 30
0.0
 10
-7.6094
 20
-13.3733
 30
0.0
 10
-7.6885
 20
-13.2519
 30
0.0
 10
-7.7811
 20
-13.148
 30
0.0
 10
-7.7811
 20
-13.148
 30
0.0
 10
-7.8743
 20
-13.0445
 30
0.0
 10
-7.9641
 20
-12.9707
 30
0.0
 10
-8.0516
 20
-12.9274
 30
0.0
 10
-8.0516
 20
-12.9274
 30
0.0
 10
-8.0516
 20
-12.9274
 30
0.0
 10
-8.0516
 20
-12.7679
 30
0.0
 10
-8.0516
 20
-12.7679
 30
0.0
 10
-8.0516
 20
-12.7679
 30
0.0
 10
-8.0516
 20
-12.7679
 30
0.0
 10
-6.0229
 20
-12.7679
 30
0.0
 10
-6.0229
 20
-12.7679
 30
0.0
  0
SPLINE
  5
48
330
1F
100
AcDbEntity
  8
VRSTVA_1
 62
   250
100
AcDbSpline
210
0.0
220
0.0
230
1.0
 70
    11
 71
     3
 72
    68
 73
    64
 74
     0
 42
0.0000000001
 43
0.0000000001
 40
0.0
 40
0.0
 40
0.0
 40
0.0
 40
0.0588235294117647
 40
0.0588235294117647
 40
0.0588235294117647
 40
0.0588235294117647
 40
0.1176470588235294
 40
0.1176470588235294
 40
0.1176470588235294
 40
0.1176470588235294
 40
0.1764705882352941
 40
0.1764705882352941
 40
0.1764705882352941
 40
0.1764705882352941
 40
0.2352941176470588
 40
0.2352941176470588
 40
0.2352941176470588
 40
0.2352941176470588
 40
0.2941176470588235
 40
0.2941176470588235
 40
0.2941176470588235
 40
0.2941176470588235
 40
0.3529411764705883
 40
0.3529411764705883
 40
0.3529411764705883
 40
0.3529411764705883
 40
0.4117647058823529
 40
0.4117647058823529
 40
0.4117647058823529
 40
0.4117647058823529
 40
0.4705882352941176
 40
0.4705882352941176
 40
0.4705882352941176
 40
0.4705882352941176
 40
0.5294117647058824
 40
0.5294117647058824
 40
0.5294117647058824
 40
0.5294117647058824
 40
0.5882352941176471
 40
0.5882352941176471
 40
0.5882352941176471
 40
0.5882352941176471
 40
0.6470588235294118
 40
0.6470588235294118
 40
0.6470588235294118
 40
0.6470588235294118
 40
0.7058823529411765
 40
0.7058823529411765
 40
0.7058823529411765
 40
0.7058823529411765
 40
0.7647058823529411
 40
0.7647058823529411
 40
0.7647058823529411
 40
0.7647058823529411
 40
0.8235294117647058
 40
0.8235294117647058
 40
0.8235294117647058
 40
0.8235294117647058
 40
0.8823529411764706
 40
0.8823529411764706
 40
0.8823529411764706
 40
0.8823529411764706
 40
1.0
 40
1.0
 40
1.0
 40
1.0
 10
-7.1184
 20
-11.7505
 30
0.0
 10
-7.156
 20
-11.8536
 30
0.0
 10
-7.2096
 20
-11.9298
 30
0.0
 10
-7.2797
 20
-11.9796
 30
0.0
 10
-7.2797
 20
-11.9796
 30
0.0
 10
-7.3493
 20
-12.029
 30
0.0
 10
-7.4331
 20
-12.0539
 30
0.0
 10
-7.5304
 20
-12.0539
 30
0.0
 10
-7.5304
 20
-12.0539
 30
0.0
 10
-7.6776
 20
-12.0539
 30
0.0
 10
-7.8009
 20
-12.0012
 30
0.0
 10
-7.9011
 20
-11.8954
 30
0.0
 10
-7.9011
 20
-11.8954
 30
0.0
 10
-8.0013
 20
-11.7896
 30
0.0
 10
-8.0516
 20
-11.6494
 30
0.0
 10
-8.0516
 20
-11.474
 30
0.0
 10
-8.0516
 20
-11.474
 30
0.0
 10
-8.0516
 20
-11.2976
 30
0.0
 10
-8.0003
 20
-11.1555
 30
0.0
 10
-7.8978
 20
-11.0478
 30
0.0
 10
-7.8978
 20
-11.0478
 30
0.0
 10
-7.7952
 20
-10.9406
 30
0.0
 10
-7.6706
 20
-10.8869
 30
0.0
 10
-7.5234
 20
-10.8869
 30
0.0
 10
-7.5234
 20
-10.8869
 30
0.0
 10
-7.4298
 20
-10.8869
 30
0.0
 10
-7.3484
 20
-10.9114
 30
0.0
 10
-7.2788
 20
-10.9603
 30
0.0
 10
-7.2788
 20
-10.9603
 30
0.0
 10
-7.2096
 20
-11.0097
 30
0.0
 10
-7.156
 20
-11.084
 30
0.0
 10
-7.1184
 20
-11.1842
 30
0.0
 10
-7.1184
 20
-11.1842
 30
0.0
 10
-7.0779
 20
-11.0605
 30
0.0
 10
-7.013
 20
-10.966
 30
0.0
 10
-6.9227
 20
-10.9011
 30
0.0
 10
-6.9227
 20
-10.9011
 30
0.0
 10
-6.8329
 20
-10.8366
 30
0.0
 10
-6.7252
 20
-10.8042
 30
0.0
 10
-6.6005
 20
-10.8042
 30
0.0
 10
-6.6005
 20
-10.8042
 30
0.0
 10
-6.4274
 20
-10.8042
 30
0.0
 10
-6.2825
 20
-10.8653
 30
0.0
 10
-6.165
 20
-10.9871
 30
0.0
 10
-6.165
 20
-10.9871
 30
0.0
 10
-6.0474
 20
-11.1094
 30
0.0
 10
-5.9886
 20
-11.2703
 30
0.0
 10
-5.9886
 20
-11.4697
 30
0.0
 10
-5.9886
 20
-11.4697
 30
0.0
 10
-5.9886
 20
-11.6692
 30
0.0
 10
-6.0474
 20
-11.8296
 30
0.0
 10
-6.1654
 20
-11.9519
 30
0.0
 10
-6.1654
 20
-11.9519
 30
0.0
 10
-6.2835
 20
-12.0742
 30
0.0
 10
-6.4307
 20
-12.1353
 30
0.0
 10
-6.6071
 20
-12.1353
 30
0.0
 10
-6.6071
 20
-12.1353
 30
0.0
 10
-6.7383
 20
-12.1353
 30
0.0
 10
-6.8484
 20
-12.1019
 30
0.0
 10
-6.9373
 20
-12.0351
 30
0.0
 10
-6.9373
 20
-12.0351
 30
0.0
 10
-7.0257
 20
-11.9688
 30
0.0
 10
-7.0864
 20
-11.8738
 30
0.0
 10
-7.1184
 20
-11.7505
 30
0.0
  0
SPLINE
  5
49
330
1F
100
AcDbEntity
  8
VRSTVA_1
 62
   250
100
AcDbSpline
210
0.0
220
0.0
230
1.0
 70
    11
 71
     3
 72
    36
 73
    32
 74
     0
 42
0.0000000001
 43
0.0000000001
 40
0.0
 40
0.0
 40
0.0
 40
0.0
 40
0.1111111111111111
 40
0.1111111111111111
 40
0.1111111111111111
 40
0.1111111111111111
 40
0.2222222222222222
 40
0.2222222222222222
 40
0.2222222222222222
 40
0.2222222222222222
 40
0.3333333333333333
 40
0.3333333333333333
 40
0.3333333333333333
 40
0.3333333333333333
 40
0.4444444444444444
 40
0.4444444444444444
 40
0.4444444444444444
 40
0.4444444444444444
 40
0.5555555555555556
 40
0.5555555555555556
 40
0.5555555555555556
 40
0.5555555555555556
 40
0.6666666666666666
 40
0.6666666666666666
 40
0.6666666666666666
 40
0.6666666666666666
 40
0.7777777777777778
 40
0.7777777777777778
 40
0.7777777777777778
 40
0.7777777777777778
 40
1.0
 40
1.0
 40
1.0
 40
1.0
 10
-7.5389
 20
-11.8004
 30
0.0
 10
-7.4434
 20
-11.8004
 30
0.0
 10
-7.3653
 20
-11.7694
 30
0.0
 10
-7.3046
 20
-11.7082
 30
0.0
 10
-7.3046
 20
-11.7082
 30
0.0
 10
-7.244
 20
-11.6466
 30
0.0
 10
-7.2134
 20
-11.5666
 30
0.0
 10
-7.2134
 20
-11.4683
 30
0.0
 10
-7.2134
 20
-11.4683
 30
0.0
 10
-7.2134
 20
-11.3728
 30
0.0
 10
-7.2435
 20
-11.2943
 30
0.0
 10
-7.3037
 20
-11.2331
 30
0.0
 10
-7.3037
 20
-11.2331
 30
0.0
 10
-7.3639
 20
-11.172
 30
0.0
 10
-7.4378
 20
-11.1419
 30
0.0
 10
-7.5248
 20
-11.1419
 30
0.0
 10
-7.5248
 20
-11.1419
 30
0.0
 10
-7.616
 20
-11.1419
 30
0.0
 10
-7.6922
 20
-11.1729
 30
0.0
 10
-7.7543
 20
-11.236
 30
0.0
 10
-7.7543
 20
-11.236
 30
0.0
 10
-7.8164
 20
-11.299
 30
0.0
 10
-7.8475
 20
-11.3771
 30
0.0
 10
-7.8475
 20
-11.4711
 30
0.0
 10
-7.8475
 20
-11.4711
 30
0.0
 10
-7.8475
 20
-11.5657
 30
0.0
 10
-7.8169
 20
-11.6442
 30
0.0
 10
-7.7567
 20
-11.7068
 30
0.0
 10
-7.7567
 20
-11.7068
 30
0.0
 10
-7.696
 20
-11.7694
 30
0.0
 10
-7.6231
 20
-11.8004
 30
0.0
 10
-7.5389
 20
-11.8004
 30
0.0
  0
SPLINE
  5
4A
330
1F
100
AcDbEntity
  8
VRSTVA_1
 62
   250
100
AcDbSpline
210
0.0
220
0.0
230
1.0
 70
    11
 71
     3
 72
    40
 73
    36
 74
     0
 42
0.0000000001
 43
0.0000000001
 40
0.0
 40
0.0
 40
0.0
 40
0.0
 40
0.1
 40
0.1
 40
0.1
 40
0.1
 40
0.2
 40
0.2
 40
0.2
 40
0.2
 40
0.3
 40
0.3
 40
0.3
 40
0.3
 40
0.4
 40
0.4
 40
0.4
 40
0.4
 40
0.5
 40
0.5
 40
0.5
 40
0.5
 40
0.6
 40
0.6
 40
0.6
 40
0.6
 40
0.7
 40
0.7
 40
0.7
 40
0.7
 40
0.8
 40
0.8
 40
0.8
 40
0.8
 40
1.0
 40
1.0
 40
1.0
 40
1.0
 10
-6.6057
 20
-11.8804
 30
0.0
 10
-6.5351
 20
-11.8804
 30
0.0
 10
-6.4665
 20
-11.8634
 30
0.0
 10
-6.4006
 20
-11.83
 30
0.0
 10
-6.4006
 20
-11.83
 30
0.0
 10
-6.3343
 20
-11.7966
 30
0.0
 10
-6.283
 20
-11.7468
 30
0.0
 10
-6.2468
 20
-11.6805
 30
0.0
 10
-6.2468
 20
-11.6805
 30
0.0
 10
-6.2106
 20
-11.6141
 30
0.0
 10
-6.1922
 20
-11.5431
 30
0.0
 10
-6.1922
 20
-11.4669
 30
0.0
 10
-6.1922
 20
-11.4669
 30
0.0
 10
-6.1922
 20
-11.3484
 30
0.0
 10
-6.2303
 20
-11.2505
 30
0.0
 10
-6.307
 20
-11.1734
 30
0.0
 10
-6.307
 20
-11.1734
 30
0.0
 10
-6.3832
 20
-11.0963
 30
0.0
 10
-6.4801
 20
-11.0577
 30
0.0
 10
-6.5977
 20
-11.0577
 30
0.0
 10
-6.5977
 20
-11.0577
 30
0.0
 10
-6.7172
 20
-11.0577
 30
0.0
 10
-6.8159
 20
-11.0972
 30
0.0
 10
-6.894
 20
-11.1767
 30
0.0
 10
-6.894
 20
-11.1767
 30
0.0
 10
-6.9721
 20
-11.2562
 30
0.0
 10
-7.0111
 20
-11.3559
 30
0.0
 10
-7.0111
 20
-11.4754
 30
0.0
 10
-7.0111
 20
-11.4754
 30
0.0
 10
-7.0111
 20
-11.592
 30
0.0
 10
-6.9726
 20
-11.6885
 30
0.0
 10
-6.8954
 20
-11.7651
 30
0.0
 10
-6.8954
 20
-11.7651
 30
0.0
 10
-6.8178
 20
-11.8418
 30
0.0
 10
-6.7214
 20
-11.8804
 30
0.0
 10
-6.6057
 20
-11.8804
 30
0.0
  0
SPLINE
  5
4B
330
1F
100
AcDbEntity
  8
VRSTVA_1
 62
   250
100
AcDbSpline
210
0.0
220
0.0
230
1.0
 70
    11
 71
     3
 72
    92
 73
    88
 74
     0
 42
0.0000000001
 43
0.0000000001
 40
0.0
 40
0.0
 40
0.0
 40
0.0
 40
0.0434782608695652
 40
0.0434782608695652
 40
0.0434782608695652
 40
0.0434782608695652
 40
0.0869565217391304
 40
0.0869565217391304
 40
0.0869565217391304
 40
0.0869565217391304
 40
0.1304347826086956
 40
0.1304347826086956
 40
0.1304347826086956
 40
0.1304347826086956
 40
0.1739130434782609
 40
0.1739130434782609
 40
0.1739130434782609
 40
0.1739130434782609
 40
0.2173913043478261
 40
0.2173913043478261
 40
0.2173913043478261
 40
0.2173913043478261
 40
0.2608695652173913
 40
0.2608695652173913
 40
0.2608695652173913
 40
0.2608695652173913
 40
0.3043478260869565
 40
0.3043478260869565
 40
0.3043478260869565
 40
0.3043478260869565
 40
0.3478260869565217
 40
0.3478260869565217
 40
0.3478260869565217
 40
0.3478260869565217
 40
0.391304347826087
 40
0.391304347826087
 40
0.391304347826087
 40
0.391304347826087
 40
0.4347826086956522
 40
0.4347826086956522
 40
0.4347826086956522
 40
0.4347826086956522
 40
0.4782608695652174
 40
0.4782608695652174
 40
0.4782608695652174
 40
0.4782608695652174
 40
0.5217391304347826
 40
0.5217391304347826
 40
0.5217391304347826
 40
0.5217391304347826
 40
0.5652173913043478
 40
0.5652173913043478
 40
0.5652173913043478
 40
0.5652173913043478
 40
0.6086956521739131
 40
0.6086956521739131
 40
0.6086956521739131
 40
0.6086956521739131
 40
0.6521739130434783
 40
0.6521739130434783
 40
0.6521739130434783
 40
0.6521739130434783
 40
0.6956521739130435
 40
0.6956521739130435
 40
0.6956521739130435
 40
0.6956521739130435
 40
0.7391304347826086
 40
0.7391304347826086
 40
0.7391304347826086
 40
0.7391304347826086
 40
0.782608695652174
 40
0.782608695652174
 40
0.782608695652174
 40
0.782608695652174
 40
0.8260869565217391
 40
0.8260869565217391
 40
0.8260869565217391
 40
0.8260869565217391
 40
0.8695652173913043
 40
0.8695652173913043
 40
0.8695652173913043
 40
0.8695652173913043
 40
0.9130434782608695
 40
0.9130434782608695
 40
0.9130434782608695
 40
0.9130434782608695
 40
1.0
 40
1.0
 40
1.0
 40
1.0
 10
-6.5521
 20
-10.5629
 30
0.0
 10
-6.5521
 20
-10.5629
 30
0.0
 10
-6.5742
 20
-10.3023
 30
0.0
 10
-6.5742
 20
-10.3023
 30
0.0
 10
-6.5742
 20
-10.3023
 30
0.0
 10
-6.4472
 20
-10.283
 30
0.0
 10
-6.3522
 20
-10.2383
 30
0.0
 10
-6.2882
 20
-10.1682
 30
0.0
 10
-6.2882
 20
-10.1682
 30
0.0
 10
-6.2242
 20
-10.0977
 30
0.0
 10
-6.1922
 20
-10.013
 30
0.0
 10
-6.1922
 20
-9.9138
 30
0.0
 10
-6.1922
 20
-9.9138
 30
0.0
 10
-6.1922
 20
-9.7943
 30
0.0
 10
-6.2374
 20
-9.6932
 30
0.0
 10
-6.3272
 20
-9.6109
 30
0.0
 10
-6.3272
 20
-9.6109
 30
0.0
 10
-6.4175
 20
-9.5281
 30
0.0
 10
-6.537
 20
-9.4867
 30
0.0
 10
-6.6856
 20
-9.4867
 30
0.0
 10
-6.6856
 20
-9.4867
 30
0.0
 10
-6.8272
 20
-9.4867
 30
0.0
 10
-6.9387
 20
-9.5262
 30
0.0
 10
-7.0205
 20
-9.6057
 30
0.0
 10
-7.0205
 20
-9.6057
 30
0.0
 10
-7.1024
 20
-9.6852
 30
0.0
 10
-7.1433
 20
-9.7891
 30
0.0
 10
-7.1433
 20
-9.918
 30
0.0
 10
-7.1433
 20
-9.918
 30
0.0
 10
-7.1433
 20
-9.998
 30
0.0
 10
-7.125
 20
-10.0699
 30
0.0
 10
-7.0888
 20
-10.1344
 30
0.0
 10
-7.0888
 20
-10.1344
 30
0.0
 10
-7.0525
 20
-10.1988
 30
0.0
 10
-7.0055
 20
-10.2491
 30
0.0
 10
-6.9476
 20
-10.2858
 30
0.0
 10
-6.9476
 20
-10.2858
 30
0.0
 10
-6.9476
 20
-10.2858
 30
0.0
 10
-6.9777
 20
-10.5187
 30
0.0
 10
-6.9777
 20
-10.5187
 30
0.0
 10
-6.9777
 20
-10.5187
 30
0.0
 10
-6.9777
 20
-10.5187
 30
0.0
 10
-8.0154
 20
-10.323
 30
0.0
 10
-8.0154
 20
-10.323
 30
0.0
 10
-8.0154
 20
-10.323
 30
0.0
 10
-8.0154
 20
-10.323
 30
0.0
 10
-8.0154
 20
-9.3183
 30
0.0
 10
-8.0154
 20
-9.3183
 30
0.0
 10
-8.0154
 20
-9.3183
 30
0.0
 10
-8.0154
 20
-9.3183
 30
0.0
 10
-7.7783
 20
-9.3183
 30
0.0
 10
-7.7783
 20
-9.3183
 30
0.0
 10
-7.7783
 20
-9.3183
 30
0.0
 10
-7.7783
 20
-9.3183
 30
0.0
 10
-7.7783
 20
-10.1245
 30
0.0
 10
-7.7783
 20
-10.1245
 30
0.0
 10
-7.7783
 20
-10.1245
 30
0.0
 10
-7.7783
 20
-10.1245
 30
0.0
 10
-7.2355
 20
-10.2336
 30
0.0
 10
-7.2355
 20
-10.2336
 30
0.0
 10
-7.2355
 20
-10.2336
 30
0.0
 10
-7.3202
 20
-10.1123
 30
0.0
 10
-7.3625
 20
-9.9848
 30
0.0
 10
-7.3625
 20
-9.8517
 30
0.0
 10
-7.3625
 20
-9.8517
 30
0.0
 10
-7.3625
 20
-9.6753
 30
0.0
 10
-7.3014
 20
-9.5267
 30
0.0
 10
-7.1791
 20
-9.4053
 30
0.0
 10
-7.1791
 20
-9.4053
 30
0.0
 10
-7.0568
 20
-9.284
 30
0.0
 10
-6.8997
 20
-9.2233
 30
0.0
 10
-6.7078
 20
-9.2233
 30
0.0
 10
-6.7078
 20
-9.2233
 30
0.0
 10
-6.5248
 20
-9.2233
 30
0.0
 10
-6.3667
 20
-9.2769
 30
0.0
 10
-6.2336
 20
-9.3832
 30
0.0
 10
-6.2336
 20
-9.3832
 30
0.0
 10
-6.0704
 20
-9.513
 30
0.0
 10
-5.9886
 20
-9.6899
 30
0.0
 10
-5.9886
 20
-9.9138
 30
0.0
 10
-5.9886
 20
-9.9138
 30
0.0
 10
-5.9886
 20
-10.0977
 30
0.0
 10
-6.0398
 20
-10.2477
 30
0.0
 10
-6.1428
 20
-10.3639
 30
0.0
 10
-6.1428
 20
-10.3639
 30
0.0
 10
-6.2459
 20
-10.4801
 30
0.0
 10
-6.3823
 20
-10.5464
 30
0.0
 10
-6.5521
 20
-10.5629
 30
0.0
  0
SPLINE
  5
4C
330
1F
100
AcDbEntity
  8
VRSTVA_1
 62
   250
100
AcDbSpline
210
0.0
220
0.0
230
1.0
 70
    11
 71
     3
 72
    20
 73
    16
 74
     0
 42
0.0000000001
 43
0.0000000001
 40
0.0
 40
0.0
 40
0.0
 40
0.0
 40
0.2
 40
0.2
 40
0.2
 40
0.2
 40
0.4
 40
0.4
 40
0.4
 40
0.4
 40
0.6
 40
0.6
 40
0.6
 40
0.6
 40
1.0
 40
1.0
 40
1.0
 40
1.0
 10
-6.6292
 20
-8.2369
 30
0.0
 10
-6.6292
 20
-8.2369
 30
0.0
 10
-6.8785
 20
-8.2369
 30
0.0
 10
-6.8785
 20
-8.2369
 30
0.0
 10
-6.8785
 20
-8.2369
 30
0.0
 10
-6.8785
 20
-8.2369
 30
0.0
 10
-6.8785
 20
-7.4745
 30
0.0
 10
-6.8785
 20
-7.4745
 30
0.0
 10
-6.8785
 20
-7.4745
 30
0.0
 10
-6.8785
 20
-7.4745
 30
0.0
 10
-6.6292
 20
-7.4745
 30
0.0
 10
-6.6292
 20
-7.4745
 30
0.0
 10
-6.6292
 20
-7.4745
 30
0.0
 10
-6.6292
 20
-7.4745
 30
0.0
 10
-6.6292
 20
-8.2369
 30
0.0
 10
-6.6292
 20
-8.2369
 30
0.0
  0
SPLINE
  5
4D
330
1F
100
AcDbEntity
  8
VRSTVA_1
 62
   250
100
AcDbSpline
210
0.0
220
0.0
230
1.0
 70
    11
 71
     3
 72
    92
 73
    88
 74
     0
 42
0.0000000001
 43
0.0000000001
 40
0.0
 40
0.0
 40
0.0
 40
0.0
 40
0.0434782608695652
 40
0.0434782608695652
 40
0.0434782608695652
 40
0.0434782608695652
 40
0.0869565217391304
 40
0.0869565217391304
 40
0.0869565217391304
 40
0.0869565217391304
 40
0.1304347826086956
 40
0.1304347826086956
 40
0.1304347826086956
 40
0.1304347826086956
 40
0.1739130434782609
 40
0.1739130434782609
 40
0.1739130434782609
 40
0.1739130434782609
 40
0.2173913043478261
 40
0.2173913043478261
 40
0.2173913043478261
 40
0.2173913043478261
 40
0.2608695652173913
 40
0.2608695652173913
 40
0.2608695652173913
 40
0.2608695652173913
 40
0.3043478260869565
 40
0.3043478260869565
 40
0.3043478260869565
 40
0.3043478260869565
 40
0.3478260869565217
 40
0.3478260869565217
 40
0.3478260869565217
 40
0.3478260869565217
 40
0.391304347826087
 40
0.391304347826087
 40
0.391304347826087
 40
0.391304347826087
 40
0.4347826086956522
 40
0.4347826086956522
 40
0.4347826086956522
 40
0.4347826086956522
 40
0.4782608695652174
 40
0.4782608695652174
 40
0.4782608695652174
 40
0.4782608695652174
 40
0.5217391304347826
 40
0.5217391304347826
 40
0.5217391304347826
 40
0.5217391304347826
 40
0.5652173913043478
 40
0.5652173913043478
 40
0.5652173913043478
 40
0.5652173913043478
 40
0.6086956521739131
 40
0.6086956521739131
 40
0.6086956521739131
 40
0.6086956521739131
 40
0.6521739130434783
 40
0.6521739130434783
 40
0.6521739130434783
 40
0.6521739130434783
 40
0.6956521739130435
 40
0.6956521739130435
 40
0.6956521739130435
 40
0.6956521739130435
 40
0.7391304347826086
 40
0.7391304347826086
 40
0.7391304347826086
 40
0.7391304347826086
 40
0.782608695652174
 40
0.782608695652174
 40
0.782608695652174
 40
0.782608695652174
 40
0.8260869565217391
 40
0.8260869565217391
 40
0.8260869565217391
 40
0.8260869565217391
 40
0.8695652173913043
 40
0.8695652173913043
 40
0.8695652173913043
 40
0.8695652173913043
 40
0.9130434782608695
 40
0.9130434782608695
 40
0.9130434782608695
 40
0.9130434782608695
 40
1.0
 40
1.0
 40
1.0
 40
1.0
 10
-6.2614
 20
-5.1814
 30
0.0
 10
-6.2614
 20
-5.1814
 30
0.0
 10
-6.0229
 20
-5.1814
 30
0.0
 10
-6.0229
 20
-5.1814
 30
0.0
 10
-6.0229
 20
-5.1814
 30
0.0
 10
-6.0229
 20
-5.1814
 30
0.0
 10
-6.0229
 20
-6.5168
 30
0.0
 10
-6.0229
 20
-6.5168
 30
0.0
 10
-6.0229
 20
-6.5168
 30
0.0
 10
-6.0826
 20
-6.5187
 30
0.0
 10
-6.14
 20
-6.5093
 30
0.0
 10
-6.1951
 20
-6.4881
 30
0.0
 10
-6.1951
 20
-6.4881
 30
0.0
 10
-6.2863
 20
-6.4542
 30
0.0
 10
-6.3757
 20
-6.3997
 30
0.0
 10
-6.4641
 20
-6.3249
 30
0.0
 10
-6.4641
 20
-6.3249
 30
0.0
 10
-6.5521
 20
-6.2496
 30
0.0
 10
-6.6541
 20
-6.1414
 30
0.0
 10
-6.7698
 20
-6.0003
 30
0.0
 10
-6.7698
 20
-6.0003
 30
0.0
 10
-6.95
 20
-5.7807
 30
0.0
 10
-7.0925
 20
-5.632
 30
0.0
 10
-7.1979
 20
-5.5549
 30
0.0
 10
-7.1979
 20
-5.5549
 30
0.0
 10
-7.3028
 20
-5.4778
 30
0.0
 10
-7.4025
 20
-5.4392
 30
0.0
 10
-7.4961
 20
-5.4392
 30
0.0
 10
-7.4961
 20
-5.4392
 30
0.0
 10
-7.5944
 20
-5.4392
 30
0.0
 10
-7.6772
 20
-5.4745
 30
0.0
 10
-7.7449
 20
-5.5445
 30
0.0
 10
-7.7449
 20
-5.5445
 30
0.0
 10
-7.8122
 20
-5.6151
 30
0.0
 10
-7.846
 20
-5.7068
 30
0.0
 10
-7.846
 20
-5.8197
 30
0.0
 10
-7.846
 20
-5.8197
 30
0.0
 10
-7.846
 20
-5.9392
 30
0.0
 10
-7.8103
 20
-6.0347
 30
0.0
 10
-7.7383
 20
-6.1062
 30
0.0
 10
-7.7383
 20
-6.1062
 30
0.0
 10
-7.6668
 20
-6.1781
 30
0.0
 10
-7.5676
 20
-6.2143
 30
0.0
 10
-7.4411
 20
-6.2153
 30
0.0
 10
-7.4411
 20
-6.2153
 30
0.0
 10
-7.4411
 20
-6.2153
 30
0.0
 10
-7.4669
 20
-6.4702
 30
0.0
 10
-7.4669
 20
-6.4702
 30
0.0
 10
-7.4669
 20
-6.4702
 30
0.0
 10
-7.6574
 20
-6.4528
 30
0.0
 10
-7.8023
 20
-6.387
 30
0.0
 10
-7.902
 20
-6.2731
 30
0.0
 10
-7.902
 20
-6.2731
 30
0.0
 10
-8.0017
 20
-6.1593
 30
0.0
 10
-8.0516
 20
-6.006
 30
0.0
 10
-8.0516
 20
-5.8141
 30
0.0
 10
-8.0516
 20
-5.8141
 30
0.0
 10
-8.0516
 20
-5.6203
 30
0.0
 10
-7.9975
 20
-5.4669
 30
0.0
 10
-7.8903
 20
-5.354
 30
0.0
 10
-7.8903
 20
-5.354
 30
0.0
 10
-7.7825
 20
-5.2407
 30
0.0
 10
-7.6494
 20
-5.1842
 30
0.0
 10
-7.4904
 20
-5.1842
 30
0.0
 10
-7.4904
 20
-5.1842
 30
0.0
 10
-7.4095
 20
-5.1842
 30
0.0
 10
-7.33
 20
-5.2007
 30
0.0
 10
-7.252
 20
-5.2341
 30
0.0
 10
-7.252
 20
-5.2341
 30
0.0
 10
-7.1739
 20
-5.267
 30
0.0
 10
-7.0916
 20
-5.3221
 30
0.0
 10
-7.0055
 20
-5.3987
 30
0.0
 10
-7.0055
 20
-5.3987
 30
0.0
 10
-6.9189
 20
-5.4754
 30
0.0
 10
-6.8004
 20
-5.6029
 30
0.0
 10
-6.6499
 20
-5.7811
 30
0.0
 10
-6.6499
 20
-5.7811
 30
0.0
 10
-6.5248
 20
-5.9298
 30
0.0
 10
-6.4401
 20
-6.0253
 30
0.0
 10
-6.3954
 20
-6.0676
 30
0.0
 10
-6.3954
 20
-6.0676
 30
0.0
 10
-6.3512
 20
-6.1099
 30
0.0
 10
-6.3065
 20
-6.1447
 30
0.0
 10
-6.2614
 20
-6.1725
 30
0.0
 10
-6.2614
 20
-6.1725
 30
0.0
 10
-6.2614
 20
-6.1725
 30
0.0
 10
-6.2614
 20
-5.1814
 30
0.0
 10
-6.2614
 20
-5.1814
 30
0.0
  0
SPLINE
  5
4E
330
1F
100
AcDbEntity
  8
VRSTVA_1
 62
   250
100
AcDbSpline
210
0.0
220
0.0
230
1.0
 70
    11
 71
     3
 72
    48
 73
    44
 74
     0
 42
0.0000000001
 43
0.0000000001
 40
0.0
 40
0.0
 40
0.0
 40
0.0
 40
0.0833333333333333
 40
0.0833333333333333
 40
0.0833333333333333
 40
0.0833333333333333
 40
0.1666666666666667
 40
0.1666666666666667
 40
0.1666666666666667
 40
0.1666666666666667
 40
0.25
 40
0.25
 40
0.25
 40
0.25
 40
0.3333333333333333
 40
0.3333333333333333
 40
0.3333333333333333
 40
0.3333333333333333
 40
0.4166666666666667
 40
0.4166666666666667
 40
0.4166666666666667
 40
0.4166666666666667
 40
0.5
 40
0.5
 40
0.5
 40
0.5
 40
0.5833333333333334
 40
0.5833333333333334
 40
0.5833333333333334
 40
0.5833333333333334
 40
0.6666666666666666
 40
0.6666666666666666
 40
0.6666666666666666
 40
0.6666666666666666
 40
0.75
 40
0.75
 40
0.75
 40
0.75
 40
0.8333333333333334
 40
0.8333333333333334
 40
0.8333333333333334
 40
0.8333333333333334
 40
1.0
 40
1.0
 40
1.0
 40
1.0
 10
-7.7783
 20
-4.8992
 30
0.0
 10
-7.7783
 20
-4.8992
 30
0.0
 10
-8.0168
 20
-4.8992
 30
0.0
 10
-8.0168
 20
-4.8992
 30
0.0
 10
-8.0168
 20
-4.8992
 30
0.0
 10
-8.0168
 20
-4.8992
 30
0.0
 10
-8.0168
 20
-3.5916
 30
0.0
 10
-8.0168
 20
-3.5916
 30
0.0
 10
-8.0168
 20
-3.5916
 30
0.0
 10
-8.0168
 20
-3.5916
 30
0.0
 10
-7.8239
 20
-3.5916
 30
0.0
 10
-7.8239
 20
-3.5916
 30
0.0
 10
-7.8239
 20
-3.5916
 30
0.0
 10
-7.6871
 20
-3.72
 30
0.0
 10
-7.505
 20
-3.8475
 30
0.0
 10
-7.2783
 20
-3.974
 30
0.0
 10
-7.2783
 20
-3.974
 30
0.0
 10
-7.0516
 20
-4.1001
 30
0.0
 10
-6.8178
 20
-4.1979
 30
0.0
 10
-6.5784
 20
-4.2666
 30
0.0
 10
-6.5784
 20
-4.2666
 30
0.0
 10
-6.4091
 20
-4.3164
 30
0.0
 10
-6.2242
 20
-4.3479
 30
0.0
 10
-6.0229
 20
-4.3616
 30
0.0
 10
-6.0229
 20
-4.3616
 30
0.0
 10
-6.0229
 20
-4.3616
 30
0.0
 10
-6.0229
 20
-4.6165
 30
0.0
 10
-6.0229
 20
-4.6165
 30
0.0
 10
-6.0229
 20
-4.6165
 30
0.0
 10
-6.1819
 20
-4.6137
 30
0.0
 10
-6.3738
 20
-4.5827
 30
0.0
 10
-6.5991
 20
-4.5229
 30
0.0
 10
-6.5991
 20
-4.5229
 30
0.0
 10
-6.8239
 20
-4.4632
 30
0.0
 10
-7.0412
 20
-4.3776
 30
0.0
 10
-7.2501
 20
-4.2661
 30
0.0
 10
-7.2501
 20
-4.2661
 30
0.0
 10
-7.4589
 20
-4.1542
 30
0.0
 10
-7.6353
 20
-4.0356
 30
0.0
 10
-7.7783
 20
-3.9096
 30
0.0
 10
-7.7783
 20
-3.9096
 30
0.0
 10
-7.7783
 20
-3.9096
 30
0.0
 10
-7.7783
 20
-4.8992
 30
0.0
 10
-7.7783
 20
-4.8992
 30
0.0
  0
SPLINE
  5
4F
330
1F
100
AcDbEntity
  8
VRSTVA_1
 62
   250
100
AcDbSpline
210
0.0
220
0.0
230
1.0
 70
    11
 71
     3
 72
    92
 73
    88
 74
     0
 42
0.0000000001
 43
0.0000000001
 40
0.0
 40
0.0
 40
0.0
 40
0.0
 40
0.0434782608695652
 40
0.0434782608695652
 40
0.0434782608695652
 40
0.0434782608695652
 40
0.0869565217391304
 40
0.0869565217391304
 40
0.0869565217391304
 40
0.0869565217391304
 40
0.1304347826086956
 40
0.1304347826086956
 40
0.1304347826086956
 40
0.1304347826086956
 40
0.1739130434782609
 40
0.1739130434782609
 40
0.1739130434782609
 40
0.1739130434782609
 40
0.2173913043478261
 40
0.2173913043478261
 40
0.2173913043478261
 40
0.2173913043478261
 40
0.2608695652173913
 40
0.2608695652173913
 40
0.2608695652173913
 40
0.2608695652173913
 40
0.3043478260869565
 40
0.3043478260869565
 40
0.3043478260869565
 40
0.3043478260869565
 40
0.3478260869565217
 40
0.3478260869565217
 40
0.3478260869565217
 40
0.3478260869565217
 40
0.391304347826087
 40
0.391304347826087
 40
0.391304347826087
 40
0.391304347826087
 40
0.4347826086956522
 40
0.4347826086956522
 40
0.4347826086956522
 40
0.4347826086956522
 40
0.4782608695652174
 40
0.4782608695652174
 40
0.4782608695652174
 40
0.4782608695652174
 40
0.5217391304347826
 40
0.5217391304347826
 40
0.5217391304347826
 40
0.5217391304347826
 40
0.5652173913043478
 40
0.5652173913043478
 40
0.5652173913043478
 40
0.5652173913043478
 40
0.6086956521739131
 40
0.6086956521739131
 40
0.6086956521739131
 40
0.6086956521739131
 40
0.6521739130434783
 40
0.6521739130434783
 40
0.6521739130434783
 40
0.6521739130434783
 40
0.6956521739130435
 40
0.6956521739130435
 40
0.6956521739130435
 40
0.6956521739130435
 40
0.7391304347826086
 40
0.7391304347826086
 40
0.7391304347826086
 40
0.7391304347826086
 40
0.782608695652174
 40
0.782608695652174
 40
0.782608695652174
 40
0.782608695652174
 40
0.8260869565217391
 40
0.8260869565217391
 40
0.8260869565217391
 40
0.8260869565217391
 40
0.8695652173913043
 40
0.8695652173913043
 40
0.8695652173913043
 40
0.8695652173913043
 40
0.9130434782608695
 40
0.9130434782608695
 40
0.9130434782608695
 40
0.9130434782608695
 40
1.0
 40
1.0
 40
1.0
 40
1.0
 10
-6.5521
 20
-3.3461
 30
0.0
 10
-6.5521
 20
-3.3461
 30
0.0
 10
-6.5742
 20
-3.0855
 30
0.0
 10
-6.5742
 20
-3.0855
 30
0.0
 10
-6.5742
 20
-3.0855
 30
0.0
 10
-6.4472
 20
-3.0662
 30
0.0
 10
-6.3522
 20
-3.0215
 30
0.0
 10
-6.2882
 20
-2.9514
 30
0.0
 10
-6.2882
 20
-2.9514
 30
0.0
 10
-6.2242
 20
-2.8809
 30
0.0
 10
-6.1922
 20
-2.7962
 30
0.0
 10
-6.1922
 20
-2.697
 30
0.0
 10
-6.1922
 20
-2.697
 30
0.0
 10
-6.1922
 20
-2.5775
 30
0.0
 10
-6.2374
 20
-2.4764
 30
0.0
 10
-6.3272
 20
-2.3941
 30
0.0
 10
-6.3272
 20
-2.3941
 30
0.0
 10
-6.4175
 20
-2.3113
 30
0.0
 10
-6.537
 20
-2.2699
 30
0.0
 10
-6.6856
 20
-2.2699
 30
0.0
 10
-6.6856
 20
-2.2699
 30
0.0
 10
-6.8272
 20
-2.2699
 30
0.0
 10
-6.9387
 20
-2.3094
 30
0.0
 10
-7.0205
 20
-2.3889
 30
0.0
 10
-7.0205
 20
-2.3889
 30
0.0
 10
-7.1024
 20
-2.4684
 30
0.0
 10
-7.1433
 20
-2.5723
 30
0.0
 10
-7.1433
 20
-2.7012
 30
0.0
 10
-7.1433
 20
-2.7012
 30
0.0
 10
-7.1433
 20
-2.7812
 30
0.0
 10
-7.125
 20
-2.8531
 30
0.0
 10
-7.0888
 20
-2.9176
 30
0.0
 10
-7.0888
 20
-2.9176
 30
0.0
 10
-7.0525
 20
-2.982
 30
0.0
 10
-7.0055
 20
-3.0323
 30
0.0
 10
-6.9476
 20
-3.069
 30
0.0
 10
-6.9476
 20
-3.069
 30
0.0
 10
-6.9476
 20
-3.069
 30
0.0
 10
-6.9777
 20
-3.3019
 30
0.0
 10
-6.9777
 20
-3.3019
 30
0.0
 10
-6.9777
 20
-3.3019
 30
0.0
 10
-6.9777
 20
-3.3019
 30
0.0
 10
-8.0154
 20
-3.1062
 30
0.0
 10
-8.0154
 20
-3.1062
 30
0.0
 10
-8.0154
 20
-3.1062
 30
0.0
 10
-8.0154
 20
-3.1062
 30
0.0
 10
-8.0154
 20
-2.1015
 30
0.0
 10
-8.0154
 20
-2.1015
 30
0.0
 10
-8.0154
 20
-2.1015
 30
0.0
 10
-8.0154
 20
-2.1015
 30
0.0
 10
-7.7783
 20
-2.1015
 30
0.0
 10
-7.7783
 20
-2.1015
 30
0.0
 10
-7.7783
 20
-2.1015
 30
0.0
 10
-7.7783
 20
-2.1015
 30
0.0
 10
-7.7783
 20
-2.9077
 30
0.0
 10
-7.7783
 20
-2.9077
 30
0.0
 10
-7.7783
 20
-2.9077
 30
0.0
 10
-7.7783
 20
-2.9077
 30
0.0
 10
-7.2355
 20
-3.0168
 30
0.0
 10
-7.2355
 20
-3.0168
 30
0.0
 10
-7.2355
 20
-3.0168
 30
0.0
 10
-7.3202
 20
-2.8955
 30
0.0
 10
-7.3625
 20
-2.768
 30
0.0
 10
-7.3625
 20
-2.6349
 30
0.0
 10
-7.3625
 20
-2.6349
 30
0.0
 10
-7.3625
 20
-2.4585
 30
0.0
 10
-7.3014
 20
-2.3099
 30
0.0
 10
-7.1791
 20
-2.1885
 30
0.0
 10
-7.1791
 20
-2.1885
 30
0.0
 10
-7.0568
 20
-2.0672
 30
0.0
 10
-6.8997
 20
-2.0065
 30
0.0
 10
-6.7078
 20
-2.0065
 30
0.0
 10
-6.7078
 20
-2.0065
 30
0.0
 10
-6.5248
 20
-2.0065
 30
0.0
 10
-6.3667
 20
-2.0601
 30
0.0
 10
-6.2336
 20
-2.1664
 30
0.0
 10
-6.2336
 20
-2.1664
 30
0.0
 10
-6.0704
 20
-2.2962
 30
0.0
 10
-5.9886
 20
-2.4731
 30
0.0
 10
-5.9886
 20
-2.697
 30
0.0
 10
-5.9886
 20
-2.697
 30
0.0
 10
-5.9886
 20
-2.8809
 30
0.0
 10
-6.0398
 20
-3.0309
 30
0.0
 10
-6.1428
 20
-3.1471
 30
0.0
 10
-6.1428
 20
-3.1471
 30
0.0
 10
-6.2459
 20
-3.2633
 30
0.0
 10
-6.3823
 20
-3.3296
 30
0.0
 10
-6.5521
 20
-3.3461
 30
0.0
  0
SPLINE
  5
50
330
1F
100
AcDbEntity
  8
VRSTVA_1
 62
   250
100
AcDbSpline
210
0.0
220
0.0
230
1.0
 70
    24
 71
     3
 72
     8
 73
     4
 74
     0
 42
0.0000000001
 43
0.0000000001
 40
0.0
 40
0.0
 40
0.0
 40
0.0
 40
1.0
 40
1.0
 40
1.0
 40
1.0
 10
-9.5399
 20
27.9988
 30
0.0
 10
-9.5399
 20
27.9988
 30
0.0
 10
-9.5399
 20
-27.3145
 30
0.0
 10
-9.5399
 20
-27.3145
 30
0.0
  0
SPLINE
  5
51
330
1F
100
AcDbEntity
  8
VRSTVA_1
  6
NEW_LINE1
 62
   250
100
AcDbSpline
210
0.0
220
0.0
230
1.0
 70
    24
 71
     3
 72
     8
 73
     4
 74
     0
 42
0.0000000001
 43
0.0000000001
 40
0.0
 40
0.0
 40
0.0
 40
0.0
 40
1.0
 40
1.0
 40
1.0
 40
1.0
 10
5.3197
 20
29.3454
 30
0.0
 10
5.3197
 20
29.3454
 30
0.0
 10
5.3197
 20
-33.8902
 30
0.0
 10
5.3197
 20
-33.8902
 30
0.0
  0
SPLINE
  5
53
330
1F
100
AcDbEntity
  8
VRSTVA_1
 62
   250
100
AcDbSpline
210
0.0
220
0.0
230
1.0
 70
    11
 71
     3
 72
    16
 73
    12
 74
     0
 42
0.0000000001
 43
0.0000000001
 40
0.0
 40
0.0
 40
0.0
 40
0.0
 40
0.25
 40
0.25
 40
0.25
 40
0.25
 40
0.5
 40
0.5
 40
0.5
 40
0.5
 40
1.0
 40
1.0
 40
1.0
 40
1.0
 10
-9.0526
 20
-24.3248
 30
0.0
 10
-9.0526
 20
-24.3248
 30
0.0
 10
-9.9899
 20
-24.3248
 30
0.0
 10
-9.9899
 20
-24.3248
 30
0.0
 10
-9.9899
 20
-24.3248
 30
0.0
 10
-9.9899
 20
-24.3248
 30
0.0
 10
-9.5212
 20
-27.3246
 30
0.0
 10
-9.5212
 20
-27.3246
 30
0.0
 10
-9.5212
 20
-27.3246
 30
0.0
 10
-9.5212
 20
-27.3246
 30
0.0
 10
-9.0526
 20
-24.3248
 30
0.0
 10
-9.0526
 20
-24.3248
 30
0.0
  0
SPLINE
  5
54
330
1F
100
AcDbEntity
  8
VRSTVA_1
 62
   250
100
AcDbSpline
210
0.0
220
0.0
230
1.0
 70
    11
 71
     3
 72
    16
 73
    12
 74
     0
 42
0.0000000001
 43
0.0000000001
 40
0.0
 40
0.0
 40
0.0
 40
0.0
 40
0.25
 40
0.25
 40
0.25
 40
0.25
 40
0.5
 40
0.5
 40
0.5
 40
0.5
 40
1.0
 40
1.0
 40
1.0
 40
1.0
 10
-10.0
 20
24.9502
 30
0.0
 10
-10.0
 20
24.9502
 30
0.0
 10
-9.0628
 20
24.9502
 30
0.0
 10
-9.0628
 20
24.9502
 30
0.0
 10
-9.0628
 20
24.9502
 30
0.0
 10
-9.0628
 20
24.9502
 30
0.0
 10
-9.5314
 20
27.9497
 30
0.0
 10
-9.5314
 20
27.9497
 30
0.0
 10
-9.5314
 20
27.9497
 30
0.0
 10
-9.5314
 20
27.9497
 30
0.0
 10
-10.0
 20
24.9502
 30
0.0
 10
-10.0
 20
24.9502
 30
0.0
  0
SPLINE
  5
55
330
1F
100
AcDbEntity
  8
VRSTVA_1
 62
   250
100
AcDbSpline
210
0.0
220
0.0
230
1.0
 70
    11
 71
     3
 72
   124
 73
   120
 74
     0
 42
0.0000000001
 43
0.0000000001
 40
0.0
 40
0.0
 40
0.0
 40
0.0
 40
0.032258064516129
 40
0.032258064516129
 40
0.032258064516129
 40
0.032258064516129
 40
0.0645161290322581
 40
0.0645161290322581
 40
0.0645161290322581
 40
0.0645161290322581
 40
0.0967741935483871
 40
0.0967741935483871
 40
0.0967741935483871
 40
0.0967741935483871
 40
0.1290322580645161
 40
0.1290322580645161
 40
0.1290322580645161
 40
0.1290322580645161
 40
0.1612903225806452
 40
0.1612903225806452
 40
0.1612903225806452
 40
0.1612903225806452
 40
0.1935483870967742
 40
0.1935483870967742
 40
0.1935483870967742
 40
0.1935483870967742
 40
0.2258064516129032
 40
0.2258064516129032
 40
0.2258064516129032
 40
0.2258064516129032
 40
0.2580645161290323
 40
0.2580645161290323
 40
0.2580645161290323
 40
0.2580645161290323
 40
0.2903225806451613
 40
0.2903225806451613
 40
0.2903225806451613
 40
0.2903225806451613
 40
0.3225806451612903
 40
0.3225806451612903
 40
0.3225806451612903
 40
0.3225806451612903
 40
0.3548387096774194
 40
0.3548387096774194
 40
0.3548387096774194
 40
0.3548387096774194
 40
0.3870967741935484
 40
0.3870967741935484
 40
0.3870967741935484
 40
0.3870967741935484
 40
0.4193548387096774
 40
0.4193548387096774
 40
0.4193548387096774
 40
0.4193548387096774
 40
0.4516129032258064
 40
0.4516129032258064
 40
0.4516129032258064
 40
0.4516129032258064
 40
0.4838709677419355
 40
0.4838709677419355
 40
0.4838709677419355
 40
0.4838709677419355
 40
0.5161290322580645
 40
0.5161290322580645
 40
0.5161290322580645
 40
0.5161290322580645
 40
0.5483870967741935
 40
0.5483870967741935
 40
0.5483870967741935
 40
0.5483870967741935
 40
0.5806451612903226
 40
0.5806451612903226
 40
0.5806451612903226
 40
0.5806451612903226
 40
0.6129032258064516
 40
0.6129032258064516
 40
0.6129032258064516
 40
0.6129032258064516
 40
0.6451612903225806
 40
0.6451612903225806
 40
0.6451612903225806
 40
0.6451612903225806
 40
0.6774193548387096
 40
0.6774193548387096
 40
0.6774193548387096
 40
0.6774193548387096
 40
0.7096774193548387
 40
0.7096774193548387
 40
0.7096774193548387
 40
0.7096774193548387
 40
0.7419354838709677
 40
0.7419354838709677
 40
0.7419354838709677
 40
0.7419354838709677
 40
0.7741935483870968
 40
0.7741935483870968
 40
0.7741935483870968
 40
0.7741935483870968
 40
0.8064516129032258
 40
0.8064516129032258
 40
0.8064516129032258
 40
0.8064516129032258
 40
0.8387096774193549
 40
0.8387096774193549
 40
0.8387096774193549
 40
0.8387096774193549
 40
0.8709677419354839
 40
0.8709677419354839
 40
0.8709677419354839
 40
0.8709677419354839
 40
0.9032258064516129
 40
0.9032258064516129
 40
0.9032258064516129
 40
0.9032258064516129
 40
0.9354838709677419
 40
0.9354838709677419
 40
0.9354838709677419
 40
0.9354838709677419
 40
1.0
 40
1.0
 40
1.0
 40
1.0
 10
-10.6405
 20
-5.4176
 30
0.0
 10
-10.6405
 20
-5.4176
 30
0.0
 10
-10.6734
 20
-5.1697
 30
0.0
 10
-10.6734
 20
-5.1697
 30
0.0
 10
-10.6734
 20
-5.1697
 30
0.0
 10
-10.5328
 20
-5.141
 30
0.0
 10
-10.4317
 20
-5.0925
 30
0.0
 10
-10.3696
 20
-5.0243
 30
0.0
 10
-10.3696
 20
-5.0243
 30
0.0
 10
-10.3075
 20
-4.9557
 30
0.0
 10
-10.2764
 20
-4.8724
 30
0.0
 10
-10.2764
 20
-4.7741
 30
0.0
 10
-10.2764
 20
-4.7741
 30
0.0
 10
-10.2764
 20
-4.6575
 30
0.0
 10
-10.3169
 20
-4.5587
 30
0.0
 10
-10.3978
 20
-4.4782
 30
0.0
 10
-10.3978
 20
-4.4782
 30
0.0
 10
-10.4787
 20
-4.3983
 30
0.0
 10
-10.5789
 20
-4.3578
 30
0.0
 10
-10.6984
 20
-4.3578
 30
0.0
 10
-10.6984
 20
-4.3578
 30
0.0
 10
-10.8122
 20
-4.3578
 30
0.0
 10
-10.9063
 20
-4.395
 30
0.0
 10
-10.9801
 20
-4.4693
 30
0.0
 10
-10.9801
 20
-4.4693
 30
0.0
 10
-11.0539
 20
-4.5441
 30
0.0
 10
-11.0911
 20
-4.6386
 30
0.0
 10
-11.0911
 20
-4.7534
 30
0.0
 10
-11.0911
 20
-4.7534
 30
0.0
 10
-11.0911
 20
-4.8004
 30
0.0
 10
-11.0817
 20
-4.8588
 30
0.0
 10
-11.0634
 20
-4.9284
 30
0.0
 10
-11.0634
 20
-4.9284
 30
0.0
 10
-11.0634
 20
-4.9284
 30
0.0
 10
-11.2811
 20
-4.9006
 30
0.0
 10
-11.2811
 20
-4.9006
 30
0.0
 10
-11.2811
 20
-4.9006
 30
0.0
 10
-11.2793
 20
-4.8842
 30
0.0
 10
-11.2783
 20
-4.871
 30
0.0
 10
-11.2783
 20
-4.8607
 30
0.0
 10
-11.2783
 20
-4.8607
 30
0.0
 10
-11.2783
 20
-4.7553
 30
0.0
 10
-11.3061
 20
-4.6603
 30
0.0
 10
-11.3611
 20
-4.5756
 30
0.0
 10
-11.3611
 20
-4.5756
 30
0.0
 10
-11.4161
 20
-4.4909
 30
0.0
 10
-11.5013
 20
-4.4486
 30
0.0
 10
-11.616
 20
-4.4486
 30
0.0
 10
-11.616
 20
-4.4486
 30
0.0
 10
-11.7068
 20
-4.4486
 30
0.0
 10
-11.7825
 20
-4.4797
 30
0.0
 10
-11.8418
 20
-4.5413
 30
0.0
 10
-11.8418
 20
-4.5413
 30
0.0
 10
-11.9015
 20
-4.6029
 30
0.0
 10
-11.9317
 20
-4.6824
 30
0.0
 10
-11.9317
 20
-4.7798
 30
0.0
 10
-11.9317
 20
-4.7798
 30
0.0
 10
-11.9317
 20
-4.8762
 30
0.0
 10
-11.9011
 20
-4.9566
 30
0.0
 10
-11.8409
 20
-5.0206
 30
0.0
 10
-11.8409
 20
-5.0206
 30
0.0
 10
-11.7802
 20
-5.085
 30
0.0
 10
-11.6889
 20
-5.1264
 30
0.0
 10
-11.5676
 20
-5.1448
 30
0.0
 10
-11.5676
 20
-5.1448
 30
0.0
 10
-11.5676
 20
-5.1448
 30
0.0
 10
-11.6118
 20
-5.3926
 30
0.0
 10
-11.6118
 20
-5.3926
 30
0.0
 10
-11.6118
 20
-5.3926
 30
0.0
 10
-11.7783
 20
-5.3625
 30
0.0
 10
-11.9072
 20
-5.2934
 30
0.0
 10
-11.9984
 20
-5.1861
 30
0.0
 10
-11.9984
 20
-5.1861
 30
0.0
 10
-12.0897
 20
-5.0784
 30
0.0
 10
-12.1358
 20
-4.9448
 30
0.0
 10
-12.1358
 20
-4.7849
 30
0.0
 10
-12.1358
 20
-4.7849
 30
0.0
 10
-12.1358
 20
-4.6749
 30
0.0
 10
-12.1118
 20
-4.5733
 30
0.0
 10
-12.0648
 20
-4.4806
 30
0.0
 10
-12.0648
 20
-4.4806
 30
0.0
 10
-12.0173
 20
-4.3879
 30
0.0
 10
-11.9528
 20
-4.3169
 30
0.0
 10
-11.871
 20
-4.2675
 30
0.0
 10
-11.871
 20
-4.2675
 30
0.0
 10
-11.7891
 20
-4.2186
 30
0.0
 10
-11.7026
 20
-4.1937
 30
0.0
 10
-11.6104
 20
-4.1937
 30
0.0
 10
-11.6104
 20
-4.1937
 30
0.0
 10
-11.5234
 20
-4.1937
 30
0.0
 10
-11.4439
 20
-4.2172
 30
0.0
 10
-11.3719
 20
-4.2642
 30
0.0
 10
-11.3719
 20
-4.2642
 30
0.0
 10
-11.3004
 20
-4.3113
 30
0.0
 10
-11.2435
 20
-4.3804
 30
0.0
 10
-11.2012
 20
-4.4721
 30
0.0
 10
-11.2012
 20
-4.4721
 30
0.0
 10
-11.1739
 20
-4.3527
 30
0.0
 10
-11.1165
 20
-4.26
 30
0.0
 10
-11.0295
 20
-4.1937
 30
0.0
 10
-11.0295
 20
-4.1937
 30
0.0
 10
-10.9429
 20
-4.1278
 30
0.0
 10
-10.8343
 20
-4.0949
 30
0.0
 10
-10.704
 20
-4.0949
 30
0.0
 10
-10.704
 20
-4.0949
 30
0.0
 10
-10.5276
 20
-4.0949
 30
0.0
 10
-10.378
 20
-4.1589
 30
0.0
 10
-10.2553
 20
-4.2877
 30
0.0
 10
-10.2553
 20
-4.2877
 30
0.0
 10
-10.1325
 20
-4.4162
 30
0.0
 10
-10.0714
 20
-4.5789
 30
0.0
 10
-10.0714
 20
-4.7755
 30
0.0
 10
-10.0714
 20
-4.7755
 30
0.0
 10
-10.0714
 20
-4.9528
 30
0.0
 10
-10.124
 20
-5.1001
 30
0.0
 10
-10.2299
 20
-5.2172
 30
0.0
 10
-10.2299
 20
-5.2172
 30
0.0
 10
-10.3352
 20
-5.3343
 30
0.0
 10
-10.4721
 20
-5.4011
 30
0.0
 10
-10.6405
 20
-5.4176
 30
0.0
  0
SPLINE
  5
56
330
1F
100
AcDbEntity
  8
VRSTVA_1
 62
   250
100
AcDbSpline
210
0.0
220
0.0
230
1.0
 70
    11
 71
     3
 72
    40
 73
    36
 74
     0
 42
0.0000000001
 43
0.0000000001
 40
0.0
 40
0.0
 40
0.0
 40
0.0
 40
0.1
 40
0.1
 40
0.1
 40
0.1
 40
0.2
 40
0.2
 40
0.2
 40
0.2
 40
0.3
 40
0.3
 40
0.3
 40
0.3
 40
0.4
 40
0.4
 40
0.4
 40
0.4
 40
0.5
 40
0.5
 40
0.5
 40
0.5
 40
0.6
 40
0.6
 40
0.6
 40
0.6
 40
0.7
 40
0.7
 40
0.7
 40
0.7
 40
0.8
 40
0.8
 40
0.8
 40
0.8
 40
1.0
 40
1.0
 40
1.0
 40
1.0
 10
-10.1071
 20
-2.9152
 30
0.0
 10
-10.1071
 20
-2.9152
 30
0.0
 10
-10.1071
 20
-3.1631
 30
0.0
 10
-10.1071
 20
-3.1631
 30
0.0
 10
-10.1071
 20
-3.1631
 30
0.0
 10
-10.1071
 20
-3.1631
 30
0.0
 10
-11.6875
 20
-3.1631
 30
0.0
 10
-11.6875
 20
-3.1631
 30
0.0
 10
-11.6875
 20
-3.1631
 30
0.0
 10
-11.6306
 20
-3.2229
 30
0.0
 10
-11.5737
 20
-3.3009
 30
0.0
 10
-11.5168
 20
-3.3978
 30
0.0
 10
-11.5168
 20
-3.3978
 30
0.0
 10
-11.4599
 20
-3.4952
 30
0.0
 10
-11.4171
 20
-3.5822
 30
0.0
 10
-11.3888
 20
-3.6594
 30
0.0
 10
-11.3888
 20
-3.6594
 30
0.0
 10
-11.3888
 20
-3.6594
 30
0.0
 10
-11.6283
 20
-3.6594
 30
0.0
 10
-11.6283
 20
-3.6594
 30
0.0
 10
-11.6283
 20
-3.6594
 30
0.0
 10
-11.6936
 20
-3.5206
 30
0.0
 10
-11.7727
 20
-3.3992
 30
0.0
 10
-11.8653
 20
-3.2953
 30
0.0
 10
-11.8653
 20
-3.2953
 30
0.0
 10
-11.9585
 20
-3.1918
 30
0.0
 10
-12.0483
 20
-3.118
 30
0.0
 10
-12.1358
 20
-3.0747
 30
0.0
 10
-12.1358
 20
-3.0747
 30
0.0
 10
-12.1358
 20
-3.0747
 30
0.0
 10
-12.1358
 20
-2.9152
 30
0.0
 10
-12.1358
 20
-2.9152
 30
0.0
 10
-12.1358
 20
-2.9152
 30
0.0
 10
-12.1358
 20
-2.9152
 30
0.0
 10
-10.1071
 20
-2.9152
 30
0.0
 10
-10.1071
 20
-2.9152
 30
0.0
  0
SPLINE
  5
57
330
1F
100
AcDbEntity
  8
VRSTVA_1
 62
   250
100
AcDbSpline
210
0.0
220
0.0
230
1.0
 70
    11
 71
     3
 72
    52
 73
    48
 74
     0
 42
0.0000000001
 43
0.0000000001
 40
0.0
 40
0.0
 40
0.0
 40
0.0
 40
0.0769230769230769
 40
0.0769230769230769
 40
0.0769230769230769
 40
0.0769230769230769
 40
0.1538461538461539
 40
0.1538461538461539
 40
0.1538461538461539
 40
0.1538461538461539
 40
0.2307692307692308
 40
0.2307692307692308
 40
0.2307692307692308
 40
0.2307692307692308
 40
0.3076923076923077
 40
0.3076923076923077
 40
0.3076923076923077
 40
0.3076923076923077
 40
0.3846153846153846
 40
0.3846153846153846
 40
0.3846153846153846
 40
0.3846153846153846
 40
0.4615384615384616
 40
0.4615384615384616
 40
0.4615384615384616
 40
0.4615384615384616
 40
0.5384615384615384
 40
0.5384615384615384
 40
0.5384615384615384
 40
0.5384615384615384
 40
0.6153846153846154
 40
0.6153846153846154
 40
0.6153846153846154
 40
0.6153846153846154
 40
0.6923076923076923
 40
0.6923076923076923
 40
0.6923076923076923
 40
0.6923076923076923
 40
0.7692307692307693
 40
0.7692307692307693
 40
0.7692307692307693
 40
0.7692307692307693
 40
0.8461538461538461
 40
0.8461538461538461
 40
0.8461538461538461
 40
0.8461538461538461
 40
1.0
 40
1.0
 40
1.0
 40
1.0
 10
-11.1033
 20
-2.2798
 30
0.0
 10
-11.3423
 20
-2.2798
 30
0.0
 10
-11.5347
 20
-2.2553
 30
0.0
 10
-11.68
 20
-2.2059
 30
0.0
 10
-11.68
 20
-2.2059
 30
0.0
 10
-11.8258
 20
-2.157
 30
0.0
 10
-11.9382
 20
-2.0836
 30
0.0
 10
-12.0173
 20
-1.9867
 30
0.0
 10
-12.0173
 20
-1.9867
 30
0.0
 10
-12.0963
 20
-1.8898
 30
0.0
 10
-12.1358
 20
-1.768
 30
0.0
 10
-12.1358
 20
-1.6213
 30
0.0
 10
-12.1358
 20
-1.6213
 30
0.0
 10
-12.1358
 20
-1.5126
 30
0.0
 10
-12.1137
 20
-1.4176
 30
0.0
 10
-12.0699
 20
-1.3358
 30
0.0
 10
-12.0699
 20
-1.3358
 30
0.0
 10
-12.0267
 20
-1.2539
 30
0.0
 10
-11.9636
 20
-1.1866
 30
0.0
 10
-11.8813
 20
-1.133
 30
0.0
 10
-11.8813
 20
-1.133
 30
0.0
 10
-11.799
 20
-1.0799
 30
0.0
 10
-11.6988
 20
-1.038
 30
0.0
 10
-11.5808
 20
-1.0079
 30
0.0
 10
-11.5808
 20
-1.0079
 30
0.0
 10
-11.4627
 20
-0.9773
 30
0.0
 10
-11.3037
 20
-0.9623
 30
0.0
 10
-11.1033
 20
-0.9623
 30
0.0
 10
-11.1033
 20
-0.9623
 30
0.0
 10
-10.8663
 20
-0.9623
 30
0.0
 10
-10.6753
 20
-0.9867
 30
0.0
 10
-10.5295
 20
-1.0352
 30
0.0
 10
-10.5295
 20
-1.0352
 30
0.0
 10
-10.3837
 20
-1.0841
 30
0.0
 10
-10.2713
 20
-1.157
 30
0.0
 10
-10.1918
 20
-1.2539
 30
0.0
 10
-10.1918
 20
-1.2539
 30
0.0
 10
-10.1123
 20
-1.3508
 30
0.0
 10
-10.0728
 20
-1.4731
 30
0.0
 10
-10.0728
 20
-1.6213
 30
0.0
 10
-10.0728
 20
-1.6213
 30
0.0
 10
-10.0728
 20
-1.816
 30
0.0
 10
-10.1424
 20
-1.9689
 30
0.0
 10
-10.2821
 20
-2.0799
 30
0.0
 10
-10.2821
 20
-2.0799
 30
0.0
 10
-10.45
 20
-2.213
 30
0.0
 10
-10.7242
 20
-2.2798
 30
0.0
 10
-11.1033
 20
-2.2798
 30
0.0
  0
SPLINE
  5
58
330
1F
100
AcDbEntity
  8
VRSTVA_1
 62
   250
100
AcDbSpline
210
0.0
220
0.0
230
1.0
 70
    11
 71
     3
 72
    36
 73
    32
 74
     0
 42
0.0000000001
 43
0.0000000001
 40
0.0
 40
0.0
 40
0.0
 40
0.0
 40
0.1111111111111111
 40
0.1111111111111111
 40
0.1111111111111111
 40
0.1111111111111111
 40
0.2222222222222222
 40
0.2222222222222222
 40
0.2222222222222222
 40
0.2222222222222222
 40
0.3333333333333333
 40
0.3333333333333333
 40
0.3333333333333333
 40
0.3333333333333333
 40
0.4444444444444444
 40
0.4444444444444444
 40
0.4444444444444444
 40
0.4444444444444444
 40
0.5555555555555556
 40
0.5555555555555556
 40
0.5555555555555556
 40
0.5555555555555556
 40
0.6666666666666666
 40
0.6666666666666666
 40
0.6666666666666666
 40
0.6666666666666666
 40
0.7777777777777778
 40
0.7777777777777778
 40
0.7777777777777778
 40
0.7777777777777778
 40
1.0
 40
1.0
 40
1.0
 40
1.0
 10
-11.1033
 20
-2.0248
 30
0.0
 10
-10.7717
 20
-2.0248
 30
0.0
 10
-10.5511
 20
-1.9858
 30
0.0
 10
-10.4411
 20
-1.9082
 30
0.0
 10
-10.4411
 20
-1.9082
 30
0.0
 10
-10.3315
 20
-1.8306
 30
0.0
 10
-10.2764
 20
-1.7351
 30
0.0
 10
-10.2764
 20
-1.6213
 30
0.0
 10
-10.2764
 20
-1.6213
 30
0.0
 10
-10.2764
 20
-1.507
 30
0.0
 10
-10.3319
 20
-1.4115
 30
0.0
 10
-10.442
 20
-1.3339
 30
0.0
 10
-10.442
 20
-1.3339
 30
0.0
 10
-10.5521
 20
-1.2563
 30
0.0
 10
-10.7727
 20
-1.2172
 30
0.0
 10
-11.1033
 20
-1.2172
 30
0.0
 10
-11.1033
 20
-1.2172
 30
0.0
 10
-11.4359
 20
-1.2172
 30
0.0
 10
-11.657
 20
-1.2563
 30
0.0
 10
-11.7661
 20
-1.3339
 30
0.0
 10
-11.7661
 20
-1.3339
 30
0.0
 10
-11.8757
 20
-1.4115
 30
0.0
 10
-11.9302
 20
-1.5079
 30
0.0
 10
-11.9302
 20
-1.6236
 30
0.0
 10
-11.9302
 20
-1.6236
 30
0.0
 10
-11.9302
 20
-1.7379
 30
0.0
 10
-11.8818
 20
-1.8287
 30
0.0
 10
-11.7854
 20
-1.8969
 30
0.0
 10
-11.7854
 20
-1.8969
 30
0.0
 10
-11.6626
 20
-1.982
 30
0.0
 10
-11.4349
 20
-2.0248
 30
0.0
 10
-11.1033
 20
-2.0248
 30
0.0
  0
SPLINE
  5
59
330
1F
100
AcDbEntity
  8
VRSTVA_1
 62
   250
100
AcDbSpline
210
0.0
220
0.0
230
1.0
 70
    11
 71
     3
 72
    20
 73
    16
 74
     0
 42
0.0000000001
 43
0.0000000001
 40
0.0
 40
0.0
 40
0.0
 40
0.0
 40
0.2
 40
0.2
 40
0.2
 40
0.2
 40
0.4
 40
0.4
 40
0.4
 40
0.4
 40
0.6
 40
0.6
 40
0.6
 40
0.6
 40
1.0
 40
1.0
 40
1.0
 40
1.0
 10
-10.7134
 20
0.0462
 30
0.0
 10
-10.7134
 20
0.0462
 30
0.0
 10
-10.9627
 20
0.0462
 30
0.0
 10
-10.9627
 20
0.0462
 30
0.0
 10
-10.9627
 20
0.0462
 30
0.0
 10
-10.9627
 20
0.0462
 30
0.0
 10
-10.9627
 20
0.8086
 30
0.0
 10
-10.9627
 20
0.8086
 30
0.0
 10
-10.9627
 20
0.8086
 30
0.0
 10
-10.9627
 20
0.8086
 30
0.0
 10
-10.7134
 20
0.8086
 30
0.0
 10
-10.7134
 20
0.8086
 30
0.0
 10
-10.7134
 20
0.8086
 30
0.0
 10
-10.7134
 20
0.8086
 30
0.0
 10
-10.7134
 20
0.0462
 30
0.0
 10
-10.7134
 20
0.0462
 30
0.0
  0
SPLINE
  5
5A
330
1F
100
AcDbEntity
  8
VRSTVA_1
 62
   250
100
AcDbSpline
210
0.0
220
0.0
230
1.0
 70
    11
 71
     3
 72
    48
 73
    44
 74
     0
 42
0.0000000001
 43
0.0000000001
 40
0.0
 40
0.0
 40
0.0
 40
0.0
 40
0.0833333333333333
 40
0.0833333333333333
 40
0.0833333333333333
 40
0.0833333333333333
 40
0.1666666666666667
 40
0.1666666666666667
 40
0.1666666666666667
 40
0.1666666666666667
 40
0.25
 40
0.25
 40
0.25
 40
0.25
 40
0.3333333333333333
 40
0.3333333333333333
 40
0.3333333333333333
 40
0.3333333333333333
 40
0.4166666666666667
 40
0.4166666666666667
 40
0.4166666666666667
 40
0.4166666666666667
 40
0.5
 40
0.5
 40
0.5
 40
0.5
 40
0.5833333333333334
 40
0.5833333333333334
 40
0.5833333333333334
 40
0.5833333333333334
 40
0.6666666666666666
 40
0.6666666666666666
 40
0.6666666666666666
 40
0.6666666666666666
 40
0.75
 40
0.75
 40
0.75
 40
0.75
 40
0.8333333333333334
 40
0.8333333333333334
 40
0.8333333333333334
 40
0.8333333333333334
 40
1.0
 40
1.0
 40
1.0
 40
1.0
 10
-10.1071
 20
2.5927
 30
0.0
 10
-10.1071
 20
2.5927
 30
0.0
 10
-10.5906
 20
2.5927
 30
0.0
 10
-10.5906
 20
2.5927
 30
0.0
 10
-10.5906
 20
2.5927
 30
0.0
 10
-10.5906
 20
2.5927
 30
0.0
 10
-10.5906
 20
1.7164
 30
0.0
 10
-10.5906
 20
1.7164
 30
0.0
 10
-10.5906
 20
1.7164
 30
0.0
 10
-10.5906
 20
1.7164
 30
0.0
 10
-10.8183
 20
1.7164
 30
0.0
 10
-10.8183
 20
1.7164
 30
0.0
 10
-10.8183
 20
1.7164
 30
0.0
 10
-10.8183
 20
1.7164
 30
0.0
 10
-12.1273
 20
2.6384
 30
0.0
 10
-12.1273
 20
2.6384
 30
0.0
 10
-12.1273
 20
2.6384
 30
0.0
 10
-12.1273
 20
2.6384
 30
0.0
 10
-12.1273
 20
2.8411
 30
0.0
 10
-12.1273
 20
2.8411
 30
0.0
 10
-12.1273
 20
2.8411
 30
0.0
 10
-12.1273
 20
2.8411
 30
0.0
 10
-10.8183
 20
2.8411
 30
0.0
 10
-10.8183
 20
2.8411
 30
0.0
 10
-10.8183
 20
2.8411
 30
0.0
 10
-10.8183
 20
2.8411
 30
0.0
 10
-10.8183
 20
3.1139
 30
0.0
 10
-10.8183
 20
3.1139
 30
0.0
 10
-10.8183
 20
3.1139
 30
0.0
 10
-10.8183
 20
3.1139
 30
0.0
 10
-10.5906
 20
3.1139
 30
0.0
 10
-10.5906
 20
3.1139
 30
0.0
 10
-10.5906
 20
3.1139
 30
0.0
 10
-10.5906
 20
3.1139
 30
0.0
 10
-10.5906
 20
2.8411
 30
0.0
 10
-10.5906
 20
2.8411
 30
0.0
 10
-10.5906
 20
2.8411
 30
0.0
 10
-10.5906
 20
2.8411
 30
0.0
 10
-10.1071
 20
2.8411
 30
0.0
 10
-10.1071
 20
2.8411
 30
0.0
 10
-10.1071
 20
2.8411
 30
0.0
 10
-10.1071
 20
2.8411
 30
0.0
 10
-10.1071
 20
2.5927
 30
0.0
 10
-10.1071
 20
2.5927
 30
0.0
  0
SPLINE
  5
5B
330
1F
100
AcDbEntity
  8
VRSTVA_1
 62
   250
100
AcDbSpline
210
0.0
220
0.0
230
1.0
 70
    11
 71
     3
 72
    16
 73
    12
 74
     0
 42
0.0000000001
 43
0.0000000001
 40
0.0
 40
0.0
 40
0.0
 40
0.0
 40
0.25
 40
0.25
 40
0.25
 40
0.25
 40
0.5
 40
0.5
 40
0.5
 40
0.5
 40
1.0
 40
1.0
 40
1.0
 40
1.0
 10
-10.8183
 20
2.5927
 30
0.0
 10
-10.8183
 20
2.5927
 30
0.0
 10
-11.7289
 20
2.5927
 30
0.0
 10
-11.7289
 20
2.5927
 30
0.0
 10
-11.7289
 20
2.5927
 30
0.0
 10
-11.7289
 20
2.5927
 30
0.0
 10
-10.8183
 20
1.9606
 30
0.0
 10
-10.8183
 20
1.9606
 30
0.0
 10
-10.8183
 20
1.9606
 30
0.0
 10
-10.8183
 20
1.9606
 30
0.0
 10
-10.8183
 20
2.5927
 30
0.0
 10
-10.8183
 20
2.5927
 30
0.0
  0
SPLINE
  5
5C
330
1F
100
AcDbEntity
  8
VRSTVA_1
 62
   250
100
AcDbSpline
210
0.0
220
0.0
230
1.0
 70
    11
 71
     3
 72
    52
 73
    48
 74
     0
 42
0.0000000001
 43
0.0000000001
 40
0.0
 40
0.0
 40
0.0
 40
0.0
 40
0.0769230769230769
 40
0.0769230769230769
 40
0.0769230769230769
 40
0.0769230769230769
 40
0.1538461538461539
 40
0.1538461538461539
 40
0.1538461538461539
 40
0.1538461538461539
 40
0.2307692307692308
 40
0.2307692307692308
 40
0.2307692307692308
 40
0.2307692307692308
 40
0.3076923076923077
 40
0.3076923076923077
 40
0.3076923076923077
 40
0.3076923076923077
 40
0.3846153846153846
 40
0.3846153846153846
 40
0.3846153846153846
 40
0.3846153846153846
 40
0.4615384615384616
 40
0.4615384615384616
 40
0.4615384615384616
 40
0.4615384615384616
 40
0.5384615384615384
 40
0.5384615384615384
 40
0.5384615384615384
 40
0.5384615384615384
 40
0.6153846153846154
 40
0.6153846153846154
 40
0.6153846153846154
 40
0.6153846153846154
 40
0.6923076923076923
 40
0.6923076923076923
 40
0.6923076923076923
 40
0.6923076923076923
 40
0.7692307692307693
 40
0.7692307692307693
 40
0.7692307692307693
 40
0.7692307692307693
 40
0.8461538461538461
 40
0.8461538461538461
 40
0.8461538461538461
 40
0.8461538461538461
 40
1.0
 40
1.0
 40
1.0
 40
1.0
 10
-11.1033
 20
3.3674
 30
0.0
 10
-11.3423
 20
3.3674
 30
0.0
 10
-11.5347
 20
3.3919
 30
0.0
 10
-11.68
 20
3.4413
 30
0.0
 10
-11.68
 20
3.4413
 30
0.0
 10
-11.8258
 20
3.4902
 30
0.0
 10
-11.9382
 20
3.5636
 30
0.0
 10
-12.0173
 20
3.6605
 30
0.0
 10
-12.0173
 20
3.6605
 30
0.0
 10
-12.0963
 20
3.7574
 30
0.0
 10
-12.1358
 20
3.8792
 30
0.0
 10
-12.1358
 20
4.0259
 30
0.0
 10
-12.1358
 20
4.0259
 30
0.0
 10
-12.1358
 20
4.1346
 30
0.0
 10
-12.1137
 20
4.2296
 30
0.0
 10
-12.0699
 20
4.3114
 30
0.0
 10
-12.0699
 20
4.3114
 30
0.0
 10
-12.0267
 20
4.3933
 30
0.0
 10
-11.9636
 20
4.4606
 30
0.0
 10
-11.8813
 20
4.5142
 30
0.0
 10
-11.8813
 20
4.5142
 30
0.0
 10
-11.799
 20
4.5673
 30
0.0
 10
-11.6988
 20
4.6092
 30
0.0
 10
-11.5808
 20
4.6393
 30
0.0
 10
-11.5808
 20
4.6393
 30
0.0
 10
-11.4627
 20
4.6699
 30
0.0
 10
-11.3037
 20
4.6849
 30
0.0
 10
-11.1033
 20
4.6849
 30
0.0
 10
-11.1033
 20
4.6849
 30
0.0
 10
-10.8663
 20
4.6849
 30
0.0
 10
-10.6753
 20
4.6605
 30
0.0
 10
-10.5295
 20
4.612
 30
0.0
 10
-10.5295
 20
4.612
 30
0.0
 10
-10.3837
 20
4.5631
 30
0.0
 10
-10.2713
 20
4.4902
 30
0.0
 10
-10.1918
 20
4.3933
 30
0.0
 10
-10.1918
 20
4.3933
 30
0.0
 10
-10.1123
 20
4.2964
 30
0.0
 10
-10.0728
 20
4.1741
 30
0.0
 10
-10.0728
 20
4.0259
 30
0.0
 10
-10.0728
 20
4.0259
 30
0.0
 10
-10.0728
 20
3.8312
 30
0.0
 10
-10.1424
 20
3.6783
 30
0.0
 10
-10.2821
 20
3.5673
 30
0.0
 10
-10.2821
 20
3.5673
 30
0.0
 10
-10.45
 20
3.4342
 30
0.0
 10
-10.7242
 20
3.3674
 30
0.0
 10
-11.1033
 20
3.3674
 30
0.0
  0
SPLINE
  5
5D
330
1F
100
AcDbEntity
  8
VRSTVA_1
 62
   250
100
AcDbSpline
210
0.0
220
0.0
230
1.0
 70
    11
 71
     3
 72
    36
 73
    32
 74
     0
 42
0.0000000001
 43
0.0000000001
 40
0.0
 40
0.0
 40
0.0
 40
0.0
 40
0.1111111111111111
 40
0.1111111111111111
 40
0.1111111111111111
 40
0.1111111111111111
 40
0.2222222222222222
 40
0.2222222222222222
 40
0.2222222222222222
 40
0.2222222222222222
 40
0.3333333333333333
 40
0.3333333333333333
 40
0.3333333333333333
 40
0.3333333333333333
 40
0.4444444444444444
 40
0.4444444444444444
 40
0.4444444444444444
 40
0.4444444444444444
 40
0.5555555555555556
 40
0.5555555555555556
 40
0.5555555555555556
 40
0.5555555555555556
 40
0.6666666666666666
 40
0.6666666666666666
 40
0.6666666666666666
 40
0.6666666666666666
 40
0.7777777777777778
 40
0.7777777777777778
 40
0.7777777777777778
 40
0.7777777777777778
 40
1.0
 40
1.0
 40
1.0
 40
1.0
 10
-11.1033
 20
3.6224
 30
0.0
 10
-10.7717
 20
3.6224
 30
0.0
 10
-10.5511
 20
3.6614
 30
0.0
 10
-10.4411
 20
3.739
 30
0.0
 10
-10.4411
 20
3.739
 30
0.0
 10
-10.3315
 20
3.8166
 30
0.0
 10
-10.2764
 20
3.9121
 30
0.0
 10
-10.2764
 20
4.0259
 30
0.0
 10
-10.2764
 20
4.0259
 30
0.0
 10
-10.2764
 20
4.1402
 30
0.0
 10
-10.3319
 20
4.2357
 30
0.0
 10
-10.442
 20
4.3133
 30
0.0
 10
-10.442
 20
4.3133
 30
0.0
 10
-10.5521
 20
4.3909
 30
0.0
 10
-10.7727
 20
4.43
 30
0.0
 10
-11.1033
 20
4.43
 30
0.0
 10
-11.1033
 20
4.43
 30
0.0
 10
-11.4359
 20
4.43
 30
0.0
 10
-11.657
 20
4.3909
 30
0.0
 10
-11.7661
 20
4.3133
 30
0.0
 10
-11.7661
 20
4.3133
 30
0.0
 10
-11.8757
 20
4.2357
 30
0.0
 10
-11.9302
 20
4.1393
 30
0.0
 10
-11.9302
 20
4.0236
 30
0.0
 10
-11.9302
 20
4.0236
 30
0.0
 10
-11.9302
 20
3.9093
 30
0.0
 10
-11.8818
 20
3.8185
 30
0.0
 10
-11.7854
 20
3.7503
 30
0.0
 10
-11.7854
 20
3.7503
 30
0.0
 10
-11.6626
 20
3.6652
 30
0.0
 10
-11.4349
 20
3.6224
 30
0.0
 10
-11.1033
 20
3.6224
 30
0.0
  0
SPLINE
  5
5E
330
1F
100
AcDbEntity
  8
VRSTVA_1
 62
   250
100
AcDbSpline
210
0.0
220
0.0
230
1.0
 70
    11
 71
     3
 72
    92
 73
    88
 74
     0
 42
0.0000000001
 43
0.0000000001
 40
0.0
 40
0.0
 40
0.0
 40
0.0
 40
0.0434782608695652
 40
0.0434782608695652
 40
0.0434782608695652
 40
0.0434782608695652
 40
0.0869565217391304
 40
0.0869565217391304
 40
0.0869565217391304
 40
0.0869565217391304
 40
0.1304347826086956
 40
0.1304347826086956
 40
0.1304347826086956
 40
0.1304347826086956
 40
0.1739130434782609
 40
0.1739130434782609
 40
0.1739130434782609
 40
0.1739130434782609
 40
0.2173913043478261
 40
0.2173913043478261
 40
0.2173913043478261
 40
0.2173913043478261
 40
0.2608695652173913
 40
0.2608695652173913
 40
0.2608695652173913
 40
0.2608695652173913
 40
0.3043478260869565
 40
0.3043478260869565
 40
0.3043478260869565
 40
0.3043478260869565
 40
0.3478260869565217
 40
0.3478260869565217
 40
0.3478260869565217
 40
0.3478260869565217
 40
0.391304347826087
 40
0.391304347826087
 40
0.391304347826087
 40
0.391304347826087
 40
0.4347826086956522
 40
0.4347826086956522
 40
0.4347826086956522
 40
0.4347826086956522
 40
0.4782608695652174
 40
0.4782608695652174
 40
0.4782608695652174
 40
0.4782608695652174
 40
0.5217391304347826
 40
0.5217391304347826
 40
0.5217391304347826
 40
0.5217391304347826
 40
0.5652173913043478
 40
0.5652173913043478
 40
0.5652173913043478
 40
0.5652173913043478
 40
0.6086956521739131
 40
0.6086956521739131
 40
0.6086956521739131
 40
0.6086956521739131
 40
0.6521739130434783
 40
0.6521739130434783
 40
0.6521739130434783
 40
0.6521739130434783
 40
0.6956521739130435
 40
0.6956521739130435
 40
0.6956521739130435
 40
0.6956521739130435
 40
0.7391304347826086
 40
0.7391304347826086
 40
0.7391304347826086
 40
0.7391304347826086
 40
0.782608695652174
 40
0.782608695652174
 40
0.782608695652174
 40
0.782608695652174
 40
0.8260869565217391
 40
0.8260869565217391
 40
0.8260869565217391
 40
0.8260869565217391
 40
0.8695652173913043
 40
0.8695652173913043
 40
0.8695652173913043
 40
0.8695652173913043
 40
0.9130434782608695
 40
0.9130434782608695
 40
0.9130434782608695
 40
0.9130434782608695
 40
1.0
 40
1.0
 40
1.0
 40
1.0
 10
-10.6363
 20
4.937
 30
0.0
 10
-10.6363
 20
4.937
 30
0.0
 10
-10.6584
 20
5.1976
 30
0.0
 10
-10.6584
 20
5.1976
 30
0.0
 10
-10.6584
 20
5.1976
 30
0.0
 10
-10.5314
 20
5.2169
 30
0.0
 10
-10.4364
 20
5.2616
 30
0.0
 10
-10.3724
 20
5.3317
 30
0.0
 10
-10.3724
 20
5.3317
 30
0.0
 10
-10.3084
 20
5.4022
 30
0.0
 10
-10.2764
 20
5.4869
 30
0.0
 10
-10.2764
 20
5.5861
 30
0.0
 10
-10.2764
 20
5.5861
 30
0.0
 10
-10.2764
 20
5.7056
 30
0.0
 10
-10.3216
 20
5.8067
 30
0.0
 10
-10.4114
 20
5.889
 30
0.0
 10
-10.4114
 20
5.889
 30
0.0
 10
-10.5017
 20
5.9718
 30
0.0
 10
-10.6212
 20
6.0132
 30
0.0
 10
-10.7698
 20
6.0132
 30
0.0
 10
-10.7698
 20
6.0132
 30
0.0
 10
-10.9114
 20
6.0132
 30
0.0
 10
-11.0229
 20
5.9737
 30
0.0
 10
-11.1047
 20
5.8942
 30
0.0
 10
-11.1047
 20
5.8942
 30
0.0
 10
-11.1866
 20
5.8147
 30
0.0
 10
-11.2275
 20
5.7108
 30
0.0
 10
-11.2275
 20
5.5819
 30
0.0
 10
-11.2275
 20
5.5819
 30
0.0
 10
-11.2275
 20
5.5019
 30
0.0
 10
-11.2092
 20
5.43
 30
0.0
 10
-11.173
 20
5.3655
 30
0.0
 10
-11.173
 20
5.3655
 30
0.0
 10
-11.1367
 20
5.3011
 30
0.0
 10
-11.0897
 20
5.2508
 30
0.0
 10
-11.0318
 20
5.2141
 30
0.0
 10
-11.0318
 20
5.2141
 30
0.0
 10
-11.0318
 20
5.2141
 30
0.0
 10
-11.0619
 20
4.9812
 30
0.0
 10
-11.0619
 20
4.9812
 30
0.0
 10
-11.0619
 20
4.9812
 30
0.0
 10
-11.0619
 20
4.9812
 30
0.0
 10
-12.0996
 20
5.1769
 30
0.0
 10
-12.0996
 20
5.1769
 30
0.0
 10
-12.0996
 20
5.1769
 30
0.0
 10
-12.0996
 20
5.1769
 30
0.0
 10
-12.0996
 20
6.1816
 30
0.0
 10
-12.0996
 20
6.1816
 30
0.0
 10
-12.0996
 20
6.1816
 30
0.0
 10
-12.0996
 20
6.1816
 30
0.0
 10
-11.8625
 20
6.1816
 30
0.0
 10
-11.8625
 20
6.1816
 30
0.0
 10
-11.8625
 20
6.1816
 30
0.0
 10
-11.8625
 20
6.1816
 30
0.0
 10
-11.8625
 20
5.3754
 30
0.0
 10
-11.8625
 20
5.3754
 30
0.0
 10
-11.8625
 20
5.3754
 30
0.0
 10
-11.8625
 20
5.3754
 30
0.0
 10
-11.3197
 20
5.2663
 30
0.0
 10
-11.3197
 20
5.2663
 30
0.0
 10
-11.3197
 20
5.2663
 30
0.0
 10
-11.4044
 20
5.3876
 30
0.0
 10
-11.4467
 20
5.5151
 30
0.0
 10
-11.4467
 20
5.6482
 30
0.0
 10
-11.4467
 20
5.6482
 30
0.0
 10
-11.4467
 20
5.8246
 30
0.0
 10
-11.3856
 20
5.9732
 30
0.0
 10
-11.2633
 20
6.0946
 30
0.0
 10
-11.2633
 20
6.0946
 30
0.0
 10
-11.141
 20
6.2159
 30
0.0
 10
-10.9839
 20
6.2766
 30
0.0
 10
-10.792
 20
6.2766
 30
0.0
 10
-10.792
 20
6.2766
 30
0.0
 10
-10.609
 20
6.2766
 30
0.0
 10
-10.4509
 20
6.223
 30
0.0
 10
-10.3178
 20
6.1167
 30
0.0
 10
-10.3178
 20
6.1167
 30
0.0
 10
-10.1546
 20
5.9869
 30
0.0
 10
-10.0728
 20
5.81
 30
0.0
 10
-10.0728
 20
5.5861
 30
0.0
 10
-10.0728
 20
5.5861
 30
0.0
 10
-10.0728
 20
5.4022
 30
0.0
 10
-10.124
 20
5.2522
 30
0.0
 10
-10.227
 20
5.136
 30
0.0
 10
-10.227
 20
5.136
 30
0.0
 10
-10.3301
 20
5.0198
 30
0.0
 10
-10.4665
 20
4.9535
 30
0.0
 10
-10.6363
 20
4.937
 30
0.0
  0
SPLINE
  5
5F
330
1F
100
AcDbEntity
  8
VRSTVA_1
100
AcDbSpline
210
0.0
220
0.0
230
1.0
 70
    24
 71
     3
 72
     8
 73
     4
 74
     0
 42
0.0000000001
 43
0.0000000001
 40
0.0
 40
0.0
 40
0.0
 40
0.0
 40
1.0
 40
1.0
 40
1.0
 40
1.0
 10
13.8485
 20
-37.2353
 30
0.0
 10
13.8485
 20
-37.2353
 30
0.0
 10
-13.8485
 20
-37.2353
 30
0.0
 10
-13.8485
 20
-37.2353
 30
0.0
  0
SPLINE
  5
60
330
1F
100
AcDbEntity
  8
VRSTVA_1
 62
   250
100
AcDbSpline
210
0.0
220
0.0
230
1.0
 70
    11
 71
     3
 72
    16
 73
    12
 74
     0
 42
0.0000000001
 43
0.0000000001
 40
0.0
 40
0.0
 40
0.0
 40
0.0
 40
0.25
 40
0.25
 40
0.25
 40
0.25
 40
0.5
 40
0.5
 40
0.5
 40
0.5
 40
1.0
 40
1.0
 40
1.0
 40
1.0
 10
13.0408
 20
-37.7255
 30
0.0
 10
13.0408
 20
-37.7255
 30
0.0
 10
13.0408
 20
-36.7884
 30
0.0
 10
13.0408
 20
-36.7884
 30
0.0
 10
13.0408
 20
-36.7884
 30
0.0
 10
13.0408
 20
-36.7884
 30
0.0
 10
10.0417
 20
-37.2569
 30
0.0
 10
10.0417
 20
-37.2569
 30
0.0
 10
10.0417
 20
-37.2569
 30
0.0
 10
10.0417
 20
-37.2569
 30
0.0
 10
13.0408
 20
-37.7255
 30
0.0
 10
13.0408
 20
-37.7255
 30
0.0
  0
SPLINE
  5
61
330
1F
100
AcDbEntity
  8
VRSTVA_1
 62
   250
100
AcDbSpline
210
0.0
220
0.0
230
1.0
 70
    11
 71
     3
 72
    16
 73
    12
 74
     0
 42
0.0000000001
 43
0.0000000001
 40
0.0
 40
0.0
 40
0.0
 40
0.0
 40
0.25
 40
0.25
 40
0.25
 40
0.25
 40
0.5
 40
0.5
 40
0.5
 40
0.5
 40
1.0
 40
1.0
 40
1.0
 40
1.0
 10
-2.3895
 20
-36.7482
 30
0.0
 10
-2.3895
 20
-36.7482
 30
0.0
 10
-2.3895
 20
-37.6849
 30
0.0
 10
-2.3895
 20
-37.6849
 30
0.0
 10
-2.3895
 20
-37.6849
 30
0.0
 10
-2.3895
 20
-37.6849
 30
0.0
 10
0.6086
 20
-37.2166
 30
0.0
 10
0.6086
 20
-37.2166
 30
0.0
 10
0.6086
 20
-37.2166
 30
0.0
 10
0.6086
 20
-37.2166
 30
0.0
 10
-2.3895
 20
-36.7482
 30
0.0
 10
-2.3895
 20
-36.7482
 30
0.0
  0
SPLINE
  5
62
330
1F
100
AcDbEntity
  8
VRSTVA_1
 62
   250
100
AcDbSpline
210
0.0
220
0.0
230
1.0
 70
    11
 71
     3
 72
    36
 73
    32
 74
     0
 42
0.0000000001
 43
0.0000000001
 40
0.0
 40
0.0
 40
0.0
 40
0.0
 40
0.1111111111111111
 40
0.1111111111111111
 40
0.1111111111111111
 40
0.1111111111111111
 40
0.2222222222222222
 40
0.2222222222222222
 40
0.2222222222222222
 40
0.2222222222222222
 40
0.3333333333333333
 40
0.3333333333333333
 40
0.3333333333333333
 40
0.3333333333333333
 40
0.4444444444444444
 40
0.4444444444444444
 40
0.4444444444444444
 40
0.4444444444444444
 40
0.5555555555555556
 40
0.5555555555555556
 40
0.5555555555555556
 40
0.5555555555555556
 40
0.6666666666666666
 40
0.6666666666666666
 40
0.6666666666666666
 40
0.6666666666666666
 40
0.7777777777777778
 40
0.7777777777777778
 40
0.7777777777777778
 40
0.7777777777777778
 40
1.0
 40
1.0
 40
1.0
 40
1.0
 10
-12.9241
 20
-36.7177
 30
0.0
 10
-12.9241
 20
-36.7177
 30
0.0
 10
-12.9241
 20
-34.936
 30
0.0
 10
-12.9241
 20
-34.936
 30
0.0
 10
-12.9241
 20
-34.936
 30
0.0
 10
-12.9241
 20
-34.936
 30
0.0
 10
-13.5897
 20
-34.936
 30
0.0
 10
-13.5897
 20
-34.936
 30
0.0
 10
-13.5897
 20
-34.936
 30
0.0
 10
-13.5897
 20
-34.936
 30
0.0
 10
-13.5897
 20
-34.6975
 30
0.0
 10
-13.5897
 20
-34.6975
 30
0.0
 10
-13.5897
 20
-34.6975
 30
0.0
 10
-13.5897
 20
-34.6975
 30
0.0
 10
-11.9886
 20
-34.6975
 30
0.0
 10
-11.9886
 20
-34.6975
 30
0.0
 10
-11.9886
 20
-34.6975
 30
0.0
 10
-11.9886
 20
-34.6975
 30
0.0
 10
-11.9886
 20
-34.936
 30
0.0
 10
-11.9886
 20
-34.936
 30
0.0
 10
-11.9886
 20
-34.936
 30
0.0
 10
-11.9886
 20
-34.936
 30
0.0
 10
-12.6569
 20
-34.936
 30
0.0
 10
-12.6569
 20
-34.936
 30
0.0
 10
-12.6569
 20
-34.936
 30
0.0
 10
-12.6569
 20
-34.936
 30
0.0
 10
-12.6569
 20
-36.7177
 30
0.0
 10
-12.6569
 20
-36.7177
 30
0.0
 10
-12.6569
 20
-36.7177
 30
0.0
 10
-12.6569
 20
-36.7177
 30
0.0
 10
-12.9241
 20
-36.7177
 30
0.0
 10
-12.9241
 20
-36.7177
 30
0.0
  0
SPLINE
  5
63
330
1F
100
AcDbEntity
  8
VRSTVA_1
 62
   250
100
AcDbSpline
210
0.0
220
0.0
230
1.0
 70
    11
 71
     3
 72
    80
 73
    76
 74
     0
 42
0.0000000001
 43
0.0000000001
 40
0.0
 40
0.0
 40
0.0
 40
0.0
 40
0.05
 40
0.05
 40
0.05
 40
0.05
 40
0.1
 40
0.1
 40
0.1
 40
0.1
 40
0.15
 40
0.15
 40
0.15
 40
0.15
 40
0.2
 40
0.2
 40
0.2
 40
0.2
 40
0.25
 40
0.25
 40
0.25
 40
0.25
 40
0.3
 40
0.3
 40
0.3
 40
0.3
 40
0.35
 40
0.35
 40
0.35
 40
0.35
 40
0.4
 40
0.4
 40
0.4
 40
0.4
 40
0.45
 40
0.45
 40
0.45
 40
0.45
 40
0.5
 40
0.5
 40
0.5
 40
0.5
 40
0.55
 40
0.55
 40
0.55
 40
0.55
 40
0.6
 40
0.6
 40
0.6
 40
0.6
 40
0.65
 40
0.65
 40
0.65
 40
0.65
 40
0.7
 40
0.7
 40
0.7
 40
0.7
 40
0.75
 40
0.75
 40
0.75
 40
0.75
 40
0.8
 40
0.8
 40
0.8
 40
0.8
 40
0.85
 40
0.85
 40
0.85
 40
0.85
 40
0.9
 40
0.9
 40
0.9
 40
0.9
 40
1.0
 40
1.0
 40
1.0
 40
1.0
 10
-11.7101
 20
-36.7177
 30
0.0
 10
-11.7101
 20
-36.7177
 30
0.0
 10
-11.7101
 20
-34.6975
 30
0.0
 10
-11.7101
 20
-34.6975
 30
0.0
 10
-11.7101
 20
-34.6975
 30
0.0
 10
-11.7101
 20
-34.6975
 30
0.0
 10
-10.8145
 20
-34.6975
 30
0.0
 10
-10.8145
 20
-34.6975
 30
0.0
 10
-10.8145
 20
-34.6975
 30
0.0
 10
-10.6344
 20
-34.6975
 30
0.0
 10
-10.4975
 20
-34.7158
 30
0.0
 10
-10.4039
 20
-34.752
 30
0.0
 10
-10.4039
 20
-34.752
 30
0.0
 10
-10.3103
 20
-34.7883
 30
0.0
 10
-10.2355
 20
-34.8522
 30
0.0
 10
-10.179
 20
-34.9439
 30
0.0
 10
-10.179
 20
-34.9439
 30
0.0
 10
-10.1231
 20
-35.0361
 30
0.0
 10
-10.0953
 20
-35.1377
 30
0.0
 10
-10.0953
 20
-35.2487
 30
0.0
 10
-10.0953
 20
-35.2487
 30
0.0
 10
-10.0953
 20
-35.3922
 30
0.0
 10
-10.1414
 20
-35.5126
 30
0.0
 10
-10.2345
 20
-35.6109
 30
0.0
 10
-10.2345
 20
-35.6109
 30
0.0
 10
-10.3272
 20
-35.7092
 30
0.0
 10
-10.4707
 20
-35.7718
 30
0.0
 10
-10.6645
 20
-35.7986
 30
0.0
 10
-10.6645
 20
-35.7986
 30
0.0
 10
-10.5934
 20
-35.8325
 30
0.0
 10
-10.5398
 20
-35.8659
 30
0.0
 10
-10.5031
 20
-35.8993
 30
0.0
 10
-10.5031
 20
-35.8993
 30
0.0
 10
-10.425
 20
-35.9708
 30
0.0
 10
-10.3512
 20
-36.0606
 30
0.0
 10
-10.2811
 20
-36.1678
 30
0.0
 10
-10.2811
 20
-36.1678
 30
0.0
 10
-10.2811
 20
-36.1678
 30
0.0
 10
-9.9297
 20
-36.7177
 30
0.0
 10
-9.9297
 20
-36.7177
 30
0.0
 10
-9.9297
 20
-36.7177
 30
0.0
 10
-9.9297
 20
-36.7177
 30
0.0
 10
-10.2661
 20
-36.7177
 30
0.0
 10
-10.2661
 20
-36.7177
 30
0.0
 10
-10.2661
 20
-36.7177
 30
0.0
 10
-10.2661
 20
-36.7177
 30
0.0
 10
-10.5332
 20
-36.2972
 30
0.0
 10
-10.5332
 20
-36.2972
 30
0.0
 10
-10.5332
 20
-36.2972
 30
0.0
 10
-10.6113
 20
-36.1763
 30
0.0
 10
-10.6758
 20
-36.0832
 30
0.0
 10
-10.7266
 20
-36.0192
 30
0.0
 10
-10.7266
 20
-36.0192
 30
0.0
 10
-10.7769
 20
-35.9548
 30
0.0
 10
-10.822
 20
-35.9096
 30
0.0
 10
-10.862
 20
-35.8842
 30
0.0
 10
-10.862
 20
-35.8842
 30
0.0
 10
-10.902
 20
-35.8583
 30
0.0
 10
-10.9424
 20
-35.8405
 30
0.0
 10
-10.9838
 20
-35.8301
 30
0.0
 10
-10.9838
 20
-35.8301
 30
0.0
 10
-11.0144
 20
-35.824
 30
0.0
 10
-11.0638
 20
-35.8207
 30
0.0
 10
-11.1329
 20
-35.8207
 30
0.0
 10
-11.1329
 20
-35.8207
 30
0.0
 10
-11.1329
 20
-35.8207
 30
0.0
 10
-11.4429
 20
-35.8207
 30
0.0
 10
-11.4429
 20
-35.8207
 30
0.0
 10
-11.4429
 20
-35.8207
 30
0.0
 10
-11.4429
 20
-35.8207
 30
0.0
 10
-11.4429
 20
-36.7177
 30
0.0
 10
-11.4429
 20
-36.7177
 30
0.0
 10
-11.4429
 20
-36.7177
 30
0.0
 10
-11.4429
 20
-36.7177
 30
0.0
 10
-11.7101
 20
-36.7177
 30
0.0
 10
-11.7101
 20
-36.7177
 30
0.0
  0
SPLINE
  5
64
330
1F
100
AcDbEntity
  8
VRSTVA_1
 62
   250
100
AcDbSpline
210
0.0
220
0.0
230
1.0
 70
    11
 71
     3
 72
    36
 73
    32
 74
     0
 42
0.0000000001
 43
0.0000000001
 40
0.0
 40
0.0
 40
0.0
 40
0.0
 40
0.1111111111111111
 40
0.1111111111111111
 40
0.1111111111111111
 40
0.1111111111111111
 40
0.2222222222222222
 40
0.2222222222222222
 40
0.2222222222222222
 40
0.2222222222222222
 40
0.3333333333333333
 40
0.3333333333333333
 40
0.3333333333333333
 40
0.3333333333333333
 40
0.4444444444444444
 40
0.4444444444444444
 40
0.4444444444444444
 40
0.4444444444444444
 40
0.5555555555555556
 40
0.5555555555555556
 40
0.5555555555555556
 40
0.5555555555555556
 40
0.6666666666666666
 40
0.6666666666666666
 40
0.6666666666666666
 40
0.6666666666666666
 40
0.7777777777777778
 40
0.7777777777777778
 40
0.7777777777777778
 40
0.7777777777777778
 40
1.0
 40
1.0
 40
1.0
 40
1.0
 10
-11.4429
 20
-35.5893
 30
0.0
 10
-11.4429
 20
-35.5893
 30
0.0
 10
-10.8681
 20
-35.5893
 30
0.0
 10
-10.8681
 20
-35.5893
 30
0.0
 10
-10.8681
 20
-35.5893
 30
0.0
 10
-10.7463
 20
-35.5893
 30
0.0
 10
-10.6504
 20
-35.5766
 30
0.0
 10
-10.5817
 20
-35.5512
 30
0.0
 10
-10.5817
 20
-35.5512
 30
0.0
 10
-10.5125
 20
-35.5258
 30
0.0
 10
-10.4603
 20
-35.4853
 30
0.0
 10
-10.4246
 20
-35.4298
 30
0.0
 10
-10.4246
 20
-35.4298
 30
0.0
 10
-10.3888
 20
-35.3743
 30
0.0
 10
-10.371
 20
-35.3141
 30
0.0
 10
-10.371
 20
-35.2487
 30
0.0
 10
-10.371
 20
-35.2487
 30
0.0
 10
-10.371
 20
-35.1533
 30
0.0
 10
-10.4053
 20
-35.0747
 30
0.0
 10
-10.4749
 20
-35.0131
 30
0.0
 10
-10.4749
 20
-35.0131
 30
0.0
 10
-10.544
 20
-34.9515
 30
0.0
 10
-10.6536
 20
-34.9209
 30
0.0
 10
-10.8037
 20
-34.9209
 30
0.0
 10
-10.8037
 20
-34.9209
 30
0.0
 10
-10.8037
 20
-34.9209
 30
0.0
 10
-11.4429
 20
-34.9209
 30
0.0
 10
-11.4429
 20
-34.9209
 30
0.0
 10
-11.4429
 20
-34.9209
 30
0.0
 10
-11.4429
 20
-34.9209
 30
0.0
 10
-11.4429
 20
-35.5893
 30
0.0
 10
-11.4429
 20
-35.5893
 30
0.0
  0
SPLINE
  5
65
330
1F
100
AcDbEntity
  8
VRSTVA_1
 62
   250
100
AcDbSpline
210
0.0
220
0.0
230
1.0
 70
    11
 71
     3
 72
    80
 73
    76
 74
     0
 42
0.0000000001
 43
0.0000000001
 40
0.0
 40
0.0
 40
0.0
 40
0.0
 40
0.05
 40
0.05
 40
0.05
 40
0.05
 40
0.1
 40
0.1
 40
0.1
 40
0.1
 40
0.15
 40
0.15
 40
0.15
 40
0.15
 40
0.2
 40
0.2
 40
0.2
 40
0.2
 40
0.25
 40
0.25
 40
0.25
 40
0.25
 40
0.3
 40
0.3
 40
0.3
 40
0.3
 40
0.35
 40
0.35
 40
0.35
 40
0.35
 40
0.4
 40
0.4
 40
0.4
 40
0.4
 40
0.45
 40
0.45
 40
0.45
 40
0.45
 40
0.5
 40
0.5
 40
0.5
 40
0.5
 40
0.55
 40
0.55
 40
0.55
 40
0.55
 40
0.6
 40
0.6
 40
0.6
 40
0.6
 40
0.65
 40
0.65
 40
0.65
 40
0.65
 40
0.7
 40
0.7
 40
0.7
 40
0.7
 40
0.75
 40
0.75
 40
0.75
 40
0.75
 40
0.8
 40
0.8
 40
0.8
 40
0.8
 40
0.85
 40
0.85
 40
0.85
 40
0.85
 40
0.9
 40
0.9
 40
0.9
 40
0.9
 40
1.0
 40
1.0
 40
1.0
 40
1.0
 10
-7.7059
 20
-35.1923
 30
0.0
 10
-7.7059
 20
-35.1923
 30
0.0
 10
-7.9523
 20
-35.2116
 30
0.0
 10
-7.9523
 20
-35.2116
 30
0.0
 10
-7.9523
 20
-35.2116
 30
0.0
 10
-7.9744
 20
-35.1142
 30
0.0
 10
-8.0055
 20
-35.0432
 30
0.0
 10
-8.0459
 20
-34.9995
 30
0.0
 10
-8.0459
 20
-34.9995
 30
0.0
 10
-8.1132
 20
-34.9284
 30
0.0
 10
-8.196
 20
-34.8931
 30
0.0
 10
-8.2943
 20
-34.8931
 30
0.0
 10
-8.2943
 20
-34.8931
 30
0.0
 10
-8.3733
 20
-34.8931
 30
0.0
 10
-8.4424
 20
-34.9153
 30
0.0
 10
-8.5022
 20
-34.9595
 30
0.0
 10
-8.5022
 20
-34.9595
 30
0.0
 10
-8.5803
 20
-35.0164
 30
0.0
 10
-8.6419
 20
-35.0996
 30
0.0
 10
-8.687
 20
-35.2088
 30
0.0
 10
-8.687
 20
-35.2088
 30
0.0
 10
-8.7317
 20
-35.3179
 30
0.0
 10
-8.7552
 20
-35.4736
 30
0.0
 10
-8.7571
 20
-35.6758
 30
0.0
 10
-8.7571
 20
-35.6758
 30
0.0
 10
-8.6974
 20
-35.5851
 30
0.0
 10
-8.6245
 20
-35.5173
 30
0.0
 10
-8.5379
 20
-35.4731
 30
0.0
 10
-8.5379
 20
-35.4731
 30
0.0
 10
-8.4519
 20
-35.4294
 30
0.0
 10
-8.3611
 20
-35.4073
 30
0.0
 10
-8.2665
 20
-35.4073
 30
0.0
 10
-8.2665
 20
-35.4073
 30
0.0
 10
-8.101
 20
-35.4073
 30
0.0
 10
-7.9603
 20
-35.4679
 30
0.0
 10
-7.8441
 20
-35.5898
 30
0.0
 10
-7.8441
 20
-35.5898
 30
0.0
 10
-7.728
 20
-35.7116
 30
0.0
 10
-7.6696
 20
-35.8687
 30
0.0
 10
-7.6696
 20
-36.0615
 30
0.0
 10
-7.6696
 20
-36.0615
 30
0.0
 10
-7.6696
 20
-36.1885
 30
0.0
 10
-7.6974
 20
-36.3061
 30
0.0
 10
-7.752
 20
-36.4153
 30
0.0
 10
-7.752
 20
-36.4153
 30
0.0
 10
-7.8065
 20
-36.5239
 30
0.0
 10
-7.8818
 20
-36.6076
 30
0.0
 10
-7.9773
 20
-36.6655
 30
0.0
 10
-7.9773
 20
-36.6655
 30
0.0
 10
-8.0727
 20
-36.7233
 30
0.0
 10
-8.1809
 20
-36.752
 30
0.0
 10
-8.3023
 20
-36.752
 30
0.0
 10
-8.3023
 20
-36.752
 30
0.0
 10
-8.5092
 20
-36.752
 30
0.0
 10
-8.6776
 20
-36.6763
 30
0.0
 10
-8.8079
 20
-36.5239
 30
0.0
 10
-8.8079
 20
-36.5239
 30
0.0
 10
-8.9387
 20
-36.372
 30
0.0
 10
-9.0036
 20
-36.1213
 30
0.0
 10
-9.0036
 20
-35.7723
 30
0.0
 10
-9.0036
 20
-35.7723
 30
0.0
 10
-9.0036
 20
-35.3819
 30
0.0
 10
-8.9316
 20
-35.0982
 30
0.0
 10
-8.7872
 20
-34.9209
 30
0.0
 10
-8.7872
 20
-34.9209
 30
0.0
 10
-8.6616
 20
-34.7666
 30
0.0
 10
-8.4923
 20
-34.689
 30
0.0
 10
-8.2788
 20
-34.689
 30
0.0
 10
-8.2788
 20
-34.689
 30
0.0
 10
-8.1202
 20
-34.689
 30
0.0
 10
-7.99
 20
-34.7337
 30
0.0
 10
-7.8884
 20
-34.8231
 30
0.0
 10
-7.8884
 20
-34.8231
 30
0.0
 10
-7.7868
 20
-34.912
 30
0.0
 10
-7.7261
 20
-35.0352
 30
0.0
 10
-7.7059
 20
-35.1923
 30
0.0
  0
SPLINE
  5
66
330
1F
100
AcDbEntity
  8
VRSTVA_1
 62
   250
100
AcDbSpline
210
0.0
220
0.0
230
1.0
 70
    11
 71
     3
 72
    40
 73
    36
 74
     0
 42
0.0000000001
 43
0.0000000001
 40
0.0
 40
0.0
 40
0.0
 40
0.0
 40
0.1
 40
0.1
 40
0.1
 40
0.1
 40
0.2
 40
0.2
 40
0.2
 40
0.2
 40
0.3
 40
0.3
 40
0.3
 40
0.3
 40
0.4
 40
0.4
 40
0.4
 40
0.4
 40
0.5
 40
0.5
 40
0.5
 40
0.5
 40
0.6
 40
0.6
 40
0.6
 40
0.6
 40
0.7
 40
0.7
 40
0.7
 40
0.7
 40
0.8
 40
0.8
 40
0.8
 40
0.8
 40
1.0
 40
1.0
 40
1.0
 40
1.0
 10
-8.7186
 20
-36.0629
 30
0.0
 10
-8.7186
 20
-36.1486
 30
0.0
 10
-8.7002
 20
-36.2304
 30
0.0
 10
-8.664
 20
-36.3085
 30
0.0
 10
-8.664
 20
-36.3085
 30
0.0
 10
-8.6278
 20
-36.3866
 30
0.0
 10
-8.577
 20
-36.4458
 30
0.0
 10
-8.5121
 20
-36.4867
 30
0.0
 10
-8.5121
 20
-36.4867
 30
0.0
 10
-8.4467
 20
-36.5277
 30
0.0
 10
-8.378
 20
-36.5484
 30
0.0
 10
-8.3065
 20
-36.5484
 30
0.0
 10
-8.3065
 20
-36.5484
 30
0.0
 10
-8.2016
 20
-36.5484
 30
0.0
 10
-8.1118
 20
-36.506
 30
0.0
 10
-8.0365
 20
-36.4214
 30
0.0
 10
-8.0365
 20
-36.4214
 30
0.0
 10
-7.9613
 20
-36.3367
 30
0.0
 10
-7.9236
 20
-36.2219
 30
0.0
 10
-7.9236
 20
-36.0771
 30
0.0
 10
-7.9236
 20
-36.0771
 30
0.0
 10
-7.9236
 20
-35.9374
 30
0.0
 10
-7.9608
 20
-35.8273
 30
0.0
 10
-8.0351
 20
-35.7469
 30
0.0
 10
-8.0351
 20
-35.7469
 30
0.0
 10
-8.1094
 20
-35.6664
 30
0.0
 10
-8.203
 20
-35.6264
 30
0.0
 10
-8.3159
 20
-35.6264
 30
0.0
 10
-8.3159
 20
-35.6264
 30
0.0
 10
-8.4283
 20
-35.6264
 30
0.0
 10
-8.5234
 20
-35.6664
 30
0.0
 10
-8.6014
 20
-35.7469
 30
0.0
 10
-8.6014
 20
-35.7469
 30
0.0
 10
-8.6795
 20
-35.8273
 30
0.0
 10
-8.7186
 20
-35.9327
 30
0.0
 10
-8.7186
 20
-36.0629
 30
0.0
  0
SPLINE
  5
67
330
1F
100
AcDbEntity
  8
VRSTVA_1
 62
   250
100
AcDbSpline
210
0.0
220
0.0
230
1.0
 70
    11
 71
     3
 72
    52
 73
    48
 74
     0
 42
0.0000000001
 43
0.0000000001
 40
0.0
 40
0.0
 40
0.0
 40
0.0
 40
0.0769230769230769
 40
0.0769230769230769
 40
0.0769230769230769
 40
0.0769230769230769
 40
0.1538461538461539
 40
0.1538461538461539
 40
0.1538461538461539
 40
0.1538461538461539
 40
0.2307692307692308
 40
0.2307692307692308
 40
0.2307692307692308
 40
0.2307692307692308
 40
0.3076923076923077
 40
0.3076923076923077
 40
0.3076923076923077
 40
0.3076923076923077
 40
0.3846153846153846
 40
0.3846153846153846
 40
0.3846153846153846
 40
0.3846153846153846
 40
0.4615384615384616
 40
0.4615384615384616
 40
0.4615384615384616
 40
0.4615384615384616
 40
0.5384615384615384
 40
0.5384615384615384
 40
0.5384615384615384
 40
0.5384615384615384
 40
0.6153846153846154
 40
0.6153846153846154
 40
0.6153846153846154
 40
0.6153846153846154
 40
0.6923076923076923
 40
0.6923076923076923
 40
0.6923076923076923
 40
0.6923076923076923
 40
0.7692307692307693
 40
0.7692307692307693
 40
0.7692307692307693
 40
0.7692307692307693
 40
0.8461538461538461
 40
0.8461538461538461
 40
0.8461538461538461
 40
0.8461538461538461
 40
1.0
 40
1.0
 40
1.0
 40
1.0
 10
-7.4232
 20
-35.7215
 30
0.0
 10
-7.4232
 20
-35.4825
 30
0.0
 10
-7.3987
 20
-35.2901
 30
0.0
 10
-7.3493
 20
-35.1448
 30
0.0
 10
-7.3493
 20
-35.1448
 30
0.0
 10
-7.3004
 20
-34.999
 30
0.0
 10
-7.227
 20
-34.8866
 30
0.0
 10
-7.1301
 20
-34.8075
 30
0.0
 10
-7.1301
 20
-34.8075
 30
0.0
 10
-7.0332
 20
-34.7285
 30
0.0
 10
-6.9114
 20
-34.689
 30
0.0
 10
-6.7647
 20
-34.689
 30
0.0
 10
-6.7647
 20
-34.689
 30
0.0
 10
-6.656
 20
-34.689
 30
0.0
 10
-6.561
 20
-34.7111
 30
0.0
 10
-6.4792
 20
-34.7549
 30
0.0
 10
-6.4792
 20
-34.7549
 30
0.0
 10
-6.3973
 20
-34.7981
 30
0.0
 10
-6.33
 20
-34.8612
 30
0.0
 10
-6.2764
 20
-34.9435
 30
0.0
 10
-6.2764
 20
-34.9435
 30
0.0
 10
-6.2233
 20
-35.0258
 30
0.0
 10
-6.1814
 20
-35.126
 30
0.0
 10
-6.1513
 20
-35.244
 30
0.0
 10
-6.1513
 20
-35.244
 30
0.0
 10
-6.1207
 20
-35.3621
 30
0.0
 10
-6.1057
 20
-35.5211
 30
0.0
 10
-6.1057
 20
-35.7215
 30
0.0
 10
-6.1057
 20
-35.7215
 30
0.0
 10
-6.1057
 20
-35.9585
 30
0.0
 10
-6.1301
 20
-36.1495
 30
0.0
 10
-6.1786
 20
-36.2953
 30
0.0
 10
-6.1786
 20
-36.2953
 30
0.0
 10
-6.2275
 20
-36.4411
 30
0.0
 10
-6.3004
 20
-36.5535
 30
0.0
 10
-6.3973
 20
-36.633
 30
0.0
 10
-6.3973
 20
-36.633
 30
0.0
 10
-6.4942
 20
-36.7125
 30
0.0
 10
-6.6165
 20
-36.752
 30
0.0
 10
-6.7647
 20
-36.752
 30
0.0
 10
-6.7647
 20
-36.752
 30
0.0
 10
-6.9594
 20
-36.752
 30
0.0
 10
-7.1123
 20
-36.6824
 30
0.0
 10
-7.2233
 20
-36.5427
 30
0.0
 10
-7.2233
 20
-36.5427
 30
0.0
 10
-7.3564
 20
-36.3748
 30
0.0
 10
-7.4232
 20
-36.1006
 30
0.0
 10
-7.4232
 20
-35.7215
 30
0.0
  0
SPLINE
  5
68
330
1F
100
AcDbEntity
  8
VRSTVA_1
 62
   250
100
AcDbSpline
210
0.0
220
0.0
230
1.0
 70
    11
 71
     3
 72
    36
 73
    32
 74
     0
 42
0.0000000001
 43
0.0000000001
 40
0.0
 40
0.0
 40
0.0
 40
0.0
 40
0.1111111111111111
 40
0.1111111111111111
 40
0.1111111111111111
 40
0.1111111111111111
 40
0.2222222222222222
 40
0.2222222222222222
 40
0.2222222222222222
 40
0.2222222222222222
 40
0.3333333333333333
 40
0.3333333333333333
 40
0.3333333333333333
 40
0.3333333333333333
 40
0.4444444444444444
 40
0.4444444444444444
 40
0.4444444444444444
 40
0.4444444444444444
 40
0.5555555555555556
 40
0.5555555555555556
 40
0.5555555555555556
 40
0.5555555555555556
 40
0.6666666666666666
 40
0.6666666666666666
 40
0.6666666666666666
 40
0.6666666666666666
 40
0.7777777777777778
 40
0.7777777777777778
 40
0.7777777777777778
 40
0.7777777777777778
 40
1.0
 40
1.0
 40
1.0
 40
1.0
 10
-7.1682
 20
-35.7215
 30
0.0
 10
-7.1682
 20
-36.0531
 30
0.0
 10
-7.1292
 20
-36.2737
 30
0.0
 10
-7.0516
 20
-36.3837
 30
0.0
 10
-7.0516
 20
-36.3837
 30
0.0
 10
-6.974
 20
-36.4933
 30
0.0
 10
-6.8785
 20
-36.5484
 30
0.0
 10
-6.7647
 20
-36.5484
 30
0.0
 10
-6.7647
 20
-36.5484
 30
0.0
 10
-6.6504
 20
-36.5484
 30
0.0
 10
-6.5549
 20
-36.4929
 30
0.0
 10
-6.4773
 20
-36.3828
 30
0.0
 10
-6.4773
 20
-36.3828
 30
0.0
 10
-6.3997
 20
-36.2727
 30
0.0
 10
-6.3606
 20
-36.0521
 30
0.0
 10
-6.3606
 20
-35.7215
 30
0.0
 10
-6.3606
 20
-35.7215
 30
0.0
 10
-6.3606
 20
-35.3889
 30
0.0
 10
-6.3997
 20
-35.1678
 30
0.0
 10
-6.4773
 20
-35.0587
 30
0.0
 10
-6.4773
 20
-35.0587
 30
0.0
 10
-6.5549
 20
-34.9491
 30
0.0
 10
-6.6513
 20
-34.8946
 30
0.0
 10
-6.767
 20
-34.8946
 30
0.0
 10
-6.767
 20
-34.8946
 30
0.0
 10
-6.8813
 20
-34.8946
 30
0.0
 10
-6.9721
 20
-34.943
 30
0.0
 10
-7.0403
 20
-35.0394
 30
0.0
 10
-7.0403
 20
-35.0394
 30
0.0
 10
-7.1254
 20
-35.1622
 30
0.0
 10
-7.1682
 20
-35.3899
 30
0.0
 10
-7.1682
 20
-35.7215
 30
0.0
  0
SPLINE
  5
69
330
1F
100
AcDbEntity
  8
VRSTVA_1
 62
   250
100
AcDbSpline
210
0.0
220
0.0
230
1.0
 70
    11
 71
     3
 72
    64
 73
    60
 74
     0
 42
0.0000000001
 43
0.0000000001
 40
0.0
 40
0.0
 40
0.0
 40
0.0
 40
0.0625
 40
0.0625
 40
0.0625
 40
0.0625
 40
0.125
 40
0.125
 40
0.125
 40
0.125
 40
0.1875
 40
0.1875
 40
0.1875
 40
0.1875
 40
0.25
 40
0.25
 40
0.25
 40
0.25
 40
0.3125
 40
0.3125
 40
0.3125
 40
0.3125
 40
0.375
 40
0.375
 40
0.375
 40
0.375
 40
0.4375
 40
0.4375
 40
0.4375
 40
0.4375
 40
0.5
 40
0.5
 40
0.5
 40
0.5
 40
0.5625
 40
0.5625
 40
0.5625
 40
0.5625
 40
0.625
 40
0.625
 40
0.625
 40
0.625
 40
0.6875
 40
0.6875
 40
0.6875
 40
0.6875
 40
0.75
 40
0.75
 40
0.75
 40
0.75
 40
0.8125
 40
0.8125
 40
0.8125
 40
0.8125
 40
0.875
 40
0.875
 40
0.875
 40
0.875
 40
1.0
 40
1.0
 40
1.0
 40
1.0
 10
-5.95
 20
-36.7177
 30
0.0
 10
-5.95
 20
-36.7177
 30
0.0
 10
-5.4152
 20
-35.9571
 30
0.0
 10
-5.4152
 20
-35.9571
 30
0.0
 10
-5.4152
 20
-35.9571
 30
0.0
 10
-5.4152
 20
-35.9571
 30
0.0
 10
-5.91
 20
-35.2544
 30
0.0
 10
-5.91
 20
-35.2544
 30
0.0
 10
-5.91
 20
-35.2544
 30
0.0
 10
-5.91
 20
-35.2544
 30
0.0
 10
-5.6001
 20
-35.2544
 30
0.0
 10
-5.6001
 20
-35.2544
 30
0.0
 10
-5.6001
 20
-35.2544
 30
0.0
 10
-5.6001
 20
-35.2544
 30
0.0
 10
-5.3752
 20
-35.5973
 30
0.0
 10
-5.3752
 20
-35.5973
 30
0.0
 10
-5.3752
 20
-35.5973
 30
0.0
 10
-5.3334
 20
-35.6627
 30
0.0
 10
-5.299
 20
-35.7172
 30
0.0
 10
-5.2736
 20
-35.7614
 30
0.0
 10
-5.2736
 20
-35.7614
 30
0.0
 10
-5.2332
 20
-35.7008
 30
0.0
 10
-5.196
 20
-35.6471
 30
0.0
 10
-5.1617
 20
-35.6001
 30
0.0
 10
-5.1617
 20
-35.6001
 30
0.0
 10
-5.1617
 20
-35.6001
 30
0.0
 10
-4.9152
 20
-35.2544
 30
0.0
 10
-4.9152
 20
-35.2544
 30
0.0
 10
-4.9152
 20
-35.2544
 30
0.0
 10
-4.9152
 20
-35.2544
 30
0.0
 10
-4.6189
 20
-35.2544
 30
0.0
 10
-4.6189
 20
-35.2544
 30
0.0
 10
-4.6189
 20
-35.2544
 30
0.0
 10
-4.6189
 20
-35.2544
 30
0.0
 10
-5.1245
 20
-35.9435
 30
0.0
 10
-5.1245
 20
-35.9435
 30
0.0
 10
-5.1245
 20
-35.9435
 30
0.0
 10
-5.1245
 20
-35.9435
 30
0.0
 10
-4.5803
 20
-36.7177
 30
0.0
 10
-4.5803
 20
-36.7177
 30
0.0
 10
-4.5803
 20
-36.7177
 30
0.0
 10
-4.5803
 20
-36.7177
 30
0.0
 10
-4.8846
 20
-36.7177
 30
0.0
 10
-4.8846
 20
-36.7177
 30
0.0
 10
-4.8846
 20
-36.7177
 30
0.0
 10
-4.8846
 20
-36.7177
 30
0.0
 10
-5.1852
 20
-36.2629
 30
0.0
 10
-5.1852
 20
-36.2629
 30
0.0
 10
-5.1852
 20
-36.2629
 30
0.0
 10
-5.1852
 20
-36.2629
 30
0.0
 10
-5.2651
 20
-36.1401
 30
0.0
 10
-5.2651
 20
-36.1401
 30
0.0
 10
-5.2651
 20
-36.1401
 30
0.0
 10
-5.2651
 20
-36.1401
 30
0.0
 10
-5.6494
 20
-36.7177
 30
0.0
 10
-5.6494
 20
-36.7177
 30
0.0
 10
-5.6494
 20
-36.7177
 30
0.0
 10
-5.6494
 20
-36.7177
 30
0.0
 10
-5.95
 20
-36.7177
 30
0.0
 10
-5.95
 20
-36.7177
 30
0.0
  0
SPLINE
  5
6A
330
1F
100
AcDbEntity
  8
VRSTVA_1
 62
   250
100
AcDbSpline
210
0.0
220
0.0
230
1.0
 70
    11
 71
     3
 72
   124
 73
   120
 74
     0
 42
0.0000000001
 43
0.0000000001
 40
0.0
 40
0.0
 40
0.0
 40
0.0
 40
0.032258064516129
 40
0.032258064516129
 40
0.032258064516129
 40
0.032258064516129
 40
0.0645161290322581
 40
0.0645161290322581
 40
0.0645161290322581
 40
0.0645161290322581
 40
0.0967741935483871
 40
0.0967741935483871
 40
0.0967741935483871
 40
0.0967741935483871
 40
0.1290322580645161
 40
0.1290322580645161
 40
0.1290322580645161
 40
0.1290322580645161
 40
0.1612903225806452
 40
0.1612903225806452
 40
0.1612903225806452
 40
0.1612903225806452
 40
0.1935483870967742
 40
0.1935483870967742
 40
0.1935483870967742
 40
0.1935483870967742
 40
0.2258064516129032
 40
0.2258064516129032
 40
0.2258064516129032
 40
0.2258064516129032
 40
0.2580645161290323
 40
0.2580645161290323
 40
0.2580645161290323
 40
0.2580645161290323
 40
0.2903225806451613
 40
0.2903225806451613
 40
0.2903225806451613
 40
0.2903225806451613
 40
0.3225806451612903
 40
0.3225806451612903
 40
0.3225806451612903
 40
0.3225806451612903
 40
0.3548387096774194
 40
0.3548387096774194
 40
0.3548387096774194
 40
0.3548387096774194
 40
0.3870967741935484
 40
0.3870967741935484
 40
0.3870967741935484
 40
0.3870967741935484
 40
0.4193548387096774
 40
0.4193548387096774
 40
0.4193548387096774
 40
0.4193548387096774
 40
0.4516129032258064
 40
0.4516129032258064
 40
0.4516129032258064
 40
0.4516129032258064
 40
0.4838709677419355
 40
0.4838709677419355
 40
0.4838709677419355
 40
0.4838709677419355
 40
0.5161290322580645
 40
0.5161290322580645
 40
0.5161290322580645
 40
0.5161290322580645
 40
0.5483870967741935
 40
0.5483870967741935
 40
0.5483870967741935
 40
0.5483870967741935
 40
0.5806451612903226
 40
0.5806451612903226
 40
0.5806451612903226
 40
0.5806451612903226
 40
0.6129032258064516
 40
0.6129032258064516
 40
0.6129032258064516
 40
0.6129032258064516
 40
0.6451612903225806
 40
0.6451612903225806
 40
0.6451612903225806
 40
0.6451612903225806
 40
0.6774193548387096
 40
0.6774193548387096
 40
0.6774193548387096
 40
0.6774193548387096
 40
0.7096774193548387
 40
0.7096774193548387
 40
0.7096774193548387
 40
0.7096774193548387
 40
0.7419354838709677
 40
0.7419354838709677
 40
0.7419354838709677
 40
0.7419354838709677
 40
0.7741935483870968
 40
0.7741935483870968
 40
0.7741935483870968
 40
0.7741935483870968
 40
0.8064516129032258
 40
0.8064516129032258
 40
0.8064516129032258
 40
0.8064516129032258
 40
0.8387096774193549
 40
0.8387096774193549
 40
0.8387096774193549
 40
0.8387096774193549
 40
0.8709677419354839
 40
0.8709677419354839
 40
0.8709677419354839
 40
0.8709677419354839
 40
0.9032258064516129
 40
0.9032258064516129
 40
0.9032258064516129
 40
0.9032258064516129
 40
0.9354838709677419
 40
0.9354838709677419
 40
0.9354838709677419
 40
0.9354838709677419
 40
1.0
 40
1.0
 40
1.0
 40
1.0
 10
-4.4411
 20
-36.1843
 30
0.0
 10
-4.4411
 20
-36.1843
 30
0.0
 10
-4.1932
 20
-36.1514
 30
0.0
 10
-4.1932
 20
-36.1514
 30
0.0
 10
-4.1932
 20
-36.1514
 30
0.0
 10
-4.1645
 20
-36.292
 30
0.0
 10
-4.116
 20
-36.3931
 30
0.0
 10
-4.0478
 20
-36.4552
 30
0.0
 10
-4.0478
 20
-36.4552
 30
0.0
 10
-3.9792
 20
-36.5173
 30
0.0
 10
-3.8959
 20
-36.5484
 30
0.0
 10
-3.7976
 20
-36.5484
 30
0.0
 10
-3.7976
 20
-36.5484
 30
0.0
 10
-3.681
 20
-36.5484
 30
0.0
 10
-3.5822
 20
-36.5079
 30
0.0
 10
-3.5017
 20
-36.427
 30
0.0
 10
-3.5017
 20
-36.427
 30
0.0
 10
-3.4218
 20
-36.3461
 30
0.0
 10
-3.3813
 20
-36.2459
 30
0.0
 10
-3.3813
 20
-36.1264
 30
0.0
 10
-3.3813
 20
-36.1264
 30
0.0
 10
-3.3813
 20
-36.0126
 30
0.0
 10
-3.4185
 20
-35.9185
 30
0.0
 10
-3.4928
 20
-35.8447
 30
0.0
 10
-3.4928
 20
-35.8447
 30
0.0
 10
-3.5676
 20
-35.7709
 30
0.0
 10
-3.6621
 20
-35.7337
 30
0.0
 10
-3.7769
 20
-35.7337
 30
0.0
 10
-3.7769
 20
-35.7337
 30
0.0
 10
-3.8239
 20
-35.7337
 30
0.0
 10
-3.8823
 20
-35.7431
 30
0.0
 10
-3.9519
 20
-35.7614
 30
0.0
 10
-3.9519
 20
-35.7614
 30
0.0
 10
-3.9519
 20
-35.7614
 30
0.0
 10
-3.9241
 20
-35.5437
 30
0.0
 10
-3.9241
 20
-35.5437
 30
0.0
 10
-3.9241
 20
-35.5437
 30
0.0
 10
-3.9077
 20
-35.5455
 30
0.0
 10
-3.8945
 20
-35.5465
 30
0.0
 10
-3.8842
 20
-35.5465
 30
0.0
 10
-3.8842
 20
-35.5465
 30
0.0
 10
-3.7788
 20
-35.5465
 30
0.0
 10
-3.6838
 20
-35.5187
 30
0.0
 10
-3.5991
 20
-35.4637
 30
0.0
 10
-3.5991
 20
-35.4637
 30
0.0
 10
-3.5144
 20
-35.4087
 30
0.0
 10
-3.4721
 20
-35.3235
 30
0.0
 10
-3.4721
 20
-35.2088
 30
0.0
 10
-3.4721
 20
-35.2088
 30
0.0
 10
-3.4721
 20
-35.118
 30
0.0
 10
-3.5032
 20
-35.0423
 30
0.0
 10
-3.5648
 20
-34.983
 30
0.0
 10
-3.5648
 20
-34.983
 30
0.0
 10
-3.6264
 20
-34.9233
 30
0.0
 10
-3.7059
 20
-34.8931
 30
0.0
 10
-3.8033
 20
-34.8931
 30
0.0
 10
-3.8033
 20
-34.8931
 30
0.0
 10
-3.8997
 20
-34.8931
 30
0.0
 10
-3.9801
 20
-34.9237
 30
0.0
 10
-4.0441
 20
-34.9839
 30
0.0
 10
-4.0441
 20
-34.9839
 30
0.0
 10
-4.1085
 20
-35.0446
 30
0.0
 10
-4.1499
 20
-35.1359
 30
0.0
 10
-4.1683
 20
-35.2572
 30
0.0
 10
-4.1683
 20
-35.2572
 30
0.0
 10
-4.1683
 20
-35.2572
 30
0.0
 10
-4.4161
 20
-35.213
 30
0.0
 10
-4.4161
 20
-35.213
 30
0.0
 10
-4.4161
 20
-35.213
 30
0.0
 10
-4.386
 20
-35.0465
 30
0.0
 10
-4.3169
 20
-34.9176
 30
0.0
 10
-4.2096
 20
-34.8264
 30
0.0
 10
-4.2096
 20
-34.8264
 30
0.0
 10
-4.1019
 20
-34.7351
 30
0.0
 10
-3.9683
 20
-34.689
 30
0.0
 10
-3.8084
 20
-34.689
 30
0.0
 10
-3.8084
 20
-34.689
 30
0.0
 10
-3.6984
 20
-34.689
 30
0.0
 10
-3.5968
 20
-34.713
 30
0.0
 10
-3.5041
 20
-34.76
 30
0.0
 10
-3.5041
 20
-34.76
 30
0.0
 10
-3.4114
 20
-34.8075
 30
0.0
 10
-3.3404
 20
-34.872
 30
0.0
 10
-3.291
 20
-34.9538
 30
0.0
 10
-3.291
 20
-34.9538
 30
0.0
 10
-3.2421
 20
-35.0357
 30
0.0
 10
-3.2172
 20
-35.1222
 30
0.0
 10
-3.2172
 20
-35.2144
 30
0.0
 10
-3.2172
 20
-35.2144
 30
0.0
 10
-3.2172
 20
-35.3014
 30
0.0
 10
-3.2407
 20
-35.3809
 30
0.0
 10
-3.2877
 20
-35.4529
 30
0.0
 10
-3.2877
 20
-35.4529
 30
0.0
 10
-3.3348
 20
-35.5244
 30
0.0
 10
-3.4039
 20
-35.5813
 30
0.0
 10
-3.4956
 20
-35.6236
 30
0.0
 10
-3.4956
 20
-35.6236
 30
0.0
 10
-3.3762
 20
-35.6509
 30
0.0
 10
-3.2835
 20
-35.7083
 30
0.0
 10
-3.2172
 20
-35.7953
 30
0.0
 10
-3.2172
 20
-35.7953
 30
0.0
 10
-3.1513
 20
-35.8819
 30
0.0
 10
-3.1184
 20
-35.9905
 30
0.0
 10
-3.1184
 20
-36.1208
 30
0.0
 10
-3.1184
 20
-36.1208
 30
0.0
 10
-3.1184
 20
-36.2972
 30
0.0
 10
-3.1824
 20
-36.4468
 30
0.0
 10
-3.3112
 20
-36.5695
 30
0.0
 10
-3.3112
 20
-36.5695
 30
0.0
 10
-3.4397
 20
-36.6923
 30
0.0
 10
-3.6024
 20
-36.7534
 30
0.0
 10
-3.799
 20
-36.7534
 30
0.0
 10
-3.799
 20
-36.7534
 30
0.0
 10
-3.9763
 20
-36.7534
 30
0.0
 10
-4.1236
 20
-36.7008
 30
0.0
 10
-4.2407
 20
-36.5949
 30
0.0
 10
-4.2407
 20
-36.5949
 30
0.0
 10
-4.3578
 20
-36.4896
 30
0.0
 10
-4.4246
 20
-36.3527
 30
0.0
 10
-4.4411
 20
-36.1843
 30
0.0
  0
SPLINE
  5
6B
330
1F
100
AcDbEntity
  8
VRSTVA_1
100
AcDbSpline
210
0.0
220
0.0
230
1.0
 70
    24
 71
     3
 72
     8
 73
     4
 74
     0
 42
0.0000000001
 43
0.0000000001
 40
0.0
 40
0.0
 40
0.0
 40
0.0
 40
1.0
 40
1.0
 40
1.0
 40
1.0
 10
0.6441
 20
-33.4039
 30
0.0
 10
0.6441
 20
-33.4039
 30
0.0
 10
0.6441
 20
-37.6466
 30
0.0
 10
0.6441
 20
-37.6466
 30
0.0
  0
SPLINE
  5
6C
330
1F
100
AcDbEntity
  8
VRSTVA_1
100
AcDbSpline
210
0.0
220
0.0
230
1.0
 70
    24
 71
     3
 72
     8
 73
     4
 74
     0
 42
0.0000000001
 43
0.0000000001
 40
0.0
 40
0.0
 40
0.0
 40
0.0
 40
1.0
 40
1.0
 40
1.0
 40
1.0
 10
10.0518
 20
-33.4039
 30
0.0
 10
10.0518
 20
-33.4039
 30
0.0
 10
10.0518
 20
-37.6466
 30
0.0
 10
10.0518
 20
-37.6466
 30
0.0
  0
SPLINE
  5
6D
330
1F
100
AcDbEntity
  8
VRSTVA_1
100
AcDbSpline
210
0.0
220
0.0
230
1.0
 70
    24
 71
     3
 72
     8
 73
     4
 74
     0
 42
0.0000000001
 43
0.0000000001
 40
0.0
 40
0.0
 40
0.0
 40
0.0
 40
1.0
 40
1.0
 40
1.0
 40
1.0
 10
13.1766
 20
35.1333
 30
0.0
 10
13.1766
 20
35.1333
 30
0.0
 10
-2.2678
 20
35.1333
 30
0.0
 10
-2.2678
 20
35.1333
 30
0.0
  0
SPLINE
  5
6E
330
1F
100
AcDbEntity
  8
VRSTVA_1
 62
   250
100
AcDbSpline
210
0.0
220
0.0
230
1.0
 70
    11
 71
     3
 72
    16
 73
    12
 74
     0
 42
0.0000000001
 43
0.0000000001
 40
0.0
 40
0.0
 40
0.0
 40
0.0
 40
0.25
 40
0.25
 40
0.25
 40
0.25
 40
0.5
 40
0.5
 40
0.5
 40
0.5
 40
1.0
 40
1.0
 40
1.0
 40
1.0
 10
12.2659
 20
34.6752
 30
0.0
 10
12.2659
 20
34.6752
 30
0.0
 10
12.2659
 20
35.6125
 30
0.0
 10
12.2659
 20
35.6125
 30
0.0
 10
12.2659
 20
35.6125
 30
0.0
 10
12.2659
 20
35.6125
 30
0.0
 10
9.2659
 20
35.1438
 30
0.0
 10
9.2659
 20
35.1438
 30
0.0
 10
9.2659
 20
35.1438
 30
0.0
 10
9.2659
 20
35.1438
 30
0.0
 10
12.2659
 20
34.6752
 30
0.0
 10
12.2659
 20
34.6752
 30
0.0
  0
SPLINE
  5
6F
330
1F
100
AcDbEntity
  8
VRSTVA_1
 62
   250
100
AcDbSpline
210
0.0
220
0.0
230
1.0
 70
    11
 71
     3
 72
    16
 73
    12
 74
     0
 42
0.0000000001
 43
0.0000000001
 40
0.0
 40
0.0
 40
0.0
 40
0.0
 40
0.25
 40
0.25
 40
0.25
 40
0.25
 40
0.5
 40
0.5
 40
0.5
 40
0.5
 40
1.0
 40
1.0
 40
1.0
 40
1.0
 10
-1.4771
 20
35.6477
 30
0.0
 10
-1.4771
 20
35.6477
 30
0.0
 10
-1.4771
 20
34.7098
 30
0.0
 10
-1.4771
 20
34.7098
 30
0.0
 10
-1.4771
 20
34.7098
 30
0.0
 10
-1.4771
 20
34.7098
 30
0.0
 10
1.5248
 20
35.1787
 30
0.0
 10
1.5248
 20
35.1787
 30
0.0
 10
1.5248
 20
35.1787
 30
0.0
 10
1.5248
 20
35.1787
 30
0.0
 10
-1.4771
 20
35.6477
 30
0.0
 10
-1.4771
 20
35.6477
 30
0.0
  0
SPLINE
  5
70
330
1F
100
AcDbEntity
  8
VRSTVA_1
100
AcDbSpline
210
0.0
220
0.0
230
1.0
 70
    24
 71
     3
 72
     8
 73
     4
 74
     0
 42
0.0000000001
 43
0.0000000001
 40
0.0
 40
0.0
 40
0.0
 40
0.0
 40
1.0
 40
1.0
 40
1.0
 40
1.0
 10
1.488
 20
35.7698
 30
0.0
 10
1.488
 20
35.7698
 30
0.0
 10
1.488
 20
31.6664
 30
0.0
 10
1.488
 20
31.6664
 30
0.0
  0
SPLINE
  5
71
330
1F
100
AcDbEntity
  8
VRSTVA_1
100
AcDbSpline
210
0.0
220
0.0
230
1.0
 70
    24
 71
     3
 72
     8
 73
     4
 74
     0
 42
0.0000000001
 43
0.0000000001
 40
0.0
 40
0.0
 40
0.0
 40
0.0
 40
1.0
 40
1.0
 40
1.0
 40
1.0
 10
9.2042
 20
35.6892
 30
0.0
 10
9.2042
 20
35.6892
 30
0.0
 10
9.2042
 20
31.6128
 30
0.0
 10
9.2042
 20
31.6128
 30
0.0
  0
SPLINE
  5
72
330
1F
100
AcDbEntity
  8
VRSTVA_1
100
AcDbSpline
210
0.0
220
0.0
230
1.0
 70
    24
 71
     3
 72
     8
 73
     4
 74
     0
 42
0.0000000001
 43
0.0000000001
 40
0.0
 40
0.0
 40
0.0
 40
0.0
 40
1.0
 40
1.0
 40
1.0
 40
1.0
 10
2.9212
 20
31.1836
 30
0.0
 10
2.9212
 20
31.1836
 30
0.0
 10
2.9212
 20
29.2524
 30
0.0
 10
2.9212
 20
29.2524
 30
0.0
  0
SPLINE
  5
73
330
1F
100
AcDbEntity
  8
VRSTVA_1
100
AcDbSpline
210
0.0
220
0.0
230
1.0
 70
    24
 71
     3
 72
     8
 73
     4
 74
     0
 42
0.0000000001
 43
0.0000000001
 40
0.0
 40
0.0
 40
0.0
 40
0.0
 40
1.0
 40
1.0
 40
1.0
 40
1.0
 10
7.9555
 20
31.1568
 30
0.0
 10
7.9555
 20
31.1568
 30
0.0
 10
7.9555
 20
29.1183
 30
0.0
 10
7.9555
 20
29.1183
 30
0.0
  0
SPLINE
  5
74
330
1F
100
AcDbEntity
  8
VRSTVA_1
100
AcDbSpline
210
0.0
220
0.0
230
1.0
 70
    24
 71
     3
 72
     8
 73
     4
 74
     0
 42
0.0000000001
 43
0.0000000001
 40
0.0
 40
0.0
 40
0.0
 40
0.0
 40
1.0
 40
1.0
 40
1.0
 40
1.0
 10
11.9618
 20
30.8237
 30
0.0
 10
11.9618
 20
30.8237
 30
0.0
 10
-0.9737
 20
30.8237
 30
0.0
 10
-0.9737
 20
30.8237
 30
0.0
  0
SPLINE
  5
75
330
1F
100
AcDbEntity
  8
VRSTVA_1
 62
   250
100
AcDbSpline
210
0.0
220
0.0
230
1.0
 70
    11
 71
     3
 72
    16
 73
    12
 74
     0
 42
0.0000000001
 43
0.0000000001
 40
0.0
 40
0.0
 40
0.0
 40
0.0
 40
0.25
 40
0.25
 40
0.25
 40
0.25
 40
0.5
 40
0.5
 40
0.5
 40
0.5
 40
1.0
 40
1.0
 40
1.0
 40
1.0
 10
10.9358
 20
30.3504
 30
0.0
 10
10.9358
 20
30.3504
 30
0.0
 10
10.9358
 20
31.2877
 30
0.0
 10
10.9358
 20
31.2877
 30
0.0
 10
10.9358
 20
31.2877
 30
0.0
 10
10.9358
 20
31.2877
 30
0.0
 10
7.9362
 20
30.819
 30
0.0
 10
7.9362
 20
30.819
 30
0.0
 10
7.9362
 20
30.819
 30
0.0
 10
7.9362
 20
30.819
 30
0.0
 10
10.9358
 20
30.3504
 30
0.0
 10
10.9358
 20
30.3504
 30
0.0
  0
SPLINE
  5
76
330
1F
100
AcDbEntity
  8
VRSTVA_1
 62
   250
100
AcDbSpline
210
0.0
220
0.0
230
1.0
 70
    11
 71
     3
 72
    16
 73
    12
 74
     0
 42
0.0000000001
 43
0.0000000001
 40
0.0
 40
0.0
 40
0.0
 40
0.0
 40
0.25
 40
0.25
 40
0.25
 40
0.25
 40
0.5
 40
0.5
 40
0.5
 40
0.5
 40
1.0
 40
1.0
 40
1.0
 40
1.0
 10
-0.1042
 20
31.3114
 30
0.0
 10
-0.1042
 20
31.3114
 30
0.0
 10
-0.1042
 20
30.3743
 30
0.0
 10
-0.1042
 20
30.3743
 30
0.0
 10
-0.1042
 20
30.3743
 30
0.0
 10
-0.1042
 20
30.3743
 30
0.0
 10
2.8951
 20
30.8428
 30
0.0
 10
2.8951
 20
30.8428
 30
0.0
 10
2.8951
 20
30.8428
 30
0.0
 10
2.8951
 20
30.8428
 30
0.0
 10
-0.1042
 20
31.3114
 30
0.0
 10
-0.1042
 20
31.3114
 30
0.0
  0
SPLINE
  5
77
330
1F
100
AcDbEntity
  8
VRSTVA_1
 62
   250
100
AcDbSpline
210
0.0
220
0.0
230
1.0
 70
    11
 71
     3
 72
    84
 73
    80
 74
     0
 42
0.0000000001
 43
0.0000000001
 40
0.0
 40
0.0
 40
0.0
 40
0.0
 40
0.0476190476190476
 40
0.0476190476190476
 40
0.0476190476190476
 40
0.0476190476190476
 40
0.0952380952380952
 40
0.0952380952380952
 40
0.0952380952380952
 40
0.0952380952380952
 40
0.1428571428571428
 40
0.1428571428571428
 40
0.1428571428571428
 40
0.1428571428571428
 40
0.1904761904761905
 40
0.1904761904761905
 40
0.1904761904761905
 40
0.1904761904761905
 40
0.2380952380952381
 40
0.2380952380952381
 40
0.2380952380952381
 40
0.2380952380952381
 40
0.2857142857142857
 40
0.2857142857142857
 40
0.2857142857142857
 40
0.2857142857142857
 40
0.3333333333333333
 40
0.3333333333333333
 40
0.3333333333333333
 40
0.3333333333333333
 40
0.3809523809523809
 40
0.3809523809523809
 40
0.3809523809523809
 40
0.3809523809523809
 40
0.4285714285714285
 40
0.4285714285714285
 40
0.4285714285714285
 40
0.4285714285714285
 40
0.4761904761904762
 40
0.4761904761904762
 40
0.4761904761904762
 40
0.4761904761904762
 40
0.5238095238095238
 40
0.5238095238095238
 40
0.5238095238095238
 40
0.5238095238095238
 40
0.5714285714285714
 40
0.5714285714285714
 40
0.5714285714285714
 40
0.5714285714285714
 40
0.6190476190476191
 40
0.6190476190476191
 40
0.6190476190476191
 40
0.6190476190476191
 40
0.6666666666666666
 40
0.6666666666666666
 40
0.6666666666666666
 40
0.6666666666666666
 40
0.7142857142857143
 40
0.7142857142857143
 40
0.7142857142857143
 40
0.7142857142857143
 40
0.7619047619047619
 40
0.7619047619047619
 40
0.7619047619047619
 40
0.7619047619047619
 40
0.8095238095238095
 40
0.8095238095238095
 40
0.8095238095238095
 40
0.8095238095238095
 40
0.8571428571428571
 40
0.8571428571428571
 40
0.8571428571428571
 40
0.8571428571428571
 40
0.9047619047619048
 40
0.9047619047619048
 40
0.9047619047619048
 40
0.9047619047619048
 40
1.0
 40
1.0
 40
1.0
 40
1.0
 10
4.4097
 20
33.3672
 30
0.0
 10
4.4097
 20
33.3672
 30
0.0
 10
4.6411
 20
33.6263
 30
0.0
 10
4.6411
 20
33.6263
 30
0.0
 10
4.6411
 20
33.6263
 30
0.0
 10
4.6411
 20
33.6263
 30
0.0
 10
4.7775
 20
33.5106
 30
0.0
 10
4.7775
 20
33.5106
 30
0.0
 10
4.7775
 20
33.5106
 30
0.0
 10
4.7775
 20
33.5106
 30
0.0
 10
4.5353
 20
33.2378
 30
0.0
 10
4.5353
 20
33.2378
 30
0.0
 10
4.5353
 20
33.2378
 30
0.0
 10
4.6143
 20
33.1202
 30
0.0
 10
4.6674
 20
33.0172
 30
0.0
 10
4.6952
 20
32.9293
 30
0.0
 10
4.6952
 20
32.9293
 30
0.0
 10
4.7319
 20
32.8135
 30
0.0
 10
4.7502
 20
32.6837
 30
0.0
 10
4.7502
 20
32.5407
 30
0.0
 10
4.7502
 20
32.5407
 30
0.0
 10
4.7502
 20
32.3338
 30
0.0
 10
4.7084
 20
32.1494
 30
0.0
 10
4.6246
 20
31.9881
 30
0.0
 10
4.6246
 20
31.9881
 30
0.0
 10
4.5409
 20
31.8262
 30
0.0
 10
4.4238
 20
31.704
 30
0.0
 10
4.2728
 20
31.6212
 30
0.0
 10
4.2728
 20
31.6212
 30
0.0
 10
4.1213
 20
31.5389
 30
0.0
 10
3.961
 20
31.4975
 30
0.0
 10
3.7912
 20
31.4975
 30
0.0
 10
3.7912
 20
31.4975
 30
0.0
 10
3.6642
 20
31.4975
 30
0.0
 10
3.5494
 20
31.5153
 30
0.0
 10
3.4464
 20
31.5511
 30
0.0
 10
3.4464
 20
31.5511
 30
0.0
 10
3.3674
 20
31.5788
 30
0.0
 10
3.2752
 20
31.6315
 30
0.0
 10
3.1693
 20
31.7096
 30
0.0
 10
3.1693
 20
31.7096
 30
0.0
 10
3.1693
 20
31.7096
 30
0.0
 10
2.9379
 20
31.4504
 30
0.0
 10
2.9379
 20
31.4504
 30
0.0
 10
2.9379
 20
31.4504
 30
0.0
 10
2.9379
 20
31.4504
 30
0.0
 10
2.8015
 20
31.5661
 30
0.0
 10
2.8015
 20
31.5661
 30
0.0
 10
2.8015
 20
31.5661
 30
0.0
 10
2.8015
 20
31.5661
 30
0.0
 10
3.0442
 20
31.8375
 30
0.0
 10
3.0442
 20
31.8375
 30
0.0
 10
3.0442
 20
31.8375
 30
0.0
 10
2.9539
 20
31.9744
 30
0.0
 10
2.8937
 20
32.0915
 30
0.0
 10
2.8636
 20
32.1884
 30
0.0
 10
2.8636
 20
32.1884
 30
0.0
 10
2.8335
 20
32.2853
 30
0.0
 10
2.818
 20
32.402
 30
0.0
 10
2.818
 20
32.5379
 30
0.0
 10
2.818
 20
32.5379
 30
0.0
 10
2.818
 20
32.7453
 30
0.0
 10
2.8594
 20
32.9302
 30
0.0
 10
2.9421
 20
33.0925
 30
0.0
 10
2.9421
 20
33.0925
 30
0.0
 10
3.0249
 20
33.2548
 30
0.0
 10
3.1406
 20
33.3775
 30
0.0
 10
3.2902
 20
33.4612
 30
0.0
 10
3.2902
 20
33.4612
 30
0.0
 10
3.4393
 20
33.5445
 30
0.0
 10
3.6054
 20
33.5864
 30
0.0
 10
3.7883
 20
33.5864
 30
0.0
 10
3.7883
 20
33.5864
 30
0.0
 10
3.9116
 20
33.5864
 30
0.0
 10
4.0193
 20
33.5704
 30
0.0
 10
4.1115
 20
33.5374
 30
0.0
 10
4.1115
 20
33.5374
 30
0.0
 10
4.2037
 20
33.505
 30
0.0
 10
4.3034
 20
33.4481
 30
0.0
 10
4.4097
 20
33.3672
 30
0.0
  0
SPLINE
  5
78
330
1F
100
AcDbEntity
  8
VRSTVA_1
 62
   250
100
AcDbSpline
210
0.0
220
0.0
230
1.0
 70
    11
 71
     3
 72
    32
 73
    28
 74
     0
 42
0.0000000001
 43
0.0000000001
 40
0.0
 40
0.0
 40
0.0
 40
0.0
 40
0.125
 40
0.125
 40
0.125
 40
0.125
 40
0.25
 40
0.25
 40
0.25
 40
0.25
 40
0.375
 40
0.375
 40
0.375
 40
0.375
 40
0.5
 40
0.5
 40
0.5
 40
0.5
 40
0.625
 40
0.625
 40
0.625
 40
0.625
 40
0.75
 40
0.75
 40
0.75
 40
0.75
 40
1.0
 40
1.0
 40
1.0
 40
1.0
 10
4.2446
 20
33.1814
 30
0.0
 10
4.158
 20
33.2491
 30
0.0
 10
4.0823
 20
33.2957
 30
0.0
 10
4.0179
 20
33.3206
 30
0.0
 10
4.0179
 20
33.3206
 30
0.0
 10
3.953
 20
33.3451
 30
0.0
 10
3.8768
 20
33.3578
 30
0.0
 10
3.7897
 20
33.3578
 30
0.0
 10
3.7897
 20
33.3578
 30
0.0
 10
3.5884
 20
33.3578
 30
0.0
 10
3.4224
 20
33.2896
 30
0.0
 10
3.2907
 20
33.1532
 30
0.0
 10
3.2907
 20
33.1532
 30
0.0
 10
3.1594
 20
33.0167
 30
0.0
 10
3.0936
 20
32.8131
 30
0.0
 10
3.0936
 20
32.5417
 30
0.0
 10
3.0936
 20
32.5417
 30
0.0
 10
3.0936
 20
32.4354
 30
0.0
 10
3.1039
 20
32.3408
 30
0.0
 10
3.1242
 20
32.258
 30
0.0
 10
3.1242
 20
32.258
 30
0.0
 10
3.1388
 20
32.1964
 30
0.0
 10
3.1693
 20
32.1207
 30
0.0
 10
3.2164
 20
32.0309
 30
0.0
 10
3.2164
 20
32.0309
 30
0.0
 10
3.2164
 20
32.0309
 30
0.0
 10
4.2446
 20
33.1814
 30
0.0
 10
4.2446
 20
33.1814
 30
0.0
  0
SPLINE
  5
79
330
1F
100
AcDbEntity
  8
VRSTVA_1
 62
   250
100
AcDbSpline
210
0.0
220
0.0
230
1.0
 70
    11
 71
     3
 72
    28
 73
    24
 74
     0
 42
0.0000000001
 43
0.0000000001
 40
0.0
 40
0.0
 40
0.0
 40
0.0
 40
0.1428571428571428
 40
0.1428571428571428
 40
0.1428571428571428
 40
0.1428571428571428
 40
0.2857142857142857
 40
0.2857142857142857
 40
0.2857142857142857
 40
0.2857142857142857
 40
0.4285714285714285
 40
0.4285714285714285
 40
0.4285714285714285
 40
0.4285714285714285
 40
0.5714285714285714
 40
0.5714285714285714
 40
0.5714285714285714
 40
0.5714285714285714
 40
0.7142857142857143
 40
0.7142857142857143
 40
0.7142857142857143
 40
0.7142857142857143
 40
1.0
 40
1.0
 40
1.0
 40
1.0
 10
4.3575
 20
33.0393
 30
0.0
 10
4.3575
 20
33.0393
 30
0.0
 10
3.3335
 20
31.893
 30
0.0
 10
3.3335
 20
31.893
 30
0.0
 10
3.3335
 20
31.893
 30
0.0
 10
3.404
 20
31.8352
 30
0.0
 10
3.4694
 20
31.7947
 30
0.0
 10
3.5292
 20
31.7717
 30
0.0
 10
3.5292
 20
31.7717
 30
0.0
 10
3.6072
 20
31.7411
 30
0.0
 10
3.6919
 20
31.7261
 30
0.0
 10
3.7827
 20
31.7261
 30
0.0
 10
3.7827
 20
31.7261
 30
0.0
 10
3.9831
 20
31.7261
 30
0.0
 10
4.1482
 20
31.7966
 30
0.0
 10
4.2789
 20
31.9382
 30
0.0
 10
4.2789
 20
31.9382
 30
0.0
 10
4.4092
 20
32.0798
 30
0.0
 10
4.4746
 20
32.2783
 30
0.0
 10
4.4746
 20
32.5337
 30
0.0
 10
4.4746
 20
32.5337
 30
0.0
 10
4.4746
 20
32.7246
 30
0.0
 10
4.4356
 20
32.8935
 30
0.0
 10
4.3575
 20
33.0393
 30
0.0
  0
SPLINE
  5
7A
330
1F
100
AcDbEntity
  8
VRSTVA_1
 62
   250
100
AcDbSpline
210
0.0
220
0.0
230
1.0
 70
    11
 71
     3
 72
   124
 73
   120
 74
     0
 42
0.0000000001
 43
0.0000000001
 40
0.0
 40
0.0
 40
0.0
 40
0.0
 40
0.032258064516129
 40
0.032258064516129
 40
0.032258064516129
 40
0.032258064516129
 40
0.0645161290322581
 40
0.0645161290322581
 40
0.0645161290322581
 40
0.0645161290322581
 40
0.0967741935483871
 40
0.0967741935483871
 40
0.0967741935483871
 40
0.0967741935483871
 40
0.1290322580645161
 40
0.1290322580645161
 40
0.1290322580645161
 40
0.1290322580645161
 40
0.1612903225806452
 40
0.1612903225806452
 40
0.1612903225806452
 40
0.1612903225806452
 40
0.1935483870967742
 40
0.1935483870967742
 40
0.1935483870967742
 40
0.1935483870967742
 40
0.2258064516129032
 40
0.2258064516129032
 40
0.2258064516129032
 40
0.2258064516129032
 40
0.2580645161290323
 40
0.2580645161290323
 40
0.2580645161290323
 40
0.2580645161290323
 40
0.2903225806451613
 40
0.2903225806451613
 40
0.2903225806451613
 40
0.2903225806451613
 40
0.3225806451612903
 40
0.3225806451612903
 40
0.3225806451612903
 40
0.3225806451612903
 40
0.3548387096774194
 40
0.3548387096774194
 40
0.3548387096774194
 40
0.3548387096774194
 40
0.3870967741935484
 40
0.3870967741935484
 40
0.3870967741935484
 40
0.3870967741935484
 40
0.4193548387096774
 40
0.4193548387096774
 40
0.4193548387096774
 40
0.4193548387096774
 40
0.4516129032258064
 40
0.4516129032258064
 40
0.4516129032258064
 40
0.4516129032258064
 40
0.4838709677419355
 40
0.4838709677419355
 40
0.4838709677419355
 40
0.4838709677419355
 40
0.5161290322580645
 40
0.5161290322580645
 40
0.5161290322580645
 40
0.5161290322580645
 40
0.5483870967741935
 40
0.5483870967741935
 40
0.5483870967741935
 40
0.5483870967741935
 40
0.5806451612903226
 40
0.5806451612903226
 40
0.5806451612903226
 40
0.5806451612903226
 40
0.6129032258064516
 40
0.6129032258064516
 40
0.6129032258064516
 40
0.6129032258064516
 40
0.6451612903225806
 40
0.6451612903225806
 40
0.6451612903225806
 40
0.6451612903225806
 40
0.6774193548387096
 40
0.6774193548387096
 40
0.6774193548387096
 40
0.6774193548387096
 40
0.7096774193548387
 40
0.7096774193548387
 40
0.7096774193548387
 40
0.7096774193548387
 40
0.7419354838709677
 40
0.7419354838709677
 40
0.7419354838709677
 40
0.7419354838709677
 40
0.7741935483870968
 40
0.7741935483870968
 40
0.7741935483870968
 40
0.7741935483870968
 40
0.8064516129032258
 40
0.8064516129032258
 40
0.8064516129032258
 40
0.8064516129032258
 40
0.8387096774193549
 40
0.8387096774193549
 40
0.8387096774193549
 40
0.8387096774193549
 40
0.8709677419354839
 40
0.8709677419354839
 40
0.8709677419354839
 40
0.8709677419354839
 40
0.9032258064516129
 40
0.9032258064516129
 40
0.9032258064516129
 40
0.9032258064516129
 40
0.9354838709677419
 40
0.9354838709677419
 40
0.9354838709677419
 40
0.9354838709677419
 40
1.0
 40
1.0
 40
1.0
 40
1.0
 10
5.0009
 20
32.0652
 30
0.0
 10
5.0009
 20
32.0652
 30
0.0
 10
5.2488
 20
32.0981
 30
0.0
 10
5.2488
 20
32.0981
 30
0.0
 10
5.2488
 20
32.0981
 30
0.0
 10
5.2775
 20
31.9575
 30
0.0
 10
5.326
 20
31.8564
 30
0.0
 10
5.3942
 20
31.7943
 30
0.0
 10
5.3942
 20
31.7943
 30
0.0
 10
5.4628
 20
31.7322
 30
0.0
 10
5.5461
 20
31.7011
 30
0.0
 10
5.6444
 20
31.7011
 30
0.0
 10
5.6444
 20
31.7011
 30
0.0
 10
5.761
 20
31.7011
 30
0.0
 10
5.8598
 20
31.7416
 30
0.0
 10
5.9403
 20
31.8225
 30
0.0
 10
5.9403
 20
31.8225
 30
0.0
 10
6.0202
 20
31.9034
 30
0.0
 10
6.0607
 20
32.0036
 30
0.0
 10
6.0607
 20
32.1231
 30
0.0
 10
6.0607
 20
32.1231
 30
0.0
 10
6.0607
 20
32.2369
 30
0.0
 10
6.0235
 20
32.331
 30
0.0
 10
5.9492
 20
32.4048
 30
0.0
 10
5.9492
 20
32.4048
 30
0.0
 10
5.8744
 20
32.4786
 30
0.0
 10
5.7799
 20
32.5158
 30
0.0
 10
5.6651
 20
32.5158
 30
0.0
 10
5.6651
 20
32.5158
 30
0.0
 10
5.6181
 20
32.5158
 30
0.0
 10
5.5597
 20
32.5064
 30
0.0
 10
5.4901
 20
32.4881
 30
0.0
 10
5.4901
 20
32.4881
 30
0.0
 10
5.4901
 20
32.4881
 30
0.0
 10
5.5179
 20
32.7058
 30
0.0
 10
5.5179
 20
32.7058
 30
0.0
 10
5.5179
 20
32.7058
 30
0.0
 10
5.5343
 20
32.704
 30
0.0
 10
5.5475
 20
32.703
 30
0.0
 10
5.5578
 20
32.703
 30
0.0
 10
5.5578
 20
32.703
 30
0.0
 10
5.6632
 20
32.703
 30
0.0
 10
5.7582
 20
32.7308
 30
0.0
 10
5.8429
 20
32.7858
 30
0.0
 10
5.8429
 20
32.7858
 30
0.0
 10
5.9276
 20
32.8408
 30
0.0
 10
5.9699
 20
32.926
 30
0.0
 10
5.9699
 20
33.0407
 30
0.0
 10
5.9699
 20
33.0407
 30
0.0
 10
5.9699
 20
33.1315
 30
0.0
 10
5.9388
 20
33.2072
 30
0.0
 10
5.8772
 20
33.2665
 30
0.0
 10
5.8772
 20
33.2665
 30
0.0
 10
5.8156
 20
33.3262
 30
0.0
 10
5.7361
 20
33.3564
 30
0.0
 10
5.6387
 20
33.3564
 30
0.0
 10
5.6387
 20
33.3564
 30
0.0
 10
5.5423
 20
33.3564
 30
0.0
 10
5.4619
 20
33.3258
 30
0.0
 10
5.3979
 20
33.2656
 30
0.0
 10
5.3979
 20
33.2656
 30
0.0
 10
5.3335
 20
33.2049
 30
0.0
 10
5.2921
 20
33.1136
 30
0.0
 10
5.2737
 20
32.9923
 30
0.0
 10
5.2737
 20
32.9923
 30
0.0
 10
5.2737
 20
32.9923
 30
0.0
 10
5.0259
 20
33.0365
 30
0.0
 10
5.0259
 20
33.0365
 30
0.0
 10
5.0259
 20
33.0365
 30
0.0
 10
5.056
 20
33.203
 30
0.0
 10
5.1251
 20
33.3319
 30
0.0
 10
5.2324
 20
33.4231
 30
0.0
 10
5.2324
 20
33.4231
 30
0.0
 10
5.3401
 20
33.5144
 30
0.0
 10
5.4737
 20
33.5605
 30
0.0
 10
5.6336
 20
33.5605
 30
0.0
 10
5.6336
 20
33.5605
 30
0.0
 10
5.7436
 20
33.5605
 30
0.0
 10
5.8452
 20
33.5365
 30
0.0
 10
5.9379
 20
33.4895
 30
0.0
 10
5.9379
 20
33.4895
 30
0.0
 10
6.0306
 20
33.442
 30
0.0
 10
6.1016
 20
33.3775
 30
0.0
 10
6.151
 20
33.2957
 30
0.0
 10
6.151
 20
33.2957
 30
0.0
 10
6.1999
 20
33.2138
 30
0.0
 10
6.2248
 20
33.1273
 30
0.0
 10
6.2248
 20
33.0351
 30
0.0
 10
6.2248
 20
33.0351
 30
0.0
 10
6.2248
 20
32.9481
 30
0.0
 10
6.2013
 20
32.8686
 30
0.0
 10
6.1543
 20
32.7966
 30
0.0
 10
6.1543
 20
32.7966
 30
0.0
 10
6.1072
 20
32.7251
 30
0.0
 10
6.0381
 20
32.6682
 30
0.0
 10
5.9464
 20
32.6259
 30
0.0
 10
5.9464
 20
32.6259
 30
0.0
 10
6.0658
 20
32.5986
 30
0.0
 10
6.1585
 20
32.5412
 30
0.0
 10
6.2248
 20
32.4542
 30
0.0
 10
6.2248
 20
32.4542
 30
0.0
 10
6.2907
 20
32.3676
 30
0.0
 10
6.3236
 20
32.259
 30
0.0
 10
6.3236
 20
32.1287
 30
0.0
 10
6.3236
 20
32.1287
 30
0.0
 10
6.3236
 20
31.9523
 30
0.0
 10
6.2596
 20
31.8027
 30
0.0
 10
6.1308
 20
31.68
 30
0.0
 10
6.1308
 20
31.68
 30
0.0
 10
6.0023
 20
31.5572
 30
0.0
 10
5.8396
 20
31.4961
 30
0.0
 10
5.643
 20
31.4961
 30
0.0
 10
5.643
 20
31.4961
 30
0.0
 10
5.4657
 20
31.4961
 30
0.0
 10
5.3184
 20
31.5487
 30
0.0
 10
5.2013
 20
31.6546
 30
0.0
 10
5.2013
 20
31.6546
 30
0.0
 10
5.0842
 20
31.7599
 30
0.0
 10
5.0174
 20
31.8968
 30
0.0
 10
5.0009
 20
32.0652
 30
0.0
  0
SPLINE
  5
7B
330
1F
100
AcDbEntity
  8
VRSTVA_1
 62
   250
100
AcDbSpline
210
0.0
220
0.0
230
1.0
 70
    11
 71
     3
 72
    68
 73
    64
 74
     0
 42
0.0000000001
 43
0.0000000001
 40
0.0
 40
0.0
 40
0.0
 40
0.0
 40
0.0588235294117647
 40
0.0588235294117647
 40
0.0588235294117647
 40
0.0588235294117647
 40
0.1176470588235294
 40
0.1176470588235294
 40
0.1176470588235294
 40
0.1176470588235294
 40
0.1764705882352941
 40
0.1764705882352941
 40
0.1764705882352941
 40
0.1764705882352941
 40
0.2352941176470588
 40
0.2352941176470588
 40
0.2352941176470588
 40
0.2352941176470588
 40
0.2941176470588235
 40
0.2941176470588235
 40
0.2941176470588235
 40
0.2941176470588235
 40
0.3529411764705883
 40
0.3529411764705883
 40
0.3529411764705883
 40
0.3529411764705883
 40
0.4117647058823529
 40
0.4117647058823529
 40
0.4117647058823529
 40
0.4117647058823529
 40
0.4705882352941176
 40
0.4705882352941176
 40
0.4705882352941176
 40
0.4705882352941176
 40
0.5294117647058824
 40
0.5294117647058824
 40
0.5294117647058824
 40
0.5294117647058824
 40
0.5882352941176471
 40
0.5882352941176471
 40
0.5882352941176471
 40
0.5882352941176471
 40
0.6470588235294118
 40
0.6470588235294118
 40
0.6470588235294118
 40
0.6470588235294118
 40
0.7058823529411765
 40
0.7058823529411765
 40
0.7058823529411765
 40
0.7058823529411765
 40
0.7647058823529411
 40
0.7647058823529411
 40
0.7647058823529411
 40
0.7647058823529411
 40
0.8235294117647058
 40
0.8235294117647058
 40
0.8235294117647058
 40
0.8235294117647058
 40
0.8823529411764706
 40
0.8823529411764706
 40
0.8823529411764706
 40
0.8823529411764706
 40
1.0
 40
1.0
 40
1.0
 40
1.0
 10
6.9511
 20
32.6273
 30
0.0
 10
6.848
 20
32.6649
 30
0.0
 10
6.7718
 20
32.7185
 30
0.0
 10
6.722
 20
32.7886
 30
0.0
 10
6.722
 20
32.7886
 30
0.0
 10
6.6726
 20
32.8582
 30
0.0
 10
6.6477
 20
32.942
 30
0.0
 10
6.6477
 20
33.0393
 30
0.0
 10
6.6477
 20
33.0393
 30
0.0
 10
6.6477
 20
33.1865
 30
0.0
 10
6.7004
 20
33.3098
 30
0.0
 10
6.8062
 20
33.41
 30
0.0
 10
6.8062
 20
33.41
 30
0.0
 10
6.912
 20
33.5102
 30
0.0
 10
7.0522
 20
33.5605
 30
0.0
 10
7.2276
 20
33.5605
 30
0.0
 10
7.2276
 20
33.5605
 30
0.0
 10
7.404
 20
33.5605
 30
0.0
 10
7.5461
 20
33.5092
 30
0.0
 10
7.6538
 20
33.4067
 30
0.0
 10
7.6538
 20
33.4067
 30
0.0
 10
7.761
 20
33.3041
 30
0.0
 10
7.8147
 20
33.1795
 30
0.0
 10
7.8147
 20
33.0323
 30
0.0
 10
7.8147
 20
33.0323
 30
0.0
 10
7.8147
 20
32.9387
 30
0.0
 10
7.7902
 20
32.8573
 30
0.0
 10
7.7413
 20
32.7877
 30
0.0
 10
7.7413
 20
32.7877
 30
0.0
 10
7.6919
 20
32.7185
 30
0.0
 10
7.6176
 20
32.6649
 30
0.0
 10
7.5174
 20
32.6273
 30
0.0
 10
7.5174
 20
32.6273
 30
0.0
 10
7.6411
 20
32.5868
 30
0.0
 10
7.7356
 20
32.5219
 30
0.0
 10
7.8005
 20
32.4316
 30
0.0
 10
7.8005
 20
32.4316
 30
0.0
 10
7.865
 20
32.3418
 30
0.0
 10
7.8974
 20
32.2341
 30
0.0
 10
7.8974
 20
32.1094
 30
0.0
 10
7.8974
 20
32.1094
 30
0.0
 10
7.8974
 20
31.9363
 30
0.0
 10
7.8363
 20
31.7914
 30
0.0
 10
7.7145
 20
31.6739
 30
0.0
 10
7.7145
 20
31.6739
 30
0.0
 10
7.5922
 20
31.5563
 30
0.0
 10
7.4313
 20
31.4975
 30
0.0
 10
7.2319
 20
31.4975
 30
0.0
 10
7.2319
 20
31.4975
 30
0.0
 10
7.0324
 20
31.4975
 30
0.0
 10
6.872
 20
31.5563
 30
0.0
 10
6.7497
 20
31.6743
 30
0.0
 10
6.7497
 20
31.6743
 30
0.0
 10
6.6274
 20
31.7924
 30
0.0
 10
6.5663
 20
31.9396
 30
0.0
 10
6.5663
 20
32.116
 30
0.0
 10
6.5663
 20
32.116
 30
0.0
 10
6.5663
 20
32.2472
 30
0.0
 10
6.5997
 20
32.3573
 30
0.0
 10
6.6665
 20
32.4462
 30
0.0
 10
6.6665
 20
32.4462
 30
0.0
 10
6.7328
 20
32.5346
 30
0.0
 10
6.8278
 20
32.5953
 30
0.0
 10
6.9511
 20
32.6273
 30
0.0
  0
SPLINE
  5
7C
330
1F
100
AcDbEntity
  8
VRSTVA_1
 62
   250
100
AcDbSpline
210
0.0
220
0.0
230
1.0
 70
    11
 71
     3
 72
    36
 73
    32
 74
     0
 42
0.0000000001
 43
0.0000000001
 40
0.0
 40
0.0
 40
0.0
 40
0.0
 40
0.1111111111111111
 40
0.1111111111111111
 40
0.1111111111111111
 40
0.1111111111111111
 40
0.2222222222222222
 40
0.2222222222222222
 40
0.2222222222222222
 40
0.2222222222222222
 40
0.3333333333333333
 40
0.3333333333333333
 40
0.3333333333333333
 40
0.3333333333333333
 40
0.4444444444444444
 40
0.4444444444444444
 40
0.4444444444444444
 40
0.4444444444444444
 40
0.5555555555555556
 40
0.5555555555555556
 40
0.5555555555555556
 40
0.5555555555555556
 40
0.6666666666666666
 40
0.6666666666666666
 40
0.6666666666666666
 40
0.6666666666666666
 40
0.7777777777777778
 40
0.7777777777777778
 40
0.7777777777777778
 40
0.7777777777777778
 40
1.0
 40
1.0
 40
1.0
 40
1.0
 10
6.9012
 20
33.0478
 30
0.0
 10
6.9012
 20
32.9523
 30
0.0
 10
6.9322
 20
32.8742
 30
0.0
 10
6.9934
 20
32.8135
 30
0.0
 10
6.9934
 20
32.8135
 30
0.0
 10
7.055
 20
32.7529
 30
0.0
 10
7.135
 20
32.7223
 30
0.0
 10
7.2333
 20
32.7223
 30
0.0
 10
7.2333
 20
32.7223
 30
0.0
 10
7.3288
 20
32.7223
 30
0.0
 10
7.4073
 20
32.7524
 30
0.0
 10
7.4685
 20
32.8126
 30
0.0
 10
7.4685
 20
32.8126
 30
0.0
 10
7.5296
 20
32.8728
 30
0.0
 10
7.5597
 20
32.9467
 30
0.0
 10
7.5597
 20
33.0337
 30
0.0
 10
7.5597
 20
33.0337
 30
0.0
 10
7.5597
 20
33.1249
 30
0.0
 10
7.5287
 20
33.2011
 30
0.0
 10
7.4656
 20
33.2632
 30
0.0
 10
7.4656
 20
33.2632
 30
0.0
 10
7.4026
 20
33.3253
 30
0.0
 10
7.3245
 20
33.3564
 30
0.0
 10
7.2305
 20
33.3564
 30
0.0
 10
7.2305
 20
33.3564
 30
0.0
 10
7.1359
 20
33.3564
 30
0.0
 10
7.0574
 20
33.3258
 30
0.0
 10
6.9948
 20
33.2656
 30
0.0
 10
6.9948
 20
33.2656
 30
0.0
 10
6.9322
 20
33.2049
 30
0.0
 10
6.9012
 20
33.132
 30
0.0
 10
6.9012
 20
33.0478
 30
0.0
  0
SPLINE
  5
7D
330
1F
100
AcDbEntity
  8
VRSTVA_1
 62
   250
100
AcDbSpline
210
0.0
220
0.0
230
1.0
 70
    11
 71
     3
 72
    40
 73
    36
 74
     0
 42
0.0000000001
 43
0.0000000001
 40
0.0
 40
0.0
 40
0.0
 40
0.0
 40
0.1
 40
0.1
 40
0.1
 40
0.1
 40
0.2
 40
0.2
 40
0.2
 40
0.2
 40
0.3
 40
0.3
 40
0.3
 40
0.3
 40
0.4
 40
0.4
 40
0.4
 40
0.4
 40
0.5
 40
0.5
 40
0.5
 40
0.5
 40
0.6
 40
0.6
 40
0.6
 40
0.6
 40
0.7
 40
0.7
 40
0.7
 40
0.7
 40
0.8
 40
0.8
 40
0.8
 40
0.8
 40
1.0
 40
1.0
 40
1.0
 40
1.0
 10
6.8212
 20
32.1146
 30
0.0
 10
6.8212
 20
32.044
 30
0.0
 10
6.8382
 20
31.9754
 30
0.0
 10
6.8716
 20
31.9095
 30
0.0
 10
6.8716
 20
31.9095
 30
0.0
 10
6.905
 20
31.8432
 30
0.0
 10
6.9548
 20
31.7919
 30
0.0
 10
7.0211
 20
31.7557
 30
0.0
 10
7.0211
 20
31.7557
 30
0.0
 10
7.0875
 20
31.7195
 30
0.0
 10
7.1585
 20
31.7011
 30
0.0
 10
7.2347
 20
31.7011
 30
0.0
 10
7.2347
 20
31.7011
 30
0.0
 10
7.3532
 20
31.7011
 30
0.0
 10
7.4511
 20
31.7392
 30
0.0
 10
7.5282
 20
31.8159
 30
0.0
 10
7.5282
 20
31.8159
 30
0.0
 10
7.6053
 20
31.8921
 30
0.0
 10
7.6439
 20
31.989
 30
0.0
 10
7.6439
 20
32.1066
 30
0.0
 10
7.6439
 20
32.1066
 30
0.0
 10
7.6439
 20
32.2261
 30
0.0
 10
7.6044
 20
32.3248
 30
0.0
 10
7.5249
 20
32.4029
 30
0.0
 10
7.5249
 20
32.4029
 30
0.0
 10
7.4454
 20
32.481
 30
0.0
 10
7.3457
 20
32.52
 30
0.0
 10
7.2262
 20
32.52
 30
0.0
 10
7.2262
 20
32.52
 30
0.0
 10
7.1096
 20
32.52
 30
0.0
 10
7.0131
 20
32.4815
 30
0.0
 10
6.9365
 20
32.4043
 30
0.0
 10
6.9365
 20
32.4043
 30
0.0
 10
6.8598
 20
32.3267
 30
0.0
 10
6.8212
 20
32.2303
 30
0.0
 10
6.8212
 20
32.1146
 30
0.0
  0
SPLINE
  5
7E
330
1F
100
AcDbEntity
  8
VRSTVA_1
 62
   250
100
AcDbSpline
210
0.0
220
0.0
230
1.0
 70
    11
 71
     3
 72
    84
 73
    80
 74
     0
 42
0.0000000001
 43
0.0000000001
 40
0.0
 40
0.0
 40
0.0
 40
0.0
 40
0.0476190476190476
 40
0.0476190476190476
 40
0.0476190476190476
 40
0.0476190476190476
 40
0.0952380952380952
 40
0.0952380952380952
 40
0.0952380952380952
 40
0.0952380952380952
 40
0.1428571428571428
 40
0.1428571428571428
 40
0.1428571428571428
 40
0.1428571428571428
 40
0.1904761904761905
 40
0.1904761904761905
 40
0.1904761904761905
 40
0.1904761904761905
 40
0.2380952380952381
 40
0.2380952380952381
 40
0.2380952380952381
 40
0.2380952380952381
 40
0.2857142857142857
 40
0.2857142857142857
 40
0.2857142857142857
 40
0.2857142857142857
 40
0.3333333333333333
 40
0.3333333333333333
 40
0.3333333333333333
 40
0.3333333333333333
 40
0.3809523809523809
 40
0.3809523809523809
 40
0.3809523809523809
 40
0.3809523809523809
 40
0.4285714285714285
 40
0.4285714285714285
 40
0.4285714285714285
 40
0.4285714285714285
 40
0.4761904761904762
 40
0.4761904761904762
 40
0.4761904761904762
 40
0.4761904761904762
 40
0.5238095238095238
 40
0.5238095238095238
 40
0.5238095238095238
 40
0.5238095238095238
 40
0.5714285714285714
 40
0.5714285714285714
 40
0.5714285714285714
 40
0.5714285714285714
 40
0.6190476190476191
 40
0.6190476190476191
 40
0.6190476190476191
 40
0.6190476190476191
 40
0.6666666666666666
 40
0.6666666666666666
 40
0.6666666666666666
 40
0.6666666666666666
 40
0.7142857142857143
 40
0.7142857142857143
 40
0.7142857142857143
 40
0.7142857142857143
 40
0.7619047619047619
 40
0.7619047619047619
 40
0.7619047619047619
 40
0.7619047619047619
 40
0.8095238095238095
 40
0.8095238095238095
 40
0.8095238095238095
 40
0.8095238095238095
 40
0.8571428571428571
 40
0.8571428571428571
 40
0.8571428571428571
 40
0.8571428571428571
 40
0.9047619047619048
 40
0.9047619047619048
 40
0.9047619047619048
 40
0.9047619047619048
 40
1.0
 40
1.0
 40
1.0
 40
1.0
 10
4.3721
 20
37.4659
 30
0.0
 10
4.3721
 20
37.4659
 30
0.0
 10
4.6035
 20
37.725
 30
0.0
 10
4.6035
 20
37.725
 30
0.0
 10
4.6035
 20
37.725
 30
0.0
 10
4.6035
 20
37.725
 30
0.0
 10
4.7399
 20
37.6093
 30
0.0
 10
4.7399
 20
37.6093
 30
0.0
 10
4.7399
 20
37.6093
 30
0.0
 10
4.7399
 20
37.6093
 30
0.0
 10
4.4977
 20
37.3365
 30
0.0
 10
4.4977
 20
37.3365
 30
0.0
 10
4.4977
 20
37.3365
 30
0.0
 10
4.5767
 20
37.2189
 30
0.0
 10
4.6298
 20
37.1159
 30
0.0
 10
4.6576
 20
37.028
 30
0.0
 10
4.6576
 20
37.028
 30
0.0
 10
4.6943
 20
36.9122
 30
0.0
 10
4.7126
 20
36.7824
 30
0.0
 10
4.7126
 20
36.6394
 30
0.0
 10
4.7126
 20
36.6394
 30
0.0
 10
4.7126
 20
36.4325
 30
0.0
 10
4.6708
 20
36.2481
 30
0.0
 10
4.587
 20
36.0868
 30
0.0
 10
4.587
 20
36.0868
 30
0.0
 10
4.5033
 20
35.9249
 30
0.0
 10
4.3862
 20
35.8027
 30
0.0
 10
4.2352
 20
35.7199
 30
0.0
 10
4.2352
 20
35.7199
 30
0.0
 10
4.0837
 20
35.6376
 30
0.0
 10
3.9234
 20
35.5962
 30
0.0
 10
3.7536
 20
35.5962
 30
0.0
 10
3.7536
 20
35.5962
 30
0.0
 10
3.6266
 20
35.5962
 30
0.0
 10
3.5118
 20
35.614
 30
0.0
 10
3.4088
 20
35.6498
 30
0.0
 10
3.4088
 20
35.6498
 30
0.0
 10
3.3298
 20
35.6775
 30
0.0
 10
3.2376
 20
35.7302
 30
0.0
 10
3.1317
 20
35.8083
 30
0.0
 10
3.1317
 20
35.8083
 30
0.0
 10
3.1317
 20
35.8083
 30
0.0
 10
2.9003
 20
35.5491
 30
0.0
 10
2.9003
 20
35.5491
 30
0.0
 10
2.9003
 20
35.5491
 30
0.0
 10
2.9003
 20
35.5491
 30
0.0
 10
2.7639
 20
35.6648
 30
0.0
 10
2.7639
 20
35.6648
 30
0.0
 10
2.7639
 20
35.6648
 30
0.0
 10
2.7639
 20
35.6648
 30
0.0
 10
3.0066
 20
35.9362
 30
0.0
 10
3.0066
 20
35.9362
 30
0.0
 10
3.0066
 20
35.9362
 30
0.0
 10
2.9163
 20
36.0731
 30
0.0
 10
2.8561
 20
36.1902
 30
0.0
 10
2.826
 20
36.2871
 30
0.0
 10
2.826
 20
36.2871
 30
0.0
 10
2.7959
 20
36.384
 30
0.0
 10
2.7804
 20
36.5007
 30
0.0
 10
2.7804
 20
36.6366
 30
0.0
 10
2.7804
 20
36.6366
 30
0.0
 10
2.7804
 20
36.844
 30
0.0
 10
2.8218
 20
37.0289
 30
0.0
 10
2.9045
 20
37.1912
 30
0.0
 10
2.9045
 20
37.1912
 30
0.0
 10
2.9873
 20
37.3535
 30
0.0
 10
3.103
 20
37.4762
 30
0.0
 10
3.2526
 20
37.5599
 30
0.0
 10
3.2526
 20
37.5599
 30
0.0
 10
3.4017
 20
37.6432
 30
0.0
 10
3.5678
 20
37.6851
 30
0.0
 10
3.7507
 20
37.6851
 30
0.0
 10
3.7507
 20
37.6851
 30
0.0
 10
3.874
 20
37.6851
 30
0.0
 10
3.9817
 20
37.6691
 30
0.0
 10
4.0739
 20
37.6361
 30
0.0
 10
4.0739
 20
37.6361
 30
0.0
 10
4.1661
 20
37.6037
 30
0.0
 10
4.2658
 20
37.5468
 30
0.0
 10
4.3721
 20
37.4659
 30
0.0
  0
SPLINE
  5
7F
330
1F
100
AcDbEntity
  8
VRSTVA_1
 62
   250
100
AcDbSpline
210
0.0
220
0.0
230
1.0
 70
    11
 71
     3
 72
    32
 73
    28
 74
     0
 42
0.0000000001
 43
0.0000000001
 40
0.0
 40
0.0
 40
0.0
 40
0.0
 40
0.125
 40
0.125
 40
0.125
 40
0.125
 40
0.25
 40
0.25
 40
0.25
 40
0.25
 40
0.375
 40
0.375
 40
0.375
 40
0.375
 40
0.5
 40
0.5
 40
0.5
 40
0.5
 40
0.625
 40
0.625
 40
0.625
 40
0.625
 40
0.75
 40
0.75
 40
0.75
 40
0.75
 40
1.0
 40
1.0
 40
1.0
 40
1.0
 10
4.207
 20
37.2801
 30
0.0
 10
4.1204
 20
37.3478
 30
0.0
 10
4.0447
 20
37.3944
 30
0.0
 10
3.9803
 20
37.4193
 30
0.0
 10
3.9803
 20
37.4193
 30
0.0
 10
3.9154
 20
37.4438
 30
0.0
 10
3.8392
 20
37.4565
 30
0.0
 10
3.7521
 20
37.4565
 30
0.0
 10
3.7521
 20
37.4565
 30
0.0
 10
3.5508
 20
37.4565
 30
0.0
 10
3.3848
 20
37.3883
 30
0.0
 10
3.2531
 20
37.2519
 30
0.0
 10
3.2531
 20
37.2519
 30
0.0
 10
3.1218
 20
37.1154
 30
0.0
 10
3.056
 20
36.9118
 30
0.0
 10
3.056
 20
36.6404
 30
0.0
 10
3.056
 20
36.6404
 30
0.0
 10
3.056
 20
36.5341
 30
0.0
 10
3.0663
 20
36.4395
 30
0.0
 10
3.0866
 20
36.3567
 30
0.0
 10
3.0866
 20
36.3567
 30
0.0
 10
3.1012
 20
36.2951
 30
0.0
 10
3.1317
 20
36.2194
 30
0.0
 10
3.1788
 20
36.1296
 30
0.0
 10
3.1788
 20
36.1296
 30
0.0
 10
3.1788
 20
36.1296
 30
0.0
 10
4.207
 20
37.2801
 30
0.0
 10
4.207
 20
37.2801
 30
0.0
  0
SPLINE
  5
80
330
1F
100
AcDbEntity
  8
VRSTVA_1
 62
   250
100
AcDbSpline
210
0.0
220
0.0
230
1.0
 70
    11
 71
     3
 72
    28
 73
    24
 74
     0
 42
0.0000000001
 43
0.0000000001
 40
0.0
 40
0.0
 40
0.0
 40
0.0
 40
0.1428571428571428
 40
0.1428571428571428
 40
0.1428571428571428
 40
0.1428571428571428
 40
0.2857142857142857
 40
0.2857142857142857
 40
0.2857142857142857
 40
0.2857142857142857
 40
0.4285714285714285
 40
0.4285714285714285
 40
0.4285714285714285
 40
0.4285714285714285
 40
0.5714285714285714
 40
0.5714285714285714
 40
0.5714285714285714
 40
0.5714285714285714
 40
0.7142857142857143
 40
0.7142857142857143
 40
0.7142857142857143
 40
0.7142857142857143
 40
1.0
 40
1.0
 40
1.0
 40
1.0
 10
4.3199
 20
37.138
 30
0.0
 10
4.3199
 20
37.138
 30
0.0
 10
3.2959
 20
35.9917
 30
0.0
 10
3.2959
 20
35.9917
 30
0.0
 10
3.2959
 20
35.9917
 30
0.0
 10
3.3664
 20
35.9339
 30
0.0
 10
3.4318
 20
35.8934
 30
0.0
 10
3.4916
 20
35.8704
 30
0.0
 10
3.4916
 20
35.8704
 30
0.0
 10
3.5696
 20
35.8398
 30
0.0
 10
3.6543
 20
35.8248
 30
0.0
 10
3.7451
 20
35.8248
 30
0.0
 10
3.7451
 20
35.8248
 30
0.0
 10
3.9455
 20
35.8248
 30
0.0
 10
4.1106
 20
35.8953
 30
0.0
 10
4.2413
 20
36.0369
 30
0.0
 10
4.2413
 20
36.0369
 30
0.0
 10
4.3716
 20
36.1785
 30
0.0
 10
4.437
 20
36.377
 30
0.0
 10
4.437
 20
36.6324
 30
0.0
 10
4.437
 20
36.6324
 30
0.0
 10
4.437
 20
36.8233
 30
0.0
 10
4.398
 20
36.9922
 30
0.0
 10
4.3199
 20
37.138
 30
0.0
  0
SPLINE
  5
81
330
1F
100
AcDbEntity
  8
VRSTVA_1
 62
   250
100
AcDbSpline
210
0.0
220
0.0
230
1.0
 70
    11
 71
     3
 72
    48
 73
    44
 74
     0
 42
0.0000000001
 43
0.0000000001
 40
0.0
 40
0.0
 40
0.0
 40
0.0
 40
0.0833333333333333
 40
0.0833333333333333
 40
0.0833333333333333
 40
0.0833333333333333
 40
0.1666666666666667
 40
0.1666666666666667
 40
0.1666666666666667
 40
0.1666666666666667
 40
0.25
 40
0.25
 40
0.25
 40
0.25
 40
0.3333333333333333
 40
0.3333333333333333
 40
0.3333333333333333
 40
0.3333333333333333
 40
0.4166666666666667
 40
0.4166666666666667
 40
0.4166666666666667
 40
0.4166666666666667
 40
0.5
 40
0.5
 40
0.5
 40
0.5
 40
0.5833333333333334
 40
0.5833333333333334
 40
0.5833333333333334
 40
0.5833333333333334
 40
0.6666666666666666
 40
0.6666666666666666
 40
0.6666666666666666
 40
0.6666666666666666
 40
0.75
 40
0.75
 40
0.75
 40
0.75
 40
0.8333333333333334
 40
0.8333333333333334
 40
0.8333333333333334
 40
0.8333333333333334
 40
1.0
 40
1.0
 40
1.0
 40
1.0
 10
5.7568
 20
35.6305
 30
0.0
 10
5.7568
 20
35.6305
 30
0.0
 10
5.7568
 20
36.114
 30
0.0
 10
5.7568
 20
36.114
 30
0.0
 10
5.7568
 20
36.114
 30
0.0
 10
5.7568
 20
36.114
 30
0.0
 10
4.8805
 20
36.114
 30
0.0
 10
4.8805
 20
36.114
 30
0.0
 10
4.8805
 20
36.114
 30
0.0
 10
4.8805
 20
36.114
 30
0.0
 10
4.8805
 20
36.3417
 30
0.0
 10
4.8805
 20
36.3417
 30
0.0
 10
4.8805
 20
36.3417
 30
0.0
 10
4.8805
 20
36.3417
 30
0.0
 10
5.8025
 20
37.6507
 30
0.0
 10
5.8025
 20
37.6507
 30
0.0
 10
5.8025
 20
37.6507
 30
0.0
 10
5.8025
 20
37.6507
 30
0.0
 10
6.0052
 20
37.6507
 30
0.0
 10
6.0052
 20
37.6507
 30
0.0
 10
6.0052
 20
37.6507
 30
0.0
 10
6.0052
 20
37.6507
 30
0.0
 10
6.0052
 20
36.3417
 30
0.0
 10
6.0052
 20
36.3417
 30
0.0
 10
6.0052
 20
36.3417
 30
0.0
 10
6.0052
 20
36.3417
 30
0.0
 10
6.278
 20
36.3417
 30
0.0
 10
6.278
 20
36.3417
 30
0.0
 10
6.278
 20
36.3417
 30
0.0
 10
6.278
 20
36.3417
 30
0.0
 10
6.278
 20
36.114
 30
0.0
 10
6.278
 20
36.114
 30
0.0
 10
6.278
 20
36.114
 30
0.0
 10
6.278
 20
36.114
 30
0.0
 10
6.0052
 20
36.114
 30
0.0
 10
6.0052
 20
36.114
 30
0.0
 10
6.0052
 20
36.114
 30
0.0
 10
6.0052
 20
36.114
 30
0.0
 10
6.0052
 20
35.6305
 30
0.0
 10
6.0052
 20
35.6305
 30
0.0
 10
6.0052
 20
35.6305
 30
0.0
 10
6.0052
 20
35.6305
 30
0.0
 10
5.7568
 20
35.6305
 30
0.0
 10
5.7568
 20
35.6305
 30
0.0
  0
SPLINE
  5
82
330
1F
100
AcDbEntity
  8
VRSTVA_1
 62
   250
100
AcDbSpline
210
0.0
220
0.0
230
1.0
 70
    11
 71
     3
 72
    16
 73
    12
 74
     0
 42
0.0000000001
 43
0.0000000001
 40
0.0
 40
0.0
 40
0.0
 40
0.0
 40
0.25
 40
0.25
 40
0.25
 40
0.25
 40
0.5
 40
0.5
 40
0.5
 40
0.5
 40
1.0
 40
1.0
 40
1.0
 40
1.0
 10
5.7568
 20
36.3417
 30
0.0
 10
5.7568
 20
36.3417
 30
0.0
 10
5.7568
 20
37.2523
 30
0.0
 10
5.7568
 20
37.2523
 30
0.0
 10
5.7568
 20
37.2523
 30
0.0
 10
5.7568
 20
37.2523
 30
0.0
 10
5.1247
 20
36.3417
 30
0.0
 10
5.1247
 20
36.3417
 30
0.0
 10
5.1247
 20
36.3417
 30
0.0
 10
5.1247
 20
36.3417
 30
0.0
 10
5.7568
 20
36.3417
 30
0.0
 10
5.7568
 20
36.3417
 30
0.0
  0
SPLINE
  5
83
330
1F
100
AcDbEntity
  8
VRSTVA_1
 62
   250
100
AcDbSpline
210
0.0
220
0.0
230
1.0
 70
    11
 71
     3
 72
    92
 73
    88
 74
     0
 42
0.0000000001
 43
0.0000000001
 40
0.0
 40
0.0
 40
0.0
 40
0.0
 40
0.0434782608695652
 40
0.0434782608695652
 40
0.0434782608695652
 40
0.0434782608695652
 40
0.0869565217391304
 40
0.0869565217391304
 40
0.0869565217391304
 40
0.0869565217391304
 40
0.1304347826086956
 40
0.1304347826086956
 40
0.1304347826086956
 40
0.1304347826086956
 40
0.1739130434782609
 40
0.1739130434782609
 40
0.1739130434782609
 40
0.1739130434782609
 40
0.2173913043478261
 40
0.2173913043478261
 40
0.2173913043478261
 40
0.2173913043478261
 40
0.2608695652173913
 40
0.2608695652173913
 40
0.2608695652173913
 40
0.2608695652173913
 40
0.3043478260869565
 40
0.3043478260869565
 40
0.3043478260869565
 40
0.3043478260869565
 40
0.3478260869565217
 40
0.3478260869565217
 40
0.3478260869565217
 40
0.3478260869565217
 40
0.391304347826087
 40
0.391304347826087
 40
0.391304347826087
 40
0.391304347826087
 40
0.4347826086956522
 40
0.4347826086956522
 40
0.4347826086956522
 40
0.4347826086956522
 40
0.4782608695652174
 40
0.4782608695652174
 40
0.4782608695652174
 40
0.4782608695652174
 40
0.5217391304347826
 40
0.5217391304347826
 40
0.5217391304347826
 40
0.5217391304347826
 40
0.5652173913043478
 40
0.5652173913043478
 40
0.5652173913043478
 40
0.5652173913043478
 40
0.6086956521739131
 40
0.6086956521739131
 40
0.6086956521739131
 40
0.6086956521739131
 40
0.6521739130434783
 40
0.6521739130434783
 40
0.6521739130434783
 40
0.6521739130434783
 40
0.6956521739130435
 40
0.6956521739130435
 40
0.6956521739130435
 40
0.6956521739130435
 40
0.7391304347826086
 40
0.7391304347826086
 40
0.7391304347826086
 40
0.7391304347826086
 40
0.782608695652174
 40
0.782608695652174
 40
0.782608695652174
 40
0.782608695652174
 40
0.8260869565217391
 40
0.8260869565217391
 40
0.8260869565217391
 40
0.8260869565217391
 40
0.8695652173913043
 40
0.8695652173913043
 40
0.8695652173913043
 40
0.8695652173913043
 40
0.9130434782608695
 40
0.9130434782608695
 40
0.9130434782608695
 40
0.9130434782608695
 40
1.0
 40
1.0
 40
1.0
 40
1.0
 10
6.5687
 20
36.0976
 30
0.0
 10
6.5687
 20
36.0976
 30
0.0
 10
6.8072
 20
36.1197
 30
0.0
 10
6.8072
 20
36.1197
 30
0.0
 10
6.8072
 20
36.1197
 30
0.0
 10
6.8274
 20
36.0077
 30
0.0
 10
6.866
 20
35.9264
 30
0.0
 10
6.9229
 20
35.8756
 30
0.0
 10
6.9229
 20
35.8756
 30
0.0
 10
6.9798
 20
35.8252
 30
0.0
 10
7.0527
 20
35.7998
 30
0.0
 10
7.1421
 20
35.7998
 30
0.0
 10
7.1421
 20
35.7998
 30
0.0
 10
7.2183
 20
35.7998
 30
0.0
 10
7.285
 20
35.8172
 30
0.0
 10
7.3424
 20
35.8525
 30
0.0
 10
7.3424
 20
35.8525
 30
0.0
 10
7.3998
 20
35.8873
 30
0.0
 10
7.4469
 20
35.9339
 30
0.0
 10
7.4835
 20
35.9922
 30
0.0
 10
7.4835
 20
35.9922
 30
0.0
 10
7.5207
 20
36.0505
 30
0.0
 10
7.5513
 20
36.1296
 30
0.0
 10
7.5762
 20
36.2283
 30
0.0
 10
7.5762
 20
36.2283
 30
0.0
 10
7.6007
 20
36.3276
 30
0.0
 10
7.6134
 20
36.4287
 30
0.0
 10
7.6134
 20
36.5317
 30
0.0
 10
7.6134
 20
36.5317
 30
0.0
 10
7.6134
 20
36.5425
 30
0.0
 10
7.6129
 20
36.5595
 30
0.0
 10
7.612
 20
36.5811
 30
0.0
 10
7.612
 20
36.5811
 30
0.0
 10
7.5621
 20
36.5026
 30
0.0
 10
7.4944
 20
36.4381
 30
0.0
 10
7.4088
 20
36.3892
 30
0.0
 10
7.4088
 20
36.3892
 30
0.0
 10
7.3227
 20
36.3398
 30
0.0
 10
7.2295
 20
36.3154
 30
0.0
 10
7.1298
 20
36.3154
 30
0.0
 10
7.1298
 20
36.3154
 30
0.0
 10
6.9624
 20
36.3154
 30
0.0
 10
6.8208
 20
36.376
 30
0.0
 10
6.7051
 20
36.4974
 30
0.0
 10
6.7051
 20
36.4974
 30
0.0
 10
6.5894
 20
36.6187
 30
0.0
 10
6.5315
 20
36.7782
 30
0.0
 10
6.5315
 20
36.9767
 30
0.0
 10
6.5315
 20
36.9767
 30
0.0
 10
6.5315
 20
37.1818
 30
0.0
 10
6.5917
 20
37.3464
 30
0.0
 10
6.7126
 20
37.4715
 30
0.0
 10
6.7126
 20
37.4715
 30
0.0
 10
6.8335
 20
37.5966
 30
0.0
 10
6.985
 20
37.6592
 30
0.0
 10
7.167
 20
37.6592
 30
0.0
 10
7.167
 20
37.6592
 30
0.0
 10
7.2982
 20
37.6592
 30
0.0
 10
7.4182
 20
37.6234
 30
0.0
 10
7.5273
 20
37.5529
 30
0.0
 10
7.5273
 20
37.5529
 30
0.0
 10
7.6359
 20
37.4823
 30
0.0
 10
7.7187
 20
37.3812
 30
0.0
 10
7.7752
 20
37.2504
 30
0.0
 10
7.7752
 20
37.2504
 30
0.0
 10
7.8316
 20
37.1197
 30
0.0
 10
7.8598
 20
36.9301
 30
0.0
 10
7.8598
 20
36.6818
 30
0.0
 10
7.8598
 20
36.6818
 30
0.0
 10
7.8598
 20
36.424
 30
0.0
 10
7.8321
 20
36.2185
 30
0.0
 10
7.7761
 20
36.0651
 30
0.0
 10
7.7761
 20
36.0651
 30
0.0
 10
7.7197
 20
35.9122
 30
0.0
 10
7.6364
 20
35.7961
 30
0.0
 10
7.5259
 20
35.7161
 30
0.0
 10
7.5259
 20
35.7161
 30
0.0
 10
7.4149
 20
35.6361
 30
0.0
 10
7.2855
 20
35.5962
 30
0.0
 10
7.1364
 20
35.5962
 30
0.0
 10
7.1364
 20
35.5962
 30
0.0
 10
6.9784
 20
35.5962
 30
0.0
 10
6.8495
 20
35.6399
 30
0.0
 10
6.7493
 20
35.7279
 30
0.0
 10
6.7493
 20
35.7279
 30
0.0
 10
6.6491
 20
35.8154
 30
0.0
 10
6.5889
 20
35.9386
 30
0.0
 10
6.5687
 20
36.0976
 30
0.0
  0
SPLINE
  5
84
330
1F
100
AcDbEntity
  8
VRSTVA_1
 62
   250
100
AcDbSpline
210
0.0
220
0.0
230
1.0
 70
    11
 71
     3
 72
    36
 73
    32
 74
     0
 42
0.0000000001
 43
0.0000000001
 40
0.0
 40
0.0
 40
0.0
 40
0.0
 40
0.1111111111111111
 40
0.1111111111111111
 40
0.1111111111111111
 40
0.1111111111111111
 40
0.2222222222222222
 40
0.2222222222222222
 40
0.2222222222222222
 40
0.2222222222222222
 40
0.3333333333333333
 40
0.3333333333333333
 40
0.3333333333333333
 40
0.3333333333333333
 40
0.4444444444444444
 40
0.4444444444444444
 40
0.4444444444444444
 40
0.4444444444444444
 40
0.5555555555555556
 40
0.5555555555555556
 40
0.5555555555555556
 40
0.5555555555555556
 40
0.6666666666666666
 40
0.6666666666666666
 40
0.6666666666666666
 40
0.6666666666666666
 40
0.7777777777777778
 40
0.7777777777777778
 40
0.7777777777777778
 40
0.7777777777777778
 40
1.0
 40
1.0
 40
1.0
 40
1.0
 10
7.5842
 20
36.9894
 30
0.0
 10
7.5842
 20
37.1314
 30
0.0
 10
7.5466
 20
37.2448
 30
0.0
 10
7.4708
 20
37.3281
 30
0.0
 10
7.4708
 20
37.3281
 30
0.0
 10
7.3946
 20
37.4118
 30
0.0
 10
7.3039
 20
37.4536
 30
0.0
 10
7.1971
 20
37.4536
 30
0.0
 10
7.1971
 20
37.4536
 30
0.0
 10
7.087
 20
37.4536
 30
0.0
 10
6.9911
 20
37.4085
 30
0.0
 10
6.9092
 20
37.3186
 30
0.0
 10
6.9092
 20
37.3186
 30
0.0
 10
6.8274
 20
37.2283
 30
0.0
 10
6.7865
 20
37.1117
 30
0.0
 10
6.7865
 20
36.9687
 30
0.0
 10
6.7865
 20
36.9687
 30
0.0
 10
6.7865
 20
36.8398
 30
0.0
 10
6.8255
 20
36.7354
 30
0.0
 10
6.9031
 20
36.655
 30
0.0
 10
6.9031
 20
36.655
 30
0.0
 10
6.9807
 20
36.5745
 30
0.0
 10
7.0762
 20
36.5345
 30
0.0
 10
7.19
 20
36.5345
 30
0.0
 10
7.19
 20
36.5345
 30
0.0
 10
7.3053
 20
36.5345
 30
0.0
 10
7.3993
 20
36.5745
 30
0.0
 10
7.4732
 20
36.655
 30
0.0
 10
7.4732
 20
36.655
 30
0.0
 10
7.5475
 20
36.7354
 30
0.0
 10
7.5842
 20
36.8469
 30
0.0
 10
7.5842
 20
36.9894
 30
0.0
  0
SPLINE
  5
85
330
1F
100
AcDbEntity
  8
VRSTVA_1
100
AcDbSpline
210
0.0
220
0.0
230
1.0
 70
    24
 71
     3
 72
     8
 73
     4
 74
     0
 42
0.0000000001
 43
0.0000000001
 40
0.0
 40
0.0
 40
0.0
 40
0.0
 40
1.0
 40
1.0
 40
1.0
 40
1.0
 10
1.4879
 20
30.0839
 30
0.0
 10
1.4879
 20
30.0839
 30
0.0
 10
1.4879
 20
28.5282
 30
0.0
 10
1.4879
 20
28.5282
 30
0.0
  0
SPLINE
  5
86
330
1F
100
AcDbEntity
  8
VRSTVA_1
100
AcDbSpline
210
0.0
220
0.0
230
1.0
 70
    24
 71
     3
 72
     8
 73
     4
 74
     0
 42
0.0000000001
 43
0.0000000001
 40
0.0
 40
0.0
 40
0.0
 40
0.0
 40
1.0
 40
1.0
 40
1.0
 40
1.0
 10
9.204
 20
30.1644
 30
0.0
 10
9.204
 20
30.1644
 30
0.0
 10
9.204
 20
28.7428
 30
0.0
 10
9.204
 20
28.7428
 30
0.0
  0
SPLINE
  5
87
330
1F
100
AcDbEntity
  8
VRSTVA_1
 62
   250
100
AcDbSpline
210
0.0
220
0.0
230
1.0
 70
    11
 71
     3
 72
    20
 73
    16
 74
     0
 42
0.0000000001
 43
0.0000000001
 40
0.0
 40
0.0
 40
0.0
 40
0.0
 40
0.2
 40
0.2
 40
0.2
 40
0.2
 40
0.4
 40
0.4
 40
0.4
 40
0.4
 40
0.6
 40
0.6
 40
0.6
 40
0.6
 40
1.0
 40
1.0
 40
1.0
 40
1.0
 10
13.0851
 20
-2.8873
 30
0.0
 10
13.0851
 20
-2.5448
 30
0.0
 10
12.8074
 20
-2.2671
 30
0.0
 10
12.465
 20
-2.2671
 30
0.0
 10
12.465
 20
-2.2671
 30
0.0
 10
12.1224
 20
-2.2671
 30
0.0
 10
11.8448
 20
-2.5448
 30
0.0
 10
11.8448
 20
-2.8873
 30
0.0
 10
11.8448
 20
-2.8873
 30
0.0
 10
11.8448
 20
-3.2298
 30
0.0
 10
12.1224
 20
-3.5075
 30
0.0
 10
12.465
 20
-3.5075
 30
0.0
 10
12.465
 20
-3.5075
 30
0.0
 10
12.8074
 20
-3.5075
 30
0.0
 10
13.0851
 20
-3.2298
 30
0.0
 10
13.0851
 20
-2.8873
 30
0.0
  0
SPLINE
  5
88
330
1F
100
AcDbEntity
  8
VRSTVA_1
 62
   250
100
AcDbSpline
210
0.0
220
0.0
230
1.0
 70
    11
 71
     3
 72
    20
 73
    16
 74
     0
 42
0.0000000001
 43
0.0000000001
 40
0.0
 40
0.0
 40
0.0
 40
0.0
 40
0.2
 40
0.2
 40
0.2
 40
0.2
 40
0.4
 40
0.4
 40
0.4
 40
0.4
 40
0.6
 40
0.6
 40
0.6
 40
0.6
 40
1.0
 40
1.0
 40
1.0
 40
1.0
 10
-1.0859
 20
-2.8873
 30
0.0
 10
-1.0859
 20
-2.5448
 30
0.0
 10
-1.3636
 20
-2.2671
 30
0.0
 10
-1.706
 20
-2.2671
 30
0.0
 10
-1.706
 20
-2.2671
 30
0.0
 10
-2.0486
 20
-2.2671
 30
0.0
 10
-2.3262
 20
-2.5448
 30
0.0
 10
-2.3262
 20
-2.8873
 30
0.0
 10
-2.3262
 20
-2.8873
 30
0.0
 10
-2.3262
 20
-3.2298
 30
0.0
 10
-2.0486
 20
-3.5075
 30
0.0
 10
-1.706
 20
-3.5075
 30
0.0
 10
-1.706
 20
-3.5075
 30
0.0
 10
-1.3636
 20
-3.5075
 30
0.0
 10
-1.0859
 20
-3.2298
 30
0.0
 10
-1.0859
 20
-2.8873
 30
0.0
  0
SPLINE
  5
89
330
1F
100
AcDbEntity
  8
VRSTVA_1
 62
   250
100
AcDbSpline
210
0.0
220
0.0
230
1.0
 70
    27
 71
     3
 72
    28
 73
    24
 74
     0
 42
0.0000000001
 43
0.0000000001
 40
0.0
 40
0.0
 40
0.0
 40
0.0
 40
0.1428571428571428
 40
0.1428571428571428
 40
0.1428571428571428
 40
0.1428571428571428
 40
0.2857142857142857
 40
0.2857142857142857
 40
0.2857142857142857
 40
0.2857142857142857
 40
0.4285714285714285
 40
0.4285714285714285
 40
0.4285714285714285
 40
0.4285714285714285
 40
0.5714285714285714
 40
0.5714285714285714
 40
0.5714285714285714
 40
0.5714285714285714
 40
0.7142857142857143
 40
0.7142857142857143
 40
0.7142857142857143
 40
0.7142857142857143
 40
1.0
 40
1.0
 40
1.0
 40
1.0
 10
0.6195
 20
-28.1255
 30
0.0
 10
0.6195
 20
-28.1255
 30
0.0
 10
0.6195
 20
-28.7403
 30
0.0
 10
0.6195
 20
-28.7403
 30
0.0
 10
0.6195
 20
-28.7403
 30
0.0
 10
0.6195
 20
-28.7403
 30
0.0
 10
0.6195
 20
-28.7427
 30
0.0
 10
0.6195
 20
-28.7427
 30
0.0
 10
0.6195
 20
-28.7427
 30
0.0
 10
0.6195
 20
-28.7427
 30
0.0
 10
0.6195
 20
-29.3997
 30
0.0
 10
0.6195
 20
-29.3997
 30
0.0
 10
0.6195
 20
-29.3997
 30
0.0
 10
0.6195
 20
-29.3997
 30
0.0
 10
0.6195
 20
-28.7427
 30
0.0
 10
0.6195
 20
-28.7427
 30
0.0
 10
0.6195
 20
-28.7427
 30
0.0
 10
0.6195
 20
-28.7427
 30
0.0
 10
0.6195
 20
-28.7403
 30
0.0
 10
0.6195
 20
-28.7403
 30
0.0
 10
0.6195
 20
-28.7403
 30
0.0
 10
0.6195
 20
-28.7403
 30
0.0
 10
0.6195
 20
-28.1255
 30
0.0
 10
0.6195
 20
-28.1255
 30
0.0
  0
SPLINE
  5
8A
330
1F
100
AcDbEntity
  8
VRSTVA_1
 62
   250
100
AcDbSpline
210
0.0
220
0.0
230
1.0
 70
    27
 71
     3
 72
    12
 73
     8
 74
     0
 42
0.0000000001
 43
0.0000000001
 40
0.0
 40
0.0
 40
0.0
 40
0.0
 40
0.3333333333333333
 40
0.3333333333333333
 40
0.3333333333333333
 40
0.3333333333333333
 40
1.0
 40
1.0
 40
1.0
 40
1.0
 10
-0.0384
 20
-26.6864
 30
0.0
 10
-0.0384
 20
-26.6864
 30
0.0
 10
-0.0384
 20
-23.26
 30
0.0
 10
-0.0384
 20
-23.26
 30
0.0
 10
-0.0384
 20
-23.26
 30
0.0
 10
-0.0384
 20
-23.26
 30
0.0
 10
-0.0384
 20
-26.6864
 30
0.0
 10
-0.0384
 20
-26.6864
 30
0.0
  0
SPLINE
  5
8B
330
1F
100
AcDbEntity
  8
VRSTVA_1
 62
   250
100
AcDbSpline
210
0.0
220
0.0
230
1.0
 70
    27
 71
     3
 72
    12
 73
     8
 74
     0
 42
0.0000000001
 43
0.0000000001
 40
0.0
 40
0.0
 40
0.0
 40
0.0
 40
0.3333333333333333
 40
0.3333333333333333
 40
0.3333333333333333
 40
0.3333333333333333
 40
1.0
 40
1.0
 40
1.0
 40
1.0
 10
3.816
 20
-23.26
 30
0.0
 10
3.816
 20
-23.26
 30
0.0
 10
3.816
 20
-26.6864
 30
0.0
 10
3.816
 20
-26.6864
 30
0.0
 10
3.816
 20
-26.6864
 30
0.0
 10
3.816
 20
-26.6864
 30
0.0
 10
3.816
 20
-23.26
 30
0.0
 10
3.816
 20
-23.26
 30
0.0
  0
SPLINE
  5
8C
330
1F
100
AcDbEntity
  8
VRSTVA_1
 62
   250
100
AcDbSpline
210
0.0
220
0.0
230
1.0
 70
    27
 71
     3
 72
    12
 73
     8
 74
     0
 42
0.0000000001
 43
0.0000000001
 40
0.0
 40
0.0
 40
0.0
 40
0.0
 40
0.3333333333333333
 40
0.3333333333333333
 40
0.3333333333333333
 40
0.3333333333333333
 40
1.0
 40
1.0
 40
1.0
 40
1.0
 10
5.2686
 20
-23.26
 30
0.0
 10
5.2686
 20
-23.26
 30
0.0
 10
5.2686
 20
-26.6864
 30
0.0
 10
5.2686
 20
-26.6864
 30
0.0
 10
5.2686
 20
-26.6864
 30
0.0
 10
5.2686
 20
-26.6864
 30
0.0
 10
5.2686
 20
-23.26
 30
0.0
 10
5.2686
 20
-23.26
 30
0.0
  0
SPLINE
  5
8D
330
1F
100
AcDbEntity
  8
VRSTVA_1
 62
   250
100
AcDbSpline
210
0.0
220
0.0
230
1.0
 70
    27
 71
     3
 72
    12
 73
     8
 74
     0
 42
0.0000000001
 43
0.0000000001
 40
0.0
 40
0.0
 40
0.0
 40
0.0
 40
0.3333333333333333
 40
0.3333333333333333
 40
0.3333333333333333
 40
0.3333333333333333
 40
1.0
 40
1.0
 40
1.0
 40
1.0
 10
10.7353
 20
-26.6864
 30
0.0
 10
10.7353
 20
-26.6864
 30
0.0
 10
10.7353
 20
-23.26
 30
0.0
 10
10.7353
 20
-23.26
 30
0.0
 10
10.7353
 20
-23.26
 30
0.0
 10
10.7353
 20
-23.26
 30
0.0
 10
10.7353
 20
-26.6864
 30
0.0
 10
10.7353
 20
-26.6864
 30
0.0
  0
SPLINE
  5
8E
330
1F
100
AcDbEntity
  8
VRSTVA_1
 62
   250
100
AcDbSpline
210
0.0
220
0.0
230
1.0
 70
    27
 71
     3
 72
    12
 73
     8
 74
     0
 42
0.0000000001
 43
0.0000000001
 40
0.0
 40
0.0
 40
0.0
 40
0.0
 40
0.3333333333333333
 40
0.3333333333333333
 40
0.3333333333333333
 40
0.3333333333333333
 40
1.0
 40
1.0
 40
1.0
 40
1.0
 10
11.5102
 20
-26.6864
 30
0.0
 10
11.5102
 20
-26.6864
 30
0.0
 10
11.5102
 20
-23.26
 30
0.0
 10
11.5102
 20
-23.26
 30
0.0
 10
11.5102
 20
-23.26
 30
0.0
 10
11.5102
 20
-23.26
 30
0.0
 10
11.5102
 20
-26.6864
 30
0.0
 10
11.5102
 20
-26.6864
 30
0.0
  0
SPLINE
  5
8F
330
1F
100
AcDbEntity
  8
VRSTVA_1
 62
   250
100
AcDbSpline
210
0.0
220
0.0
230
1.0
 70
    27
 71
     3
 72
    12
 73
     8
 74
     0
 42
0.0000000001
 43
0.0000000001
 40
0.0
 40
0.0
 40
0.0
 40
0.0
 40
0.3333333333333333
 40
0.3333333333333333
 40
0.3333333333333333
 40
0.3333333333333333
 40
1.0
 40
1.0
 40
1.0
 40
1.0
 10
-0.8133
 20
-26.6864
 30
0.0
 10
-0.8133
 20
-26.6864
 30
0.0
 10
-0.8133
 20
-23.26
 30
0.0
 10
-0.8133
 20
-23.26
 30
0.0
 10
-0.8133
 20
-23.26
 30
0.0
 10
-0.8133
 20
-23.26
 30
0.0
 10
-0.8133
 20
-26.6864
 30
0.0
 10
-0.8133
 20
-26.6864
 30
0.0
  0
SPLINE
  5
90
330
1F
100
AcDbEntity
  8
VRSTVA_1
 62
   250
100
AcDbSpline
210
0.0
220
0.0
230
1.0
 70
    27
 71
     3
 72
    12
 73
     8
 74
     0
 42
0.0000000001
 43
0.0000000001
 40
0.0
 40
0.0
 40
0.0
 40
0.0
 40
0.3333333333333333
 40
0.3333333333333333
 40
0.3333333333333333
 40
0.3333333333333333
 40
1.0
 40
1.0
 40
1.0
 40
1.0
 10
10.0818
 20
-26.3613
 30
0.0
 10
10.0818
 20
-26.3613
 30
0.0
 10
10.1563
 20
-26.6864
 30
0.0
 10
10.1563
 20
-26.6864
 30
0.0
 10
10.1563
 20
-26.6864
 30
0.0
 10
10.1563
 20
-26.6864
 30
0.0
 10
10.0818
 20
-26.3613
 30
0.0
 10
10.0818
 20
-26.3613
 30
0.0
  0
SPLINE
  5
91
330
1F
100
AcDbEntity
  8
VRSTVA_1
 62
   250
100
AcDbSpline
210
0.0
220
0.0
230
1.0
 70
    27
 71
     3
 72
    12
 73
     8
 74
     0
 42
0.0000000001
 43
0.0000000001
 40
0.0
 40
0.0
 40
0.0
 40
0.0
 40
0.3333333333333333
 40
0.3333333333333333
 40
0.3333333333333333
 40
0.3333333333333333
 40
1.0
 40
1.0
 40
1.0
 40
1.0
 10
0.6106
 20
-26.3804
 30
0.0
 10
0.6106
 20
-26.3804
 30
0.0
 10
0.5405
 20
-26.6864
 30
0.0
 10
0.5405
 20
-26.6864
 30
0.0
 10
0.5405
 20
-26.6864
 30
0.0
 10
0.5405
 20
-26.6864
 30
0.0
 10
0.6106
 20
-26.3804
 30
0.0
 10
0.6106
 20
-26.3804
 30
0.0
  0
SPLINE
  5
92
330
1F
100
AcDbEntity
  8
VRSTVA_1
 62
   250
100
AcDbSpline
210
0.0
220
0.0
230
1.0
 70
    11
 71
     3
 72
    20
 73
    16
 74
     0
 42
0.0000000001
 43
0.0000000001
 40
0.0
 40
0.0
 40
0.0
 40
0.0
 40
0.2
 40
0.2
 40
0.2
 40
0.2
 40
0.4
 40
0.4
 40
0.4
 40
0.4
 40
0.6
 40
0.6
 40
0.6
 40
0.6
 40
1.0
 40
1.0
 40
1.0
 40
1.0
 10
4.7421
 20
-21.9475
 30
0.0
 10
4.7421
 20
-21.7807
 30
0.0
 10
4.6069
 20
-21.6454
 30
0.0
 10
4.44
 20
-21.6454
 30
0.0
 10
4.44
 20
-21.6454
 30
0.0
 10
4.2732
 20
-21.6454
 30
0.0
 10
4.138
 20
-21.7807
 30
0.0
 10
4.138
 20
-21.9475
 30
0.0
 10
4.138
 20
-21.9475
 30
0.0
 10
4.138
 20
-22.1143
 30
0.0
 10
4.2732
 20
-22.2496
 30
0.0
 10
4.44
 20
-22.2496
 30
0.0
 10
4.44
 20
-22.2496
 30
0.0
 10
4.6069
 20
-22.2496
 30
0.0
 10
4.7421
 20
-22.1143
 30
0.0
 10
4.7421
 20
-21.9475
 30
0.0
  0
SPLINE
  5
93
330
1F
100
AcDbEntity
  8
VRSTVA_1
 62
   250
100
AcDbSpline
210
0.0
220
0.0
230
1.0
 70
    27
 71
     3
 72
    12
 73
     8
 74
     0
 42
0.0000000001
 43
0.0000000001
 40
0.0
 40
0.0
 40
0.0
 40
0.0
 40
0.3333333333333333
 40
0.3333333333333333
 40
0.3333333333333333
 40
0.3333333333333333
 40
1.0
 40
1.0
 40
1.0
 40
1.0
 10
10.0773
 20
-28.1853
 30
0.0
 10
10.0773
 20
-28.1853
 30
0.0
 10
10.0773
 20
-29.3997
 30
0.0
 10
10.0773
 20
-29.3997
 30
0.0
 10
10.0773
 20
-29.3997
 30
0.0
 10
10.0773
 20
-29.3997
 30
0.0
 10
10.0773
 20
-28.1853
 30
0.0
 10
10.0773
 20
-28.1853
 30
0.0
  0
SPLINE
  5
94
330
1F
100
AcDbEntity
  8
VRSTVA_1
 62
   250
100
AcDbSpline
210
0.0
220
0.0
230
1.0
 70
     8
 71
     3
 72
    16
 73
    12
 74
     0
 42
0.0000000001
 43
0.0000000001
 40
0.0
 40
0.0
 40
0.0
 40
0.0
 40
0.25
 40
0.25
 40
0.25
 40
0.25
 40
0.5
 40
0.5
 40
0.5
 40
0.5
 40
1.0
 40
1.0
 40
1.0
 40
1.0
 10
0.8129
 20
-31.5829
 30
0.0
 10
0.8129
 20
-31.5829
 30
0.0
 10
0.8134
 20
-32.3456
 30
0.0
 10
0.8134
 20
-32.3456
 30
0.0
 10
0.8134
 20
-32.3456
 30
0.0
 10
0.8134
 20
-32.3456
 30
0.0
 10
9.8835
 20
-32.3456
 30
0.0
 10
9.8835
 20
-32.3456
 30
0.0
 10
9.8835
 20
-32.3456
 30
0.0
 10
9.8835
 20
-32.3456
 30
0.0
 10
9.8838
 20
-31.5812
 30
0.0
 10
9.8838
 20
-31.5812
 30
0.0
  0
SPLINE
  5
95
330
1F
100
AcDbEntity
  8
VRSTVA_1
 62
   250
100
AcDbSpline
210
0.0
220
0.0
230
1.0
 70
    24
 71
     3
 72
     8
 73
     4
 74
     0
 42
0.0000000001
 43
0.0000000001
 40
0.0
 40
0.0
 40
0.0
 40
0.0
 40
1.0
 40
1.0
 40
1.0
 40
1.0
 10
0.8037
 20
-32.0674
 30
0.0
 10
0.8037
 20
-32.0674
 30
0.0
 10
9.8885
 20
-31.6666
 30
0.0
 10
9.8885
 20
-31.6666
 30
0.0
  0
SPLINE
  5
96
330
1F
100
AcDbEntity
  8
VRSTVA_1
 62
   250
100
AcDbSpline
210
0.0
220
0.0
230
1.0
 70
    24
 71
     3
 72
     8
 73
     4
 74
     0
 42
0.0000000001
 43
0.0000000001
 40
0.0
 40
0.0
 40
0.0
 40
0.0
 40
1.0
 40
1.0
 40
1.0
 40
1.0
 10
0.5847
 20
-29.4195
 30
0.0
 10
0.5847
 20
-29.4195
 30
0.0
 10
10.0612
 20
-29.0015
 30
0.0
 10
10.0612
 20
-29.0015
 30
0.0
  0
SPLINE
  5
97
330
1F
100
AcDbEntity
  8
VRSTVA_1
 62
   250
100
AcDbSpline
210
0.0
220
0.0
230
1.0
 70
     8
 71
     3
 72
    12
 73
     8
 74
     0
 42
0.0000000001
 43
0.0000000001
 40
0.0
 40
0.0
 40
0.0
 40
0.0
 40
0.3333333333333333
 40
0.3333333333333333
 40
0.3333333333333333
 40
0.3333333333333333
 40
1.0
 40
1.0
 40
1.0
 40
1.0
 10
0.5649
 20
-28.7427
 30
0.0
 10
0.5649
 20
-28.7427
 30
0.0
 10
0.6195
 20
-28.7403
 30
0.0
 10
0.6195
 20
-28.7403
 30
0.0
 10
0.6195
 20
-28.7403
 30
0.0
 10
0.6195
 20
-28.7403
 30
0.0
 10
10.0413
 20
-28.3246
 30
0.0
 10
10.0413
 20
-28.3246
 30
0.0
  0
SPLINE
  5
98
330
1F
100
AcDbEntity
  8
VRSTVA_1
 62
   250
100
AcDbSpline
210
0.0
220
0.0
230
1.0
 70
     8
 71
     3
 72
    16
 73
    12
 74
     0
 42
0.0000000001
 43
0.0000000001
 40
0.0
 40
0.0
 40
0.0
 40
0.0
 40
0.25
 40
0.25
 40
0.25
 40
0.25
 40
0.5
 40
0.5
 40
0.5
 40
0.5
 40
1.0
 40
1.0
 40
1.0
 40
1.0
 10
-0.9696
 20
-27.3841
 30
0.0
 10
-0.9696
 20
-27.3841
 30
0.0
 10
-0.9696
 20
-26.6864
 30
0.0
 10
-0.9696
 20
-26.6864
 30
0.0
 10
-0.9696
 20
-26.6864
 30
0.0
 10
-0.9696
 20
-26.6864
 30
0.0
 10
11.6646
 20
-26.687
 30
0.0
 10
11.6646
 20
-26.687
 30
0.0
 10
11.6646
 20
-26.687
 30
0.0
 10
11.6646
 20
-26.687
 30
0.0
 10
11.6446
 20
-27.424
 30
0.0
 10
11.6446
 20
-27.424
 30
0.0
  0
SPLINE
  5
99
330
1F
100
AcDbEntity
  8
VRSTVA_1
 62
   250
100
AcDbSpline
210
0.0
220
0.0
230
1.0
 70
     8
 71
     3
 72
    16
 73
    12
 74
     0
 42
0.0000000001
 43
0.0000000001
 40
0.0
 40
0.0
 40
0.0
 40
0.0
 40
0.25
 40
0.25
 40
0.25
 40
0.25
 40
0.5
 40
0.5
 40
0.5
 40
0.5
 40
1.0
 40
1.0
 40
1.0
 40
1.0
 10
-0.9718
 20
-22.9364
 30
0.0
 10
-0.9718
 20
-22.9364
 30
0.0
 10
-0.9696
 20
-23.26
 30
0.0
 10
-0.9696
 20
-23.26
 30
0.0
 10
-0.9696
 20
-23.26
 30
0.0
 10
-0.9696
 20
-23.26
 30
0.0
 10
11.6664
 20
-23.26
 30
0.0
 10
11.6664
 20
-23.26
 30
0.0
 10
11.6664
 20
-23.26
 30
0.0
 10
11.6664
 20
-23.26
 30
0.0
 10
11.6629
 20
-22.9288
 30
0.0
 10
11.6629
 20
-22.9288
 30
0.0
  0
SPLINE
  5
9A
330
1F
100
AcDbEntity
  8
VRSTVA_1
 62
   250
100
AcDbSpline
210
0.0
220
0.0
230
1.0
 70
     8
 71
     3
 72
    16
 73
    12
 74
     0
 42
0.0000000001
 43
0.0000000001
 40
0.0
 40
0.0
 40
0.0
 40
0.0
 40
0.25
 40
0.25
 40
0.25
 40
0.25
 40
0.5
 40
0.5
 40
0.5
 40
0.5
 40
1.0
 40
1.0
 40
1.0
 40
1.0
 10
0.9645
 20
-32.3505
 30
0.0
 10
0.9645
 20
-32.3505
 30
0.0
 10
0.9684
 20
-32.6556
 30
0.0
 10
0.9684
 20
-32.6556
 30
0.0
 10
0.9684
 20
-32.6556
 30
0.0
 10
0.9684
 20
-32.6556
 30
0.0
 10
9.7284
 20
-32.6556
 30
0.0
 10
9.7284
 20
-32.6556
 30
0.0
 10
9.7284
 20
-32.6556
 30
0.0
 10
9.7284
 20
-32.6556
 30
0.0
 10
9.7266
 20
-32.3477
 30
0.0
 10
9.7266
 20
-32.3477
 30
0.0
  0
SPLINE
  5
9B
330
1F
100
AcDbEntity
  8
VRSTVA_1
 62
   250
100
AcDbSpline
210
0.0
220
0.0
230
1.0
 70
     8
 71
     3
 72
    16
 73
    12
 74
     0
 42
0.0000000001
 43
0.0000000001
 40
0.0
 40
0.0
 40
0.0
 40
0.0
 40
0.25
 40
0.25
 40
0.25
 40
0.25
 40
0.5
 40
0.5
 40
0.5
 40
0.5
 40
1.0
 40
1.0
 40
1.0
 40
1.0
 10
10.4029
 20
-30.0078
 30
0.0
 10
10.4029
 20
-30.0078
 30
0.0
 10
10.4029
 20
-31.5703
 30
0.0
 10
10.4029
 20
-31.5703
 30
0.0
 10
10.4029
 20
-31.5703
 30
0.0
 10
10.4029
 20
-31.5703
 30
0.0
 10
0.3107
 20
-31.5703
 30
0.0
 10
0.3107
 20
-31.5703
 30
0.0
 10
0.3107
 20
-31.5703
 30
0.0
 10
0.3107
 20
-31.5703
 30
0.0
 10
0.3187
 20
-29.9866
 30
0.0
 10
0.3187
 20
-29.9866
 30
0.0
  0
SPLINE
  5
9C
330
1F
100
AcDbEntity
  8
VRSTVA_1
 62
   250
100
AcDbSpline
210
0.0
220
0.0
230
1.0
 70
    11
 71
     3
 72
    20
 73
    16
 74
     0
 42
0.0000000001
 43
0.0000000001
 40
0.0
 40
0.0
 40
0.0
 40
0.0
 40
0.2
 40
0.2
 40
0.2
 40
0.2
 40
0.4
 40
0.4
 40
0.4
 40
0.4
 40
0.6
 40
0.6
 40
0.6
 40
0.6
 40
1.0
 40
1.0
 40
1.0
 40
1.0
 10
-0.7618
 20
-29.4629
 30
0.0
 10
-0.7618
 20
-29.4629
 30
0.0
 10
11.469
 20
-29.4629
 30
0.0
 10
11.469
 20
-29.4629
 30
0.0
 10
11.469
 20
-29.4629
 30
0.0
 10
11.469
 20
-29.4629
 30
0.0
 10
11.469
 20
-30.0154
 30
0.0
 10
11.469
 20
-30.0154
 30
0.0
 10
11.469
 20
-30.0154
 30
0.0
 10
11.469
 20
-30.0154
 30
0.0
 10
-0.7618
 20
-30.0154
 30
0.0
 10
-0.7618
 20
-30.0154
 30
0.0
 10
-0.7618
 20
-30.0154
 30
0.0
 10
-0.7618
 20
-30.0154
 30
0.0
 10
-0.7618
 20
-29.4629
 30
0.0
 10
-0.7618
 20
-29.4629
 30
0.0
  0
SPLINE
  5
9D
330
1F
100
AcDbEntity
  8
VRSTVA_1
 62
   250
100
AcDbSpline
210
0.0
220
0.0
230
1.0
 70
     8
 71
     3
 72
    28
 73
    24
 74
     0
 42
0.0000000001
 43
0.0000000001
 40
0.0
 40
0.0
 40
0.0
 40
0.0
 40
0.1428571428571428
 40
0.1428571428571428
 40
0.1428571428571428
 40
0.1428571428571428
 40
0.2857142857142857
 40
0.2857142857142857
 40
0.2857142857142857
 40
0.2857142857142857
 40
0.4285714285714285
 40
0.4285714285714285
 40
0.4285714285714285
 40
0.4285714285714285
 40
0.5714285714285714
 40
0.5714285714285714
 40
0.5714285714285714
 40
0.5714285714285714
 40
0.7142857142857143
 40
0.7142857142857143
 40
0.7142857142857143
 40
0.7142857142857143
 40
1.0
 40
1.0
 40
1.0
 40
1.0
 10
10.0193
 20
-30.0173
 30
0.0
 10
10.0193
 20
-30.0173
 30
0.0
 10
10.0224
 20
-31.2757
 30
0.0
 10
10.0224
 20
-31.2757
 30
0.0
 10
10.0224
 20
-31.2757
 30
0.0
 10
10.0224
 20
-31.4384
 30
0.0
 10
9.8904
 20
-31.5703
 30
0.0
 10
9.7278
 20
-31.5703
 30
0.0
 10
9.7278
 20
-31.5703
 30
0.0
 10
9.7278
 20
-31.5703
 30
0.0
 10
9.6211
 20
-31.5138
 30
0.0
 10
9.6211
 20
-31.5138
 30
0.0
 10
9.6211
 20
-31.5138
 30
0.0
 10
9.6211
 20
-31.5138
 30
0.0
 10
9.5508
 20
-31.3553
 30
0.0
 10
9.5508
 20
-31.3553
 30
0.0
 10
9.5508
 20
-31.3553
 30
0.0
 10
9.5508
 20
-31.3553
 30
0.0
 10
9.5508
 20
-31.279
 30
0.0
 10
9.5508
 20
-31.279
 30
0.0
 10
9.5508
 20
-31.279
 30
0.0
 10
9.5508
 20
-31.279
 30
0.0
 10
9.5508
 20
-30.035
 30
0.0
 10
9.5508
 20
-30.035
 30
0.0
  0
SPLINE
  5
9E
330
1F
100
AcDbEntity
  8
VRSTVA_1
 62
   250
100
AcDbSpline
210
0.0
220
0.0
230
1.0
 70
     8
 71
     3
 72
    40
 73
    36
 74
     0
 42
0.0000000001
 43
0.0000000001
 40
0.0
 40
0.0
 40
0.0
 40
0.0
 40
0.1
 40
0.1
 40
0.1
 40
0.1
 40
0.2
 40
0.2
 40
0.2
 40
0.2
 40
0.3
 40
0.3
 40
0.3
 40
0.3
 40
0.4
 40
0.4
 40
0.4
 40
0.4
 40
0.5
 40
0.5
 40
0.5
 40
0.5
 40
0.6
 40
0.6
 40
0.6
 40
0.6
 40
0.7
 40
0.7
 40
0.7
 40
0.7
 40
0.8
 40
0.8
 40
0.8
 40
0.8
 40
1.0
 40
1.0
 40
1.0
 40
1.0
 10
5.0346
 20
-30.0345
 30
0.0
 10
5.0346
 20
-30.0345
 30
0.0
 10
5.0383
 20
-31.2757
 30
0.0
 10
5.0383
 20
-31.2757
 30
0.0
 10
5.0383
 20
-31.2757
 30
0.0
 10
5.0383
 20
-31.4384
 30
0.0
 10
5.1702
 20
-31.5703
 30
0.0
 10
5.333
 20
-31.5703
 30
0.0
 10
5.333
 20
-31.5703
 30
0.0
 10
5.333
 20
-31.5703
 30
0.0
 10
5.4353
 20
-31.5658
 30
0.0
 10
5.4353
 20
-31.5658
 30
0.0
 10
5.4353
 20
-31.5658
 30
0.0
 10
5.4353
 20
-31.5658
 30
0.0
 10
5.527
 20
-31.5148
 30
0.0
 10
5.527
 20
-31.5148
 30
0.0
 10
5.527
 20
-31.5148
 30
0.0
 10
5.527
 20
-31.5148
 30
0.0
 10
5.6016
 20
-31.4501
 30
0.0
 10
5.6016
 20
-31.4501
 30
0.0
 10
5.6016
 20
-31.4501
 30
0.0
 10
5.6016
 20
-31.4501
 30
0.0
 10
5.639
 20
-31.3752
 30
0.0
 10
5.639
 20
-31.3752
 30
0.0
 10
5.639
 20
-31.3752
 30
0.0
 10
5.639
 20
-31.3752
 30
0.0
 10
5.6526
 20
-31.3038
 30
0.0
 10
5.6526
 20
-31.3038
 30
0.0
 10
5.6526
 20
-31.3038
 30
0.0
 10
5.6526
 20
-31.3038
 30
0.0
 10
5.6526
 20
-31.2629
 30
0.0
 10
5.6526
 20
-31.2629
 30
0.0
 10
5.6526
 20
-31.2629
 30
0.0
 10
5.6526
 20
-31.2629
 30
0.0
 10
5.6526
 20
-30.021
 30
0.0
 10
5.6526
 20
-30.021
 30
0.0
  0
SPLINE
  5
9F
330
1F
100
AcDbEntity
  8
VRSTVA_1
 62
   250
100
AcDbSpline
210
0.0
220
0.0
230
1.0
 70
     8
 71
     3
 72
    28
 73
    24
 74
     0
 42
0.0000000001
 43
0.0000000001
 40
0.0
 40
0.0
 40
0.0
 40
0.0
 40
0.1428571428571428
 40
0.1428571428571428
 40
0.1428571428571428
 40
0.1428571428571428
 40
0.2857142857142857
 40
0.2857142857142857
 40
0.2857142857142857
 40
0.2857142857142857
 40
0.4285714285714285
 40
0.4285714285714285
 40
0.4285714285714285
 40
0.4285714285714285
 40
0.5714285714285714
 40
0.5714285714285714
 40
0.5714285714285714
 40
0.5714285714285714
 40
0.7142857142857143
 40
0.7142857142857143
 40
0.7142857142857143
 40
0.7142857142857143
 40
1.0
 40
1.0
 40
1.0
 40
1.0
 10
0.6646
 20
-30.0304
 30
0.0
 10
0.6646
 20
-30.0304
 30
0.0
 10
0.6745
 20
-31.2757
 30
0.0
 10
0.6745
 20
-31.2757
 30
0.0
 10
0.6745
 20
-31.2757
 30
0.0
 10
0.6745
 20
-31.4384
 30
0.0
 10
0.8063
 20
-31.5703
 30
0.0
 10
0.9691
 20
-31.5703
 30
0.0
 10
0.9691
 20
-31.5703
 30
0.0
 10
0.9691
 20
-31.5703
 30
0.0
 10
1.058
 20
-31.5165
 30
0.0
 10
1.058
 20
-31.5165
 30
0.0
 10
1.058
 20
-31.5165
 30
0.0
 10
1.058
 20
-31.5165
 30
0.0
 10
1.1289
 20
-31.4131
 30
0.0
 10
1.1289
 20
-31.4131
 30
0.0
 10
1.1289
 20
-31.4131
 30
0.0
 10
1.1289
 20
-31.4131
 30
0.0
 10
1.1677
 20
-31.271
 30
0.0
 10
1.1677
 20
-31.271
 30
0.0
 10
1.1677
 20
-31.271
 30
0.0
 10
1.1677
 20
-31.271
 30
0.0
 10
1.1483
 20
-30.0497
 30
0.0
 10
1.1483
 20
-30.0497
 30
0.0
  0
SPLINE
  5
A0
330
1F
100
AcDbEntity
  8
VRSTVA_1
 62
   250
100
AcDbSpline
210
0.0
220
0.0
230
1.0
 70
    11
 71
     3
 72
    20
 73
    16
 74
     0
 42
0.0000000001
 43
0.0000000001
 40
0.0
 40
0.0
 40
0.0
 40
0.0
 40
0.2
 40
0.2
 40
0.2
 40
0.2
 40
0.4
 40
0.4
 40
0.4
 40
0.4
 40
0.6
 40
0.6
 40
0.6
 40
0.6
 40
1.0
 40
1.0
 40
1.0
 40
1.0
 10
-1.4046
 20
-27.3804
 30
0.0
 10
-1.4046
 20
-27.3804
 30
0.0
 10
12.1023
 20
-27.3804
 30
0.0
 10
12.1023
 20
-27.3804
 30
0.0
 10
12.1023
 20
-27.3804
 30
0.0
 10
12.1023
 20
-27.3804
 30
0.0
 10
12.1023
 20
-28.1211
 30
0.0
 10
12.1023
 20
-28.1211
 30
0.0
 10
12.1023
 20
-28.1211
 30
0.0
 10
12.1023
 20
-28.1211
 30
0.0
 10
-1.4046
 20
-28.1211
 30
0.0
 10
-1.4046
 20
-28.1211
 30
0.0
 10
-1.4046
 20
-28.1211
 30
0.0
 10
-1.4046
 20
-28.1211
 30
0.0
 10
-1.4046
 20
-27.3804
 30
0.0
 10
-1.4046
 20
-27.3804
 30
0.0
  0
SPLINE
  5
A1
330
1F
100
AcDbEntity
  8
VRSTVA_1
 62
   250
100
AcDbSpline
210
0.0
220
0.0
230
1.0
 70
     8
 71
     3
 72
    16
 73
    12
 74
     0
 42
0.0000000001
 43
0.0000000001
 40
0.0
 40
0.0
 40
0.0
 40
0.0
 40
0.25
 40
0.25
 40
0.25
 40
0.25
 40
0.5
 40
0.5
 40
0.5
 40
0.5
 40
1.0
 40
1.0
 40
1.0
 40
1.0
 10
5.2686
 20
-26.0662
 30
0.0
 10
5.2686
 20
-26.0662
 30
0.0
 10
10.3874
 20
-26.0662
 30
0.0
 10
10.3874
 20
-26.0662
 30
0.0
 10
10.3874
 20
-26.0662
 30
0.0
 10
10.3874
 20
-26.0662
 30
0.0
 10
10.3862
 20
-26.3897
 30
0.0
 10
10.3862
 20
-26.3897
 30
0.0
 10
10.3862
 20
-26.3897
 30
0.0
 10
10.3862
 20
-26.3897
 30
0.0
 10
5.2691
 20
-26.3678
 30
0.0
 10
5.2691
 20
-26.3678
 30
0.0
  0
SPLINE
  5
A2
330
1F
100
AcDbEntity
  8
VRSTVA_1
 62
   250
100
AcDbSpline
210
0.0
220
0.0
230
1.0
 70
     8
 71
     3
 72
    16
 73
    12
 74
     0
 42
0.0000000001
 43
0.0000000001
 40
0.0
 40
0.0
 40
0.0
 40
0.0
 40
0.25
 40
0.25
 40
0.25
 40
0.25
 40
0.5
 40
0.5
 40
0.5
 40
0.5
 40
1.0
 40
1.0
 40
1.0
 40
1.0
 10
3.816
 20
-26.3764
 30
0.0
 10
3.816
 20
-26.3764
 30
0.0
 10
0.3095
 20
-26.3764
 30
0.0
 10
0.3095
 20
-26.3764
 30
0.0
 10
0.3095
 20
-26.3764
 30
0.0
 10
0.3095
 20
-26.3764
 30
0.0
 10
0.3052
 20
-26.0507
 30
0.0
 10
0.3052
 20
-26.0507
 30
0.0
 10
0.3052
 20
-26.0507
 30
0.0
 10
0.3052
 20
-26.0507
 30
0.0
 10
3.8368
 20
-26.0617
 30
0.0
 10
3.8368
 20
-26.0617
 30
0.0
  0
SPLINE
  5
A3
330
1F
100
AcDbEntity
  8
VRSTVA_1
 62
   250
100
AcDbSpline
210
0.0
220
0.0
230
1.0
 70
     8
 71
     3
 72
    28
 73
    24
 74
     0
 42
0.0000000001
 43
0.0000000001
 40
0.0
 40
0.0
 40
0.0
 40
0.0
 40
0.1428571428571428
 40
0.1428571428571428
 40
0.1428571428571428
 40
0.1428571428571428
 40
0.2857142857142857
 40
0.2857142857142857
 40
0.2857142857142857
 40
0.2857142857142857
 40
0.4285714285714285
 40
0.4285714285714285
 40
0.4285714285714285
 40
0.4285714285714285
 40
0.5714285714285714
 40
0.5714285714285714
 40
0.5714285714285714
 40
0.5714285714285714
 40
0.7142857142857143
 40
0.7142857142857143
 40
0.7142857142857143
 40
0.7142857142857143
 40
1.0
 40
1.0
 40
1.0
 40
1.0
 10
2.8685
 20
-23.2545
 30
0.0
 10
2.8685
 20
-23.2545
 30
0.0
 10
2.8678
 20
-24.8914
 30
0.0
 10
2.8678
 20
-24.8914
 30
0.0
 10
2.8678
 20
-24.8914
 30
0.0
 10
2.8678
 20
-25.309
 30
0.0
 10
2.5369
 20
-25.6515
 30
0.0
 10
2.1196
 20
-25.6661
 30
0.0
 10
2.1196
 20
-25.6661
 30
0.0
 10
2.1196
 20
-25.6661
 30
0.0
 10
1.4645
 20
-25.6899
 30
0.0
 10
1.4645
 20
-25.6899
 30
0.0
 10
1.4645
 20
-25.6899
 30
0.0
 10
1.4645
 20
-25.6899
 30
0.0
 10
1.3435
 20
-25.753
 30
0.0
 10
1.3435
 20
-25.753
 30
0.0
 10
1.3435
 20
-25.753
 30
0.0
 10
1.3435
 20
-25.753
 30
0.0
 10
1.3144
 20
-25.8549
 30
0.0
 10
1.3144
 20
-25.8549
 30
0.0
 10
1.3144
 20
-25.8549
 30
0.0
 10
1.3144
 20
-25.8549
 30
0.0
 10
1.3144
 20
-26.0295
 30
0.0
 10
1.3144
 20
-26.0295
 30
0.0
  0
SPLINE
  5
A4
330
1F
100
AcDbEntity
  8
VRSTVA_1
 62
   250
100
AcDbSpline
210
0.0
220
0.0
230
1.0
 70
     8
 71
     3
 72
    32
 73
    28
 74
     0
 42
0.0000000001
 43
0.0000000001
 40
0.0
 40
0.0
 40
0.0
 40
0.0
 40
0.125
 40
0.125
 40
0.125
 40
0.125
 40
0.25
 40
0.25
 40
0.25
 40
0.25
 40
0.375
 40
0.375
 40
0.375
 40
0.375
 40
0.5
 40
0.5
 40
0.5
 40
0.5
 40
0.625
 40
0.625
 40
0.625
 40
0.625
 40
0.75
 40
0.75
 40
0.75
 40
0.75
 40
1.0
 40
1.0
 40
1.0
 40
1.0
 10
7.8322
 20
-23.2602
 30
0.0
 10
7.8322
 20
-23.2602
 30
0.0
 10
7.8292
 20
-24.8914
 30
0.0
 10
7.8292
 20
-24.8914
 30
0.0
 10
7.8292
 20
-24.8914
 30
0.0
 10
7.8292
 20
-25.309
 30
0.0
 10
8.1599
 20
-25.6515
 30
0.0
 10
8.5773
 20
-25.6661
 30
0.0
 10
8.5773
 20
-25.6661
 30
0.0
 10
8.5773
 20
-25.6661
 30
0.0
 10
9.3333
 20
-25.7068
 30
0.0
 10
9.3333
 20
-25.7068
 30
0.0
 10
9.3333
 20
-25.7068
 30
0.0
 10
9.3333
 20
-25.7068
 30
0.0
 10
9.3641
 20
-25.7409
 30
0.0
 10
9.3641
 20
-25.7409
 30
0.0
 10
9.3641
 20
-25.7409
 30
0.0
 10
9.3641
 20
-25.7409
 30
0.0
 10
9.3785
 20
-25.7842
 30
0.0
 10
9.3785
 20
-25.7842
 30
0.0
 10
9.3785
 20
-25.7842
 30
0.0
 10
9.3785
 20
-25.7842
 30
0.0
 10
9.3818
 20
-25.8354
 30
0.0
 10
9.3818
 20
-25.8354
 30
0.0
 10
9.3818
 20
-25.8354
 30
0.0
 10
9.3818
 20
-25.8354
 30
0.0
 10
9.3818
 20
-26.0197
 30
0.0
 10
9.3818
 20
-26.0197
 30
0.0
  0
SPLINE
  5
A5
330
1F
100
AcDbEntity
  8
VRSTVA_1
 62
   250
100
AcDbSpline
210
0.0
220
0.0
230
1.0
 70
    27
 71
     3
 72
    12
 73
     8
 74
     0
 42
0.0000000001
 43
0.0000000001
 40
0.0
 40
0.0
 40
0.0
 40
0.0
 40
0.3333333333333333
 40
0.3333333333333333
 40
0.3333333333333333
 40
0.3333333333333333
 40
1.0
 40
1.0
 40
1.0
 40
1.0
 10
5.2686
 20
-25.6889
 30
0.0
 10
5.2686
 20
-25.6889
 30
0.0
 10
8.9313
 20
-25.6889
 30
0.0
 10
8.9313
 20
-25.6889
 30
0.0
 10
8.9313
 20
-25.6889
 30
0.0
 10
8.9313
 20
-25.6889
 30
0.0
 10
5.2686
 20
-25.6889
 30
0.0
 10
5.2686
 20
-25.6889
 30
0.0
  0
SPLINE
  5
A6
330
1F
100
AcDbEntity
  8
VRSTVA_1
 62
   250
100
AcDbSpline
210
0.0
220
0.0
230
1.0
 70
    27
 71
     3
 72
    12
 73
     8
 74
     0
 42
0.0000000001
 43
0.0000000001
 40
0.0
 40
0.0
 40
0.0
 40
0.0
 40
0.3333333333333333
 40
0.3333333333333333
 40
0.3333333333333333
 40
0.3333333333333333
 40
1.0
 40
1.0
 40
1.0
 40
1.0
 10
1.4669
 20
-25.6889
 30
0.0
 10
1.4669
 20
-25.6889
 30
0.0
 10
3.816
 20
-25.6889
 30
0.0
 10
3.816
 20
-25.6889
 30
0.0
 10
3.816
 20
-25.6889
 30
0.0
 10
3.816
 20
-25.6889
 30
0.0
 10
1.4669
 20
-25.6889
 30
0.0
 10
1.4669
 20
-25.6889
 30
0.0
  0
SPLINE
  5
A7
330
1F
100
AcDbEntity
  8
VRSTVA_1
 62
   250
100
AcDbSpline
210
0.0
220
0.0
230
1.0
 70
    27
 71
     3
 72
    12
 73
     8
 74
     0
 42
0.0000000001
 43
0.0000000001
 40
0.0
 40
0.0
 40
0.0
 40
0.0
 40
0.3333333333333333
 40
0.3333333333333333
 40
0.3333333333333333
 40
0.3333333333333333
 40
1.0
 40
1.0
 40
1.0
 40
1.0
 10
11.6432
 20
-19.6784
 30
0.0
 10
11.6432
 20
-19.6784
 30
0.0
 10
-0.8844
 20
-19.6784
 30
0.0
 10
-0.8844
 20
-19.6784
 30
0.0
 10
-0.8844
 20
-19.6784
 30
0.0
 10
-0.8844
 20
-19.6784
 30
0.0
 10
11.6432
 20
-19.6784
 30
0.0
 10
11.6432
 20
-19.6784
 30
0.0
  0
SPLINE
  5
A8
330
1F
100
AcDbEntity
  8
VRSTVA_1
 62
   250
100
AcDbSpline
210
0.0
220
0.0
230
1.0
 70
    11
 71
     3
 72
    76
 73
    72
 74
     0
 42
0.0000000001
 43
0.0000000001
 40
0.0
 40
0.0
 40
0.0
 40
0.0
 40
0.0526315789473684
 40
0.0526315789473684
 40
0.0526315789473684
 40
0.0526315789473684
 40
0.1052631578947368
 40
0.1052631578947368
 40
0.1052631578947368
 40
0.1052631578947368
 40
0.1578947368421053
 40
0.1578947368421053
 40
0.1578947368421053
 40
0.1578947368421053
 40
0.2105263157894737
 40
0.2105263157894737
 40
0.2105263157894737
 40
0.2105263157894737
 40
0.2631578947368421
 40
0.2631578947368421
 40
0.2631578947368421
 40
0.2631578947368421
 40
0.3157894736842105
 40
0.3157894736842105
 40
0.3157894736842105
 40
0.3157894736842105
 40
0.3684210526315789
 40
0.3684210526315789
 40
0.3684210526315789
 40
0.3684210526315789
 40
0.4210526315789473
 40
0.4210526315789473
 40
0.4210526315789473
 40
0.4210526315789473
 40
0.4736842105263158
 40
0.4736842105263158
 40
0.4736842105263158
 40
0.4736842105263158
 40
0.5263157894736842
 40
0.5263157894736842
 40
0.5263157894736842
 40
0.5263157894736842
 40
0.5789473684210527
 40
0.5789473684210527
 40
0.5789473684210527
 40
0.5789473684210527
 40
0.631578947368421
 40
0.631578947368421
 40
0.631578947368421
 40
0.631578947368421
 40
0.6842105263157895
 40
0.6842105263157895
 40
0.6842105263157895
 40
0.6842105263157895
 40
0.7368421052631579
 40
0.7368421052631579
 40
0.7368421052631579
 40
0.7368421052631579
 40
0.7894736842105263
 40
0.7894736842105263
 40
0.7894736842105263
 40
0.7894736842105263
 40
0.8421052631578947
 40
0.8421052631578947
 40
0.8421052631578947
 40
0.8421052631578947
 40
0.8947368421052632
 40
0.8947368421052632
 40
0.8947368421052632
 40
0.8947368421052632
 40
1.0
 40
1.0
 40
1.0
 40
1.0
 10
0.8411
 20
-20.623
 30
0.0
 10
0.8411
 20
-20.623
 30
0.0
 10
0.7578
 20
-20.623
 30
0.0
 10
0.7578
 20
-20.623
 30
0.0
 10
0.7578
 20
-20.623
 30
0.0
 10
0.7578
 20
-20.623
 30
0.0
 10
0.7578
 20
-20.0676
 30
0.0
 10
0.7578
 20
-20.0676
 30
0.0
 10
0.7578
 20
-20.0676
 30
0.0
 10
0.7578
 20
-20.0676
 30
0.0
 10
0.7559
 20
-20.0676
 30
0.0
 10
0.7559
 20
-20.0676
 30
0.0
 10
0.7559
 20
-20.0676
 30
0.0
 10
0.7559
 20
-20.0676
 30
0.0
 10
0.565
 20
-20.623
 30
0.0
 10
0.565
 20
-20.623
 30
0.0
 10
0.565
 20
-20.623
 30
0.0
 10
0.565
 20
-20.623
 30
0.0
 10
0.4861
 20
-20.623
 30
0.0
 10
0.4861
 20
-20.623
 30
0.0
 10
0.4861
 20
-20.623
 30
0.0
 10
0.4861
 20
-20.623
 30
0.0
 10
0.2961
 20
-20.0585
 30
0.0
 10
0.2961
 20
-20.0585
 30
0.0
 10
0.2961
 20
-20.0585
 30
0.0
 10
0.2961
 20
-20.0585
 30
0.0
 10
0.2933
 20
-20.0585
 30
0.0
 10
0.2933
 20
-20.0585
 30
0.0
 10
0.2933
 20
-20.0585
 30
0.0
 10
0.2933
 20
-20.0585
 30
0.0
 10
0.2933
 20
-20.623
 30
0.0
 10
0.2933
 20
-20.623
 30
0.0
 10
0.2933
 20
-20.623
 30
0.0
 10
0.2933
 20
-20.623
 30
0.0
 10
0.2101
 20
-20.623
 30
0.0
 10
0.2101
 20
-20.623
 30
0.0
 10
0.2101
 20
-20.623
 30
0.0
 10
0.2101
 20
-20.623
 30
0.0
 10
0.2101
 20
-19.9594
 30
0.0
 10
0.2101
 20
-19.9594
 30
0.0
 10
0.2101
 20
-19.9594
 30
0.0
 10
0.2101
 20
-19.9594
 30
0.0
 10
0.3413
 20
-19.9594
 30
0.0
 10
0.3413
 20
-19.9594
 30
0.0
 10
0.3413
 20
-19.9594
 30
0.0
 10
0.3413
 20
-19.9594
 30
0.0
 10
0.4983
 20
-20.4292
 30
0.0
 10
0.4983
 20
-20.4292
 30
0.0
 10
0.4983
 20
-20.4292
 30
0.0
 10
0.516
 20
-20.4815
 30
0.0
 10
0.526
 20
-20.5141
 30
0.0
 10
0.5288
 20
-20.5275
 30
0.0
 10
0.5288
 20
-20.5275
 30
0.0
 10
0.5288
 20
-20.5275
 30
0.0
 10
0.5305
 20
-20.5275
 30
0.0
 10
0.5305
 20
-20.5275
 30
0.0
 10
0.5305
 20
-20.5275
 30
0.0
 10
0.5387
 20
-20.5019
 30
0.0
 10
0.5504
 20
-20.4663
 30
0.0
 10
0.5659
 20
-20.4211
 30
0.0
 10
0.5659
 20
-20.4211
 30
0.0
 10
0.5659
 20
-20.4211
 30
0.0
 10
0.7243
 20
-19.9594
 30
0.0
 10
0.7243
 20
-19.9594
 30
0.0
 10
0.7243
 20
-19.9594
 30
0.0
 10
0.7243
 20
-19.9594
 30
0.0
 10
0.8411
 20
-19.9594
 30
0.0
 10
0.8411
 20
-19.9594
 30
0.0
 10
0.8411
 20
-19.9594
 30
0.0
 10
0.8411
 20
-19.9594
 30
0.0
 10
0.8411
 20
-20.623
 30
0.0
 10
0.8411
 20
-20.623
 30
0.0
  0
SPLINE
  5
A9
330
1F
100
AcDbEntity
  8
VRSTVA_1
 62
   250
100
AcDbSpline
210
0.0
220
0.0
230
1.0
 70
    11
 71
     3
 72
    20
 73
    16
 74
     0
 42
0.0000000001
 43
0.0000000001
 40
0.0
 40
0.0
 40
0.0
 40
0.0
 40
0.2
 40
0.2
 40
0.2
 40
0.2
 40
0.4
 40
0.4
 40
0.4
 40
0.4
 40
0.6
 40
0.6
 40
0.6
 40
0.6
 40
1.0
 40
1.0
 40
1.0
 40
1.0
 10
1.085
 20
-20.623
 30
0.0
 10
1.085
 20
-20.623
 30
0.0
 10
0.9967
 20
-20.623
 30
0.0
 10
0.9967
 20
-20.623
 30
0.0
 10
0.9967
 20
-20.623
 30
0.0
 10
0.9967
 20
-20.623
 30
0.0
 10
0.9967
 20
-19.9594
 30
0.0
 10
0.9967
 20
-19.9594
 30
0.0
 10
0.9967
 20
-19.9594
 30
0.0
 10
0.9967
 20
-19.9594
 30
0.0
 10
1.085
 20
-19.9594
 30
0.0
 10
1.085
 20
-19.9594
 30
0.0
 10
1.085
 20
-19.9594
 30
0.0
 10
1.085
 20
-19.9594
 30
0.0
 10
1.085
 20
-20.623
 30
0.0
 10
1.085
 20
-20.623
 30
0.0
  0
SPLINE
  5
AA
330
1F
100
AcDbEntity
  8
VRSTVA_1
 62
   250
100
AcDbSpline
210
0.0
220
0.0
230
1.0
 70
    11
 71
     3
 72
    52
 73
    48
 74
     0
 42
0.0000000001
 43
0.0000000001
 40
0.0
 40
0.0
 40
0.0
 40
0.0
 40
0.0769230769230769
 40
0.0769230769230769
 40
0.0769230769230769
 40
0.0769230769230769
 40
0.1538461538461539
 40
0.1538461538461539
 40
0.1538461538461539
 40
0.1538461538461539
 40
0.2307692307692308
 40
0.2307692307692308
 40
0.2307692307692308
 40
0.2307692307692308
 40
0.3076923076923077
 40
0.3076923076923077
 40
0.3076923076923077
 40
0.3076923076923077
 40
0.3846153846153846
 40
0.3846153846153846
 40
0.3846153846153846
 40
0.3846153846153846
 40
0.4615384615384616
 40
0.4615384615384616
 40
0.4615384615384616
 40
0.4615384615384616
 40
0.5384615384615384
 40
0.5384615384615384
 40
0.5384615384615384
 40
0.5384615384615384
 40
0.6153846153846154
 40
0.6153846153846154
 40
0.6153846153846154
 40
0.6153846153846154
 40
0.6923076923076923
 40
0.6923076923076923
 40
0.6923076923076923
 40
0.6923076923076923
 40
0.7692307692307693
 40
0.7692307692307693
 40
0.7692307692307693
 40
0.7692307692307693
 40
0.8461538461538461
 40
0.8461538461538461
 40
0.8461538461538461
 40
0.8461538461538461
 40
1.0
 40
1.0
 40
1.0
 40
1.0
 10
1.7645
 20
-20.623
 30
0.0
 10
1.7645
 20
-20.623
 30
0.0
 10
1.6744
 20
-20.623
 30
0.0
 10
1.6744
 20
-20.623
 30
0.0
 10
1.6744
 20
-20.623
 30
0.0
 10
1.6744
 20
-20.623
 30
0.0
 10
1.3276
 20
-20.102
 30
0.0
 10
1.3276
 20
-20.102
 30
0.0
 10
1.3276
 20
-20.102
 30
0.0
 10
1.3276
 20
-20.102
 30
0.0
 10
1.3258
 20
-20.102
 30
0.0
 10
1.3258
 20
-20.102
 30
0.0
 10
1.3258
 20
-20.102
 30
0.0
 10
1.3258
 20
-20.102
 30
0.0
 10
1.3258
 20
-20.623
 30
0.0
 10
1.3258
 20
-20.623
 30
0.0
 10
1.3258
 20
-20.623
 30
0.0
 10
1.3258
 20
-20.623
 30
0.0
 10
1.2425
 20
-20.623
 30
0.0
 10
1.2425
 20
-20.623
 30
0.0
 10
1.2425
 20
-20.623
 30
0.0
 10
1.2425
 20
-20.623
 30
0.0
 10
1.2425
 20
-19.9594
 30
0.0
 10
1.2425
 20
-19.9594
 30
0.0
 10
1.2425
 20
-19.9594
 30
0.0
 10
1.2425
 20
-19.9594
 30
0.0
 10
1.3321
 20
-19.9594
 30
0.0
 10
1.3321
 20
-19.9594
 30
0.0
 10
1.3321
 20
-19.9594
 30
0.0
 10
1.3321
 20
-19.9594
 30
0.0
 10
1.6789
 20
-20.4804
 30
0.0
 10
1.6789
 20
-20.4804
 30
0.0
 10
1.6789
 20
-20.4804
 30
0.0
 10
1.6789
 20
-20.4804
 30
0.0
 10
1.6807
 20
-20.4804
 30
0.0
 10
1.6807
 20
-20.4804
 30
0.0
 10
1.6807
 20
-20.4804
 30
0.0
 10
1.6807
 20
-20.4804
 30
0.0
 10
1.6807
 20
-19.9594
 30
0.0
 10
1.6807
 20
-19.9594
 30
0.0
 10
1.6807
 20
-19.9594
 30
0.0
 10
1.6807
 20
-19.9594
 30
0.0
 10
1.7645
 20
-19.9594
 30
0.0
 10
1.7645
 20
-19.9594
 30
0.0
 10
1.7645
 20
-19.9594
 30
0.0
 10
1.7645
 20
-19.9594
 30
0.0
 10
1.7645
 20
-20.623
 30
0.0
 10
1.7645
 20
-20.623
 30
0.0
  0
SPLINE
  5
AB
330
1F
100
AcDbEntity
  8
VRSTVA_1
 62
   250
100
AcDbSpline
210
0.0
220
0.0
230
1.0
 70
    11
 71
     3
 72
    76
 73
    72
 74
     0
 42
0.0000000001
 43
0.0000000001
 40
0.0
 40
0.0
 40
0.0
 40
0.0
 40
0.0526315789473684
 40
0.0526315789473684
 40
0.0526315789473684
 40
0.0526315789473684
 40
0.1052631578947368
 40
0.1052631578947368
 40
0.1052631578947368
 40
0.1052631578947368
 40
0.1578947368421053
 40
0.1578947368421053
 40
0.1578947368421053
 40
0.1578947368421053
 40
0.2105263157894737
 40
0.2105263157894737
 40
0.2105263157894737
 40
0.2105263157894737
 40
0.2631578947368421
 40
0.2631578947368421
 40
0.2631578947368421
 40
0.2631578947368421
 40
0.3157894736842105
 40
0.3157894736842105
 40
0.3157894736842105
 40
0.3157894736842105
 40
0.3684210526315789
 40
0.3684210526315789
 40
0.3684210526315789
 40
0.3684210526315789
 40
0.4210526315789473
 40
0.4210526315789473
 40
0.4210526315789473
 40
0.4210526315789473
 40
0.4736842105263158
 40
0.4736842105263158
 40
0.4736842105263158
 40
0.4736842105263158
 40
0.5263157894736842
 40
0.5263157894736842
 40
0.5263157894736842
 40
0.5263157894736842
 40
0.5789473684210527
 40
0.5789473684210527
 40
0.5789473684210527
 40
0.5789473684210527
 40
0.631578947368421
 40
0.631578947368421
 40
0.631578947368421
 40
0.631578947368421
 40
0.6842105263157895
 40
0.6842105263157895
 40
0.6842105263157895
 40
0.6842105263157895
 40
0.7368421052631579
 40
0.7368421052631579
 40
0.7368421052631579
 40
0.7368421052631579
 40
0.7894736842105263
 40
0.7894736842105263
 40
0.7894736842105263
 40
0.7894736842105263
 40
0.8421052631578947
 40
0.8421052631578947
 40
0.8421052631578947
 40
0.8421052631578947
 40
0.8947368421052632
 40
0.8947368421052632
 40
0.8947368421052632
 40
0.8947368421052632
 40
1.0
 40
1.0
 40
1.0
 40
1.0
 10
9.276
 20
-20.5923
 30
0.0
 10
9.276
 20
-20.5923
 30
0.0
 10
9.1927
 20
-20.5923
 30
0.0
 10
9.1927
 20
-20.5923
 30
0.0
 10
9.1927
 20
-20.5923
 30
0.0
 10
9.1927
 20
-20.5923
 30
0.0
 10
9.1927
 20
-20.0369
 30
0.0
 10
9.1927
 20
-20.0369
 30
0.0
 10
9.1927
 20
-20.0369
 30
0.0
 10
9.1927
 20
-20.0369
 30
0.0
 10
9.1908
 20
-20.0369
 30
0.0
 10
9.1908
 20
-20.0369
 30
0.0
 10
9.1908
 20
-20.0369
 30
0.0
 10
9.1908
 20
-20.0369
 30
0.0
 10
8.9999
 20
-20.5923
 30
0.0
 10
8.9999
 20
-20.5923
 30
0.0
 10
8.9999
 20
-20.5923
 30
0.0
 10
8.9999
 20
-20.5923
 30
0.0
 10
8.921
 20
-20.5923
 30
0.0
 10
8.921
 20
-20.5923
 30
0.0
 10
8.921
 20
-20.5923
 30
0.0
 10
8.921
 20
-20.5923
 30
0.0
 10
8.731
 20
-20.0278
 30
0.0
 10
8.731
 20
-20.0278
 30
0.0
 10
8.731
 20
-20.0278
 30
0.0
 10
8.731
 20
-20.0278
 30
0.0
 10
8.7282
 20
-20.0278
 30
0.0
 10
8.7282
 20
-20.0278
 30
0.0
 10
8.7282
 20
-20.0278
 30
0.0
 10
8.7282
 20
-20.0278
 30
0.0
 10
8.7282
 20
-20.5923
 30
0.0
 10
8.7282
 20
-20.5923
 30
0.0
 10
8.7282
 20
-20.5923
 30
0.0
 10
8.7282
 20
-20.5923
 30
0.0
 10
8.645
 20
-20.5923
 30
0.0
 10
8.645
 20
-20.5923
 30
0.0
 10
8.645
 20
-20.5923
 30
0.0
 10
8.645
 20
-20.5923
 30
0.0
 10
8.645
 20
-19.9287
 30
0.0
 10
8.645
 20
-19.9287
 30
0.0
 10
8.645
 20
-19.9287
 30
0.0
 10
8.645
 20
-19.9287
 30
0.0
 10
8.7762
 20
-19.9287
 30
0.0
 10
8.7762
 20
-19.9287
 30
0.0
 10
8.7762
 20
-19.9287
 30
0.0
 10
8.7762
 20
-19.9287
 30
0.0
 10
8.9333
 20
-20.3985
 30
0.0
 10
8.9333
 20
-20.3985
 30
0.0
 10
8.9333
 20
-20.3985
 30
0.0
 10
8.9509
 20
-20.4508
 30
0.0
 10
8.9609
 20
-20.4835
 30
0.0
 10
8.9637
 20
-20.4969
 30
0.0
 10
8.9637
 20
-20.4969
 30
0.0
 10
8.9637
 20
-20.4969
 30
0.0
 10
8.9654
 20
-20.4969
 30
0.0
 10
8.9654
 20
-20.4969
 30
0.0
 10
8.9654
 20
-20.4969
 30
0.0
 10
8.9736
 20
-20.4713
 30
0.0
 10
8.9853
 20
-20.4356
 30
0.0
 10
9.0008
 20
-20.3904
 30
0.0
 10
9.0008
 20
-20.3904
 30
0.0
 10
9.0008
 20
-20.3904
 30
0.0
 10
9.1592
 20
-19.9287
 30
0.0
 10
9.1592
 20
-19.9287
 30
0.0
 10
9.1592
 20
-19.9287
 30
0.0
 10
9.1592
 20
-19.9287
 30
0.0
 10
9.276
 20
-19.9287
 30
0.0
 10
9.276
 20
-19.9287
 30
0.0
 10
9.276
 20
-19.9287
 30
0.0
 10
9.276
 20
-19.9287
 30
0.0
 10
9.276
 20
-20.5923
 30
0.0
 10
9.276
 20
-20.5923
 30
0.0
  0
SPLINE
  5
AC
330
1F
100
AcDbEntity
  8
VRSTVA_1
 62
   250
100
AcDbSpline
210
0.0
220
0.0
230
1.0
 70
    11
 71
     3
 72
    28
 73
    24
 74
     0
 42
0.0000000001
 43
0.0000000001
 40
0.0
 40
0.0
 40
0.0
 40
0.0
 40
0.1428571428571428
 40
0.1428571428571428
 40
0.1428571428571428
 40
0.1428571428571428
 40
0.2857142857142857
 40
0.2857142857142857
 40
0.2857142857142857
 40
0.2857142857142857
 40
0.4285714285714285
 40
0.4285714285714285
 40
0.4285714285714285
 40
0.4285714285714285
 40
0.5714285714285714
 40
0.5714285714285714
 40
0.5714285714285714
 40
0.5714285714285714
 40
0.7142857142857143
 40
0.7142857142857143
 40
0.7142857142857143
 40
0.7142857142857143
 40
1.0
 40
1.0
 40
1.0
 40
1.0
 10
9.7621
 20
-20.3206
 30
0.0
 10
9.7078
 20
-20.1771
 30
0.0
 10
9.6773
 20
-20.0955
 30
0.0
 10
9.6702
 20
-20.0761
 30
0.0
 10
9.6702
 20
-20.0761
 30
0.0
 10
9.6633
 20
-20.0566
 30
0.0
 10
9.6555
 20
-20.0305
 30
0.0
 10
9.6471
 20
-19.998
 30
0.0
 10
9.6471
 20
-19.998
 30
0.0
 10
9.6471
 20
-19.998
 30
0.0
 10
9.6449
 20
-19.998
 30
0.0
 10
9.6449
 20
-19.998
 30
0.0
 10
9.6449
 20
-19.998
 30
0.0
 10
9.6365
 20
-20.0425
 30
0.0
 10
9.6251
 20
-20.0839
 30
0.0
 10
9.6109
 20
-20.122
 30
0.0
 10
9.6109
 20
-20.122
 30
0.0
 10
9.6109
 20
-20.122
 30
0.0
 10
9.5366
 20
-20.3206
 30
0.0
 10
9.5366
 20
-20.3206
 30
0.0
 10
9.5366
 20
-20.3206
 30
0.0
 10
9.5366
 20
-20.3206
 30
0.0
 10
9.7621
 20
-20.3206
 30
0.0
 10
9.7621
 20
-20.3206
 30
0.0
  0
SPLINE
  5
AD
330
1F
100
AcDbEntity
  8
VRSTVA_1
 62
   250
100
AcDbSpline
210
0.0
220
0.0
230
1.0
 70
    11
 71
     3
 72
    36
 73
    32
 74
     0
 42
0.0000000001
 43
0.0000000001
 40
0.0
 40
0.0
 40
0.0
 40
0.0
 40
0.1111111111111111
 40
0.1111111111111111
 40
0.1111111111111111
 40
0.1111111111111111
 40
0.2222222222222222
 40
0.2222222222222222
 40
0.2222222222222222
 40
0.2222222222222222
 40
0.3333333333333333
 40
0.3333333333333333
 40
0.3333333333333333
 40
0.3333333333333333
 40
0.4444444444444444
 40
0.4444444444444444
 40
0.4444444444444444
 40
0.4444444444444444
 40
0.5555555555555556
 40
0.5555555555555556
 40
0.5555555555555556
 40
0.5555555555555556
 40
0.6666666666666666
 40
0.6666666666666666
 40
0.6666666666666666
 40
0.6666666666666666
 40
0.7777777777777778
 40
0.7777777777777778
 40
0.7777777777777778
 40
0.7777777777777778
 40
1.0
 40
1.0
 40
1.0
 40
1.0
 10
9.9659
 20
-20.5923
 30
0.0
 10
9.9659
 20
-20.5923
 30
0.0
 10
9.8667
 20
-20.5923
 30
0.0
 10
9.8667
 20
-20.5923
 30
0.0
 10
9.8667
 20
-20.5923
 30
0.0
 10
9.8667
 20
-20.5923
 30
0.0
 10
9.7888
 20
-20.3904
 30
0.0
 10
9.7888
 20
-20.3904
 30
0.0
 10
9.7888
 20
-20.3904
 30
0.0
 10
9.7888
 20
-20.3904
 30
0.0
 10
9.5118
 20
-20.3904
 30
0.0
 10
9.5118
 20
-20.3904
 30
0.0
 10
9.5118
 20
-20.3904
 30
0.0
 10
9.5118
 20
-20.3904
 30
0.0
 10
9.4385
 20
-20.5923
 30
0.0
 10
9.4385
 20
-20.5923
 30
0.0
 10
9.4385
 20
-20.5923
 30
0.0
 10
9.4385
 20
-20.5923
 30
0.0
 10
9.3457
 20
-20.5923
 30
0.0
 10
9.3457
 20
-20.5923
 30
0.0
 10
9.3457
 20
-20.5923
 30
0.0
 10
9.3457
 20
-20.5923
 30
0.0
 10
9.6006
 20
-19.9287
 30
0.0
 10
9.6006
 20
-19.9287
 30
0.0
 10
9.6006
 20
-19.9287
 30
0.0
 10
9.6006
 20
-19.9287
 30
0.0
 10
9.6952
 20
-19.9287
 30
0.0
 10
9.6952
 20
-19.9287
 30
0.0
 10
9.6952
 20
-19.9287
 30
0.0
 10
9.6952
 20
-19.9287
 30
0.0
 10
9.9659
 20
-20.5923
 30
0.0
 10
9.9659
 20
-20.5923
 30
0.0
  0
SPLINE
  5
AE
330
1F
100
AcDbEntity
  8
VRSTVA_1
 62
   250
100
AcDbSpline
210
0.0
220
0.0
230
1.0
 70
    11
 71
     3
 72
    64
 73
    60
 74
     0
 42
0.0000000001
 43
0.0000000001
 40
0.0
 40
0.0
 40
0.0
 40
0.0
 40
0.0625
 40
0.0625
 40
0.0625
 40
0.0625
 40
0.125
 40
0.125
 40
0.125
 40
0.125
 40
0.1875
 40
0.1875
 40
0.1875
 40
0.1875
 40
0.25
 40
0.25
 40
0.25
 40
0.25
 40
0.3125
 40
0.3125
 40
0.3125
 40
0.3125
 40
0.375
 40
0.375
 40
0.375
 40
0.375
 40
0.4375
 40
0.4375
 40
0.4375
 40
0.4375
 40
0.5
 40
0.5
 40
0.5
 40
0.5
 40
0.5625
 40
0.5625
 40
0.5625
 40
0.5625
 40
0.625
 40
0.625
 40
0.625
 40
0.625
 40
0.6875
 40
0.6875
 40
0.6875
 40
0.6875
 40
0.75
 40
0.75
 40
0.75
 40
0.75
 40
0.8125
 40
0.8125
 40
0.8125
 40
0.8125
 40
0.875
 40
0.875
 40
0.875
 40
0.875
 40
1.0
 40
1.0
 40
1.0
 40
1.0
 10
10.5779
 20
-20.5923
 30
0.0
 10
10.5779
 20
-20.5923
 30
0.0
 10
10.4693
 20
-20.5923
 30
0.0
 10
10.4693
 20
-20.5923
 30
0.0
 10
10.4693
 20
-20.5923
 30
0.0
 10
10.4693
 20
-20.5923
 30
0.0
 10
10.3361
 20
-20.404
 30
0.0
 10
10.3361
 20
-20.404
 30
0.0
 10
10.3361
 20
-20.404
 30
0.0
 10
10.3035
 20
-20.3578
 30
0.0
 10
10.2832
 20
-20.3268
 30
0.0
 10
10.2746
 20
-20.3111
 30
0.0
 10
10.2746
 20
-20.3111
 30
0.0
 10
10.2746
 20
-20.3111
 30
0.0
 10
10.2728
 20
-20.3111
 30
0.0
 10
10.2728
 20
-20.3111
 30
0.0
 10
10.2728
 20
-20.3111
 30
0.0
 10
10.2728
 20
-20.3167
 30
0.0
 10
10.2069
 20
-20.4103
 30
0.0
 10
10.0753
 20
-20.5923
 30
0.0
 10
10.0753
 20
-20.5923
 30
0.0
 10
10.0753
 20
-20.5923
 30
0.0
 10
9.9695
 20
-20.5923
 30
0.0
 10
9.9695
 20
-20.5923
 30
0.0
 10
9.9695
 20
-20.5923
 30
0.0
 10
9.9695
 20
-20.5923
 30
0.0
 10
10.2266
 20
-20.2465
 30
0.0
 10
10.2266
 20
-20.2465
 30
0.0
 10
10.2266
 20
-20.2465
 30
0.0
 10
10.2266
 20
-20.2465
 30
0.0
 10
9.9993
 20
-19.9287
 30
0.0
 10
9.9993
 20
-19.9287
 30
0.0
 10
9.9993
 20
-19.9287
 30
0.0
 10
9.9993
 20
-19.9287
 30
0.0
 10
10.1039
 20
-19.9287
 30
0.0
 10
10.1039
 20
-19.9287
 30
0.0
 10
10.1039
 20
-19.9287
 30
0.0
 10
10.1039
 20
-19.9287
 30
0.0
 10
10.2438
 20
-20.1269
 30
0.0
 10
10.2438
 20
-20.1269
 30
0.0
 10
10.2438
 20
-20.1269
 30
0.0
 10
10.2589
 20
-20.1483
 30
0.0
 10
10.27
 20
-20.1664
 30
0.0
 10
10.2772
 20
-20.1808
 30
0.0
 10
10.2772
 20
-20.1808
 30
0.0
 10
10.2891
 20
-20.1606
 30
0.0
 10
10.3513
 20
-20.0765
 30
0.0
 10
10.4639
 20
-19.9287
 30
0.0
 10
10.4639
 20
-19.9287
 30
0.0
 10
10.4639
 20
-19.9287
 30
0.0
 10
10.5593
 20
-19.9287
 30
0.0
 10
10.5593
 20
-19.9287
 30
0.0
 10
10.5593
 20
-19.9287
 30
0.0
 10
10.5593
 20
-19.9287
 30
0.0
 10
10.3267
 20
-20.2411
 30
0.0
 10
10.3267
 20
-20.2411
 30
0.0
 10
10.3267
 20
-20.2411
 30
0.0
 10
10.3267
 20
-20.2411
 30
0.0
 10
10.5779
 20
-20.5923
 30
0.0
 10
10.5779
 20
-20.5923
 30
0.0
  0
SPLINE
  5
AF
330
1F
100
AcDbEntity
  8
VRSTVA_1
 62
   250
100
AcDbSpline
210
0.0
220
0.0
230
1.0
 70
    27
 71
     3
 72
    12
 73
     8
 74
     0
 42
0.0000000001
 43
0.0000000001
 40
0.0
 40
0.0
 40
0.0
 40
0.0
 40
0.3333333333333333
 40
0.3333333333333333
 40
0.3333333333333333
 40
0.3333333333333333
 40
1.0
 40
1.0
 40
1.0
 40
1.0
 10
2.5078
 20
-20.573
 30
0.0
 10
2.5078
 20
-20.573
 30
0.0
 10
2.5078
 20
-19.9564
 30
0.0
 10
2.5078
 20
-19.9564
 30
0.0
 10
2.5078
 20
-19.9564
 30
0.0
 10
2.5078
 20
-19.9564
 30
0.0
 10
2.5078
 20
-20.573
 30
0.0
 10
2.5078
 20
-20.573
 30
0.0
  0
SPLINE
  5
B0
330
1F
100
AcDbEntity
  8
VRSTVA_1
 62
   250
100
AcDbSpline
210
0.0
220
0.0
230
1.0
 70
    27
 71
     3
 72
    12
 73
     8
 74
     0
 42
0.0000000001
 43
0.0000000001
 40
0.0
 40
0.0
 40
0.0
 40
0.0
 40
0.3333333333333333
 40
0.3333333333333333
 40
0.3333333333333333
 40
0.3333333333333333
 40
1.0
 40
1.0
 40
1.0
 40
1.0
 10
6.3796
 20
-20.5574
 30
0.0
 10
6.3796
 20
-20.5574
 30
0.0
 10
6.3796
 20
-19.9408
 30
0.0
 10
6.3796
 20
-19.9408
 30
0.0
 10
6.3796
 20
-19.9408
 30
0.0
 10
6.3796
 20
-19.9408
 30
0.0
 10
6.3796
 20
-20.5574
 30
0.0
 10
6.3796
 20
-20.5574
 30
0.0
  0
SPLINE
  5
B1
330
1F
100
AcDbEntity
  8
VRSTVA_1
 62
   250
100
AcDbSpline
210
0.0
220
0.0
230
1.0
 70
    27
 71
     3
 72
    12
 73
     8
 74
     0
 42
0.0000000001
 43
0.0000000001
 40
0.0
 40
0.0
 40
0.0
 40
0.0
 40
0.3333333333333333
 40
0.3333333333333333
 40
0.3333333333333333
 40
0.3333333333333333
 40
1.0
 40
1.0
 40
1.0
 40
1.0
 10
3.6799
 20
-20.5416
 30
0.0
 10
3.6799
 20
-20.5416
 30
0.0
 10
3.6799
 20
-19.925
 30
0.0
 10
3.6799
 20
-19.925
 30
0.0
 10
3.6799
 20
-19.925
 30
0.0
 10
3.6799
 20
-19.925
 30
0.0
 10
3.6799
 20
-20.5416
 30
0.0
 10
3.6799
 20
-20.5416
 30
0.0
  0
SPLINE
  5
B2
330
1F
100
AcDbEntity
  8
VRSTVA_1
 62
   250
100
AcDbSpline
210
0.0
220
0.0
230
1.0
 70
    27
 71
     3
 72
    12
 73
     8
 74
     0
 42
0.0000000001
 43
0.0000000001
 40
0.0
 40
0.0
 40
0.0
 40
0.0
 40
0.3333333333333333
 40
0.3333333333333333
 40
0.3333333333333333
 40
0.3333333333333333
 40
1.0
 40
1.0
 40
1.0
 40
1.0
 10
4.961
 20
-20.5574
 30
0.0
 10
4.961
 20
-20.5574
 30
0.0
 10
4.961
 20
-19.9408
 30
0.0
 10
4.961
 20
-19.9408
 30
0.0
 10
4.961
 20
-19.9408
 30
0.0
 10
4.961
 20
-19.9408
 30
0.0
 10
4.961
 20
-20.5574
 30
0.0
 10
4.961
 20
-20.5574
 30
0.0
  0
SPLINE
  5
B3
330
1F
100
AcDbEntity
  8
VRSTVA_1
 62
   250
100
AcDbSpline
210
0.0
220
0.0
230
1.0
 70
    27
 71
     3
 72
    12
 73
     8
 74
     0
 42
0.0000000001
 43
0.0000000001
 40
0.0
 40
0.0
 40
0.0
 40
0.0
 40
0.3333333333333333
 40
0.3333333333333333
 40
0.3333333333333333
 40
0.3333333333333333
 40
1.0
 40
1.0
 40
1.0
 40
1.0
 10
8.0238
 20
-20.5572
 30
0.0
 10
8.0238
 20
-20.5572
 30
0.0
 10
8.0238
 20
-19.9407
 30
0.0
 10
8.0238
 20
-19.9407
 30
0.0
 10
8.0238
 20
-19.9407
 30
0.0
 10
8.0238
 20
-19.9407
 30
0.0
 10
8.0238
 20
-20.5572
 30
0.0
 10
8.0238
 20
-20.5572
 30
0.0
  0
SPLINE
  5
B4
330
1F
100
AcDbEntity
  8
VRSTVA_1
 62
   250
100
AcDbSpline
210
0.0
220
0.0
230
1.0
 70
    27
 71
     3
 72
    12
 73
     8
 74
     0
 42
0.0000000001
 43
0.0000000001
 40
0.0
 40
0.0
 40
0.0
 40
0.0
 40
0.3333333333333333
 40
0.3333333333333333
 40
0.3333333333333333
 40
0.3333333333333333
 40
1.0
 40
1.0
 40
1.0
 40
1.0
 10
11.957
 20
-21.2289
 30
0.0
 10
11.957
 20
-21.2289
 30
0.0
 10
-1.21
 20
-21.2289
 30
0.0
 10
-1.21
 20
-21.2289
 30
0.0
 10
-1.21
 20
-21.2289
 30
0.0
 10
-1.21
 20
-21.2289
 30
0.0
 10
11.957
 20
-21.2289
 30
0.0
 10
11.957
 20
-21.2289
 30
0.0
  0
SPLINE
  5
B5
330
1F
100
AcDbEntity
  8
VRSTVA_1
 62
   250
100
AcDbSpline
210
0.0
220
0.0
230
1.0
 70
    27
 71
     3
 72
    12
 73
     8
 74
     0
 42
0.0000000001
 43
0.0000000001
 40
0.0
 40
0.0
 40
0.0
 40
0.0
 40
0.3333333333333333
 40
0.3333333333333333
 40
0.3333333333333333
 40
0.3333333333333333
 40
1.0
 40
1.0
 40
1.0
 40
1.0
 10
-0.7278
 20
-1.802
 30
0.0
 10
-0.7278
 20
-1.802
 30
0.0
 10
11.5023
 20
-1.802
 30
0.0
 10
11.5023
 20
-1.802
 30
0.0
 10
11.5023
 20
-1.802
 30
0.0
 10
11.5023
 20
-1.802
 30
0.0
 10
-0.7278
 20
-1.802
 30
0.0
 10
-0.7278
 20
-1.802
 30
0.0
  0
SPLINE
  5
B6
330
1F
100
AcDbEntity
  8
VRSTVA_1
 62
   250
100
AcDbSpline
210
0.0
220
0.0
230
1.0
 70
    11
 71
     3
 72
    20
 73
    16
 74
     0
 42
0.0000000001
 43
0.0000000001
 40
0.0
 40
0.0
 40
0.0
 40
0.0
 40
0.2
 40
0.2
 40
0.2
 40
0.2
 40
0.4
 40
0.4
 40
0.4
 40
0.4
 40
0.6
 40
0.6
 40
0.6
 40
0.6
 40
1.0
 40
1.0
 40
1.0
 40
1.0
 10
-0.71
 20
-5.8298
 30
0.0
 10
-0.71
 20
-5.8298
 30
0.0
 10
-2.8818
 20
-5.8298
 30
0.0
 10
-2.8818
 20
-5.8298
 30
0.0
 10
-2.8818
 20
-5.8298
 30
0.0
 10
-2.8818
 20
-5.8298
 30
0.0
 10
-2.8818
 20
-1.8162
 30
0.0
 10
-2.8818
 20
-1.8162
 30
0.0
 10
-2.8818
 20
-1.8162
 30
0.0
 10
-2.8818
 20
-1.8162
 30
0.0
 10
-0.71
 20
-1.8162
 30
0.0
 10
-0.71
 20
-1.8162
 30
0.0
 10
-0.71
 20
-1.8162
 30
0.0
 10
-0.71
 20
-1.8162
 30
0.0
 10
-0.71
 20
-5.8298
 30
0.0
 10
-0.71
 20
-5.8298
 30
0.0
  0
SPLINE
  5
B7
330
1F
100
AcDbEntity
  8
VRSTVA_1
 62
   250
100
AcDbSpline
210
0.0
220
0.0
230
1.0
 70
    11
 71
     3
 72
    20
 73
    16
 74
     0
 42
0.0000000001
 43
0.0000000001
 40
0.0
 40
0.0
 40
0.0
 40
0.0
 40
0.2
 40
0.2
 40
0.2
 40
0.2
 40
0.4
 40
0.4
 40
0.4
 40
0.4
 40
0.6
 40
0.6
 40
0.6
 40
0.6
 40
1.0
 40
1.0
 40
1.0
 40
1.0
 10
-1.7061
 20
-4.4378
 30
0.0
 10
-1.8774
 20
-4.4378
 30
0.0
 10
-2.0161
 20
-4.5765
 30
0.0
 10
-2.0161
 20
-4.7478
 30
0.0
 10
-2.0161
 20
-4.7478
 30
0.0
 10
-2.0161
 20
-4.919
 30
0.0
 10
-1.8774
 20
-5.058
 30
0.0
 10
-1.7061
 20
-5.058
 30
0.0
 10
-1.7061
 20
-5.058
 30
0.0
 10
-1.5348
 20
-5.058
 30
0.0
 10
-1.3959
 20
-4.919
 30
0.0
 10
-1.3959
 20
-4.7478
 30
0.0
 10
-1.3959
 20
-4.7478
 30
0.0
 10
-1.3959
 20
-4.5765
 30
0.0
 10
-1.5348
 20
-4.4378
 30
0.0
 10
-1.7061
 20
-4.4378
 30
0.0
  0
SPLINE
  5
B8
330
1F
100
AcDbEntity
  8
VRSTVA_1
 62
   250
100
AcDbSpline
210
0.0
220
0.0
230
1.0
 70
    11
 71
     3
 72
    20
 73
    16
 74
     0
 42
0.0000000001
 43
0.0000000001
 40
0.0
 40
0.0
 40
0.0
 40
0.0
 40
0.2
 40
0.2
 40
0.2
 40
0.2
 40
0.4
 40
0.4
 40
0.4
 40
0.4
 40
0.6
 40
0.6
 40
0.6
 40
0.6
 40
1.0
 40
1.0
 40
1.0
 40
1.0
 10
12.4649
 20
-4.4378
 30
0.0
 10
12.2936
 20
-4.4378
 30
0.0
 10
12.1549
 20
-4.5765
 30
0.0
 10
12.1549
 20
-4.7478
 30
0.0
 10
12.1549
 20
-4.7478
 30
0.0
 10
12.1549
 20
-4.919
 30
0.0
 10
12.2936
 20
-5.058
 30
0.0
 10
12.4649
 20
-5.058
 30
0.0
 10
12.4649
 20
-5.058
 30
0.0
 10
12.6362
 20
-5.058
 30
0.0
 10
12.7751
 20
-4.919
 30
0.0
 10
12.7751
 20
-4.7478
 30
0.0
 10
12.7751
 20
-4.7478
 30
0.0
 10
12.7751
 20
-4.5765
 30
0.0
 10
12.6362
 20
-4.4378
 30
0.0
 10
12.4649
 20
-4.4378
 30
0.0
  0
SPLINE
  5
B9
330
1F
100
AcDbEntity
  8
VRSTVA_1
 62
   250
100
AcDbSpline
210
0.0
220
0.0
230
1.0
 70
     8
 71
     3
 72
    12
 73
     8
 74
     0
 42
0.0000000001
 43
0.0000000001
 40
0.0
 40
0.0
 40
0.0
 40
0.0
 40
0.3333333333333333
 40
0.3333333333333333
 40
0.3333333333333333
 40
0.3333333333333333
 40
1.0
 40
1.0
 40
1.0
 40
1.0
 10
4.4812
 20
-22.2389
 30
0.0
 10
4.4812
 20
-22.2389
 30
0.0
 10
5.037
 20
-22.2389
 30
0.0
 10
5.037
 20
-22.2389
 30
0.0
 10
5.037
 20
-22.2389
 30
0.0
 10
5.037
 20
-22.2389
 30
0.0
 10
5.0288
 20
-22.935
 30
0.0
 10
5.0288
 20
-22.935
 30
0.0
  0
SPLINE
  5
BA
330
1F
100
AcDbEntity
  8
VRSTVA_1
 62
   250
100
AcDbSpline
210
0.0
220
0.0
230
1.0
 70
    11
 71
     3
 72
    20
 73
    16
 74
     0
 42
0.0000000001
 43
0.0000000001
 40
0.0
 40
0.0
 40
0.0
 40
0.0
 40
0.2
 40
0.2
 40
0.2
 40
0.2
 40
0.4
 40
0.4
 40
0.4
 40
0.4
 40
0.6
 40
0.6
 40
0.6
 40
0.6
 40
1.0
 40
1.0
 40
1.0
 40
1.0
 10
2.2263
 20
-20.7523
 30
0.0
 10
2.2263
 20
-20.7523
 30
0.0
 10
8.3348
 20
-20.7523
 30
0.0
 10
8.3348
 20
-20.7523
 30
0.0
 10
8.3348
 20
-20.7523
 30
0.0
 10
8.3348
 20
-20.7523
 30
0.0
 10
8.3348
 20
-20.9979
 30
0.0
 10
8.3348
 20
-20.9979
 30
0.0
 10
8.3348
 20
-20.9979
 30
0.0
 10
8.3348
 20
-20.9979
 30
0.0
 10
2.2263
 20
-20.9979
 30
0.0
 10
2.2263
 20
-20.9979
 30
0.0
 10
2.2263
 20
-20.9979
 30
0.0
 10
2.2263
 20
-20.9979
 30
0.0
 10
2.2263
 20
-20.7523
 30
0.0
 10
2.2263
 20
-20.7523
 30
0.0
  0
SPLINE
  5
BB
330
1F
100
AcDbEntity
  8
VRSTVA_1
 62
   250
100
AcDbSpline
210
0.0
220
0.0
230
1.0
 70
     8
 71
     3
 72
    24
 73
    20
 74
     0
 42
0.0000000001
 43
0.0000000001
 40
0.0
 40
0.0
 40
0.0
 40
0.0
 40
0.1666666666666667
 40
0.1666666666666667
 40
0.1666666666666667
 40
0.1666666666666667
 40
0.3333333333333333
 40
0.3333333333333333
 40
0.3333333333333333
 40
0.3333333333333333
 40
0.5
 40
0.5
 40
0.5
 40
0.5
 40
0.6666666666666666
 40
0.6666666666666666
 40
0.6666666666666666
 40
0.6666666666666666
 40
1.0
 40
1.0
 40
1.0
 40
1.0
 10
4.4404
 20
-21.641
 30
0.0
 10
4.4404
 20
-21.641
 30
0.0
 10
5.4457
 20
-21.641
 30
0.0
 10
5.4457
 20
-21.641
 30
0.0
 10
5.4457
 20
-21.641
 30
0.0
 10
5.4457
 20
-21.641
 30
0.0
 10
5.6173
 20
-21.7229
 30
0.0
 10
5.6173
 20
-21.7229
 30
0.0
 10
5.6173
 20
-21.7229
 30
0.0
 10
5.6173
 20
-21.7229
 30
0.0
 10
5.7317
 20
-21.8704
 30
0.0
 10
5.7317
 20
-21.8704
 30
0.0
 10
5.7317
 20
-21.8704
 30
0.0
 10
5.7317
 20
-21.8704
 30
0.0
 10
5.7727
 20
-22.0261
 30
0.0
 10
5.7727
 20
-22.0261
 30
0.0
 10
5.7727
 20
-22.0261
 30
0.0
 10
5.7727
 20
-22.0261
 30
0.0
 10
5.7645
 20
-22.8778
 30
0.0
 10
5.7645
 20
-22.8778
 30
0.0
  0
SPLINE
  5
BC
330
1F
100
AcDbEntity
  8
VRSTVA_1
 62
   250
100
AcDbSpline
210
0.0
220
0.0
230
1.0
 70
     8
 71
     3
 72
    32
 73
    28
 74
     0
 42
0.0000000001
 43
0.0000000001
 40
0.0
 40
0.0
 40
0.0
 40
0.0
 40
0.125
 40
0.125
 40
0.125
 40
0.125
 40
0.25
 40
0.25
 40
0.25
 40
0.25
 40
0.375
 40
0.375
 40
0.375
 40
0.375
 40
0.5
 40
0.5
 40
0.5
 40
0.5
 40
0.625
 40
0.625
 40
0.625
 40
0.625
 40
0.75
 40
0.75
 40
0.75
 40
0.75
 40
1.0
 40
1.0
 40
1.0
 40
1.0
 10
-0.8844
 20
-5.8332
 30
0.0
 10
-0.8844
 20
-5.8332
 30
0.0
 10
-0.8844
 20
-19.6784
 30
0.0
 10
-0.8844
 20
-19.6784
 30
0.0
 10
-0.8844
 20
-19.6784
 30
0.0
 10
-0.8844
 20
-19.6784
 30
0.0
 10
-1.178
 20
-21.2298
 30
0.0
 10
-1.178
 20
-21.2298
 30
0.0
 10
-1.178
 20
-21.2298
 30
0.0
 10
-1.178
 20
-21.2298
 30
0.0
 10
-1.178
 20
-22.9928
 30
0.0
 10
-1.178
 20
-22.9928
 30
0.0
 10
-1.178
 20
-22.9928
 30
0.0
 10
-1.178
 20
-22.9928
 30
0.0
 10
11.9782
 20
-22.9047
 30
0.0
 10
11.9782
 20
-22.9047
 30
0.0
 10
11.9782
 20
-22.9047
 30
0.0
 10
11.9782
 20
-22.9047
 30
0.0
 10
11.9782
 20
-21.2078
 30
0.0
 10
11.9782
 20
-21.2078
 30
0.0
 10
11.9782
 20
-21.2078
 30
0.0
 10
11.9782
 20
-21.2078
 30
0.0
 10
11.6256
 20
-19.6211
 30
0.0
 10
11.6256
 20
-19.6211
 30
0.0
 10
11.6256
 20
-19.6211
 30
0.0
 10
11.6256
 20
-19.6211
 30
0.0
 10
11.6292
 20
-5.8893
 30
0.0
 10
11.6292
 20
-5.8893
 30
0.0
  0
SPLINE
  5
BD
330
1F
100
AcDbEntity
  8
VRSTVA_1
 62
   250
100
AcDbSpline
210
0.0
220
0.0
230
1.0
 70
    11
 71
     3
 72
    20
 73
    16
 74
     0
 42
0.0000000001
 43
0.0000000001
 40
0.0
 40
0.0
 40
0.0
 40
0.0
 40
0.2
 40
0.2
 40
0.2
 40
0.2
 40
0.4
 40
0.4
 40
0.4
 40
0.4
 40
0.6
 40
0.6
 40
0.6
 40
0.6
 40
1.0
 40
1.0
 40
1.0
 40
1.0
 10
13.6276
 20
-5.8298
 30
0.0
 10
13.6276
 20
-5.8298
 30
0.0
 10
11.4557
 20
-5.8298
 30
0.0
 10
11.4557
 20
-5.8298
 30
0.0
 10
11.4557
 20
-5.8298
 30
0.0
 10
11.4557
 20
-5.8298
 30
0.0
 10
11.4557
 20
-1.8162
 30
0.0
 10
11.4557
 20
-1.8162
 30
0.0
 10
11.4557
 20
-1.8162
 30
0.0
 10
11.4557
 20
-1.8162
 30
0.0
 10
13.6276
 20
-1.8162
 30
0.0
 10
13.6276
 20
-1.8162
 30
0.0
 10
13.6276
 20
-1.8162
 30
0.0
 10
13.6276
 20
-1.8162
 30
0.0
 10
13.6276
 20
-5.8298
 30
0.0
 10
13.6276
 20
-5.8298
 30
0.0
  0
SPLINE
  5
BE
330
1F
100
AcDbEntity
  8
VRSTVA_1
 62
   250
100
AcDbSpline
210
0.0
220
0.0
230
1.0
 70
     8
 71
     3
 72
    40
 73
    36
 74
     0
 42
0.0000000001
 43
0.0000000001
 40
0.0
 40
0.0
 40
0.0
 40
0.0
 40
0.1
 40
0.1
 40
0.1
 40
0.1
 40
0.2
 40
0.2
 40
0.2
 40
0.2
 40
0.3
 40
0.3
 40
0.3
 40
0.3
 40
0.4
 40
0.4
 40
0.4
 40
0.4
 40
0.5
 40
0.5
 40
0.5
 40
0.5
 40
0.6
 40
0.6
 40
0.6
 40
0.6
 40
0.7
 40
0.7
 40
0.7
 40
0.7
 40
0.8
 40
0.8
 40
0.8
 40
0.8
 40
1.0
 40
1.0
 40
1.0
 40
1.0
 10
3.17
 20
-1.802
 30
0.0
 10
3.17
 20
-1.802
 30
0.0
 10
3.17
 20
6.6555
 30
0.0
 10
3.17
 20
6.6555
 30
0.0
 10
3.17
 20
6.6555
 30
0.0
 10
3.17
 20
6.6555
 30
0.0
 10
2.9706
 20
7.0178
 30
0.0
 10
2.9706
 20
7.0178
 30
0.0
 10
2.9706
 20
7.0178
 30
0.0
 10
2.9706
 20
7.0178
 30
0.0
 10
2.962
 20
7.0333
 30
0.0
 10
2.962
 20
7.0333
 30
0.0
 10
2.962
 20
7.0333
 30
0.0
 10
2.962
 20
7.0333
 30
0.0
 10
2.6763
 20
7.5525
 30
0.0
 10
2.6763
 20
7.5525
 30
0.0
 10
2.6763
 20
7.5525
 30
0.0
 10
2.6763
 20
7.5525
 30
0.0
 10
2.6485
 20
9.059
 30
0.0
 10
2.6485
 20
9.059
 30
0.0
 10
2.6485
 20
9.059
 30
0.0
 10
2.6485
 20
9.059
 30
0.0
 10
7.9521
 20
9.059
 30
0.0
 10
7.9521
 20
9.059
 30
0.0
 10
7.9521
 20
9.059
 30
0.0
 10
7.9521
 20
9.059
 30
0.0
 10
7.9382
 20
7.5386
 30
0.0
 10
7.9382
 20
7.5386
 30
0.0
 10
7.9382
 20
7.5386
 30
0.0
 10
7.9382
 20
7.5386
 30
0.0
 10
7.3952
 20
6.6179
 30
0.0
 10
7.3952
 20
6.6179
 30
0.0
 10
7.3952
 20
6.6179
 30
0.0
 10
7.3952
 20
6.6179
 30
0.0
 10
7.4072
 20
-1.8338
 30
0.0
 10
7.4072
 20
-1.8338
 30
0.0
  0
SPLINE
  5
BF
330
1F
100
AcDbEntity
  8
VRSTVA_1
 62
   250
100
AcDbSpline
210
0.0
220
0.0
230
1.0
 70
    11
 71
     3
 72
    48
 73
    44
 74
     0
 42
0.0000000001
 43
0.0000000001
 40
0.0
 40
0.0
 40
0.0
 40
0.0
 40
0.0833333333333333
 40
0.0833333333333333
 40
0.0833333333333333
 40
0.0833333333333333
 40
0.1666666666666667
 40
0.1666666666666667
 40
0.1666666666666667
 40
0.1666666666666667
 40
0.25
 40
0.25
 40
0.25
 40
0.25
 40
0.3333333333333333
 40
0.3333333333333333
 40
0.3333333333333333
 40
0.3333333333333333
 40
0.4166666666666667
 40
0.4166666666666667
 40
0.4166666666666667
 40
0.4166666666666667
 40
0.5
 40
0.5
 40
0.5
 40
0.5
 40
0.5833333333333334
 40
0.5833333333333334
 40
0.5833333333333334
 40
0.5833333333333334
 40
0.6666666666666666
 40
0.6666666666666666
 40
0.6666666666666666
 40
0.6666666666666666
 40
0.75
 40
0.75
 40
0.75
 40
0.75
 40
0.8333333333333334
 40
0.8333333333333334
 40
0.8333333333333334
 40
0.8333333333333334
 40
1.0
 40
1.0
 40
1.0
 40
1.0
 10
2.962
 20
9.0582
 30
0.0
 10
2.962
 20
9.0582
 30
0.0
 10
2.962
 20
7.0333
 30
0.0
 10
2.962
 20
7.0333
 30
0.0
 10
2.962
 20
7.0333
 30
0.0
 10
2.962
 20
7.0333
 30
0.0
 10
2.962
 20
7.0178
 30
0.0
 10
2.962
 20
7.0178
 30
0.0
 10
2.962
 20
7.0178
 30
0.0
 10
2.962
 20
7.0178
 30
0.0
 10
2.9574
 20
7.0178
 30
0.0
 10
2.9574
 20
7.0178
 30
0.0
 10
2.9574
 20
7.0178
 30
0.0
 10
2.9574
 20
7.0178
 30
0.0
 10
2.962
 20
7.0178
 30
0.0
 10
2.962
 20
7.0178
 30
0.0
 10
2.962
 20
7.0178
 30
0.0
 10
2.962
 20
7.0178
 30
0.0
 10
2.962
 20
7.0176
 30
0.0
 10
2.962
 20
7.0176
 30
0.0
 10
2.962
 20
7.0176
 30
0.0
 10
2.962
 20
7.0176
 30
0.0
 10
2.962
 20
7.0178
 30
0.0
 10
2.962
 20
7.0178
 30
0.0
 10
2.962
 20
7.0178
 30
0.0
 10
2.962
 20
7.0178
 30
0.0
 10
2.9706
 20
7.0178
 30
0.0
 10
2.9706
 20
7.0178
 30
0.0
 10
2.9706
 20
7.0178
 30
0.0
 10
2.9706
 20
7.0178
 30
0.0
 10
7.6099
 20
7.0178
 30
0.0
 10
7.6099
 20
7.0178
 30
0.0
 10
7.6099
 20
7.0178
 30
0.0
 10
7.6099
 20
7.0178
 30
0.0
 10
2.9706
 20
7.0178
 30
0.0
 10
2.9706
 20
7.0178
 30
0.0
 10
2.9706
 20
7.0178
 30
0.0
 10
2.9706
 20
7.0178
 30
0.0
 10
2.962
 20
7.0178
 30
0.0
 10
2.962
 20
7.0178
 30
0.0
 10
2.962
 20
7.0178
 30
0.0
 10
2.962
 20
7.0178
 30
0.0
 10
2.962
 20
9.0582
 30
0.0
 10
2.962
 20
9.0582
 30
0.0
  0
SPLINE
  5
C0
330
1F
100
AcDbEntity
  8
VRSTVA_1
 62
   250
100
AcDbSpline
210
0.0
220
0.0
230
1.0
 70
    27
 71
     3
 72
    12
 73
     8
 74
     0
 42
0.0000000001
 43
0.0000000001
 40
0.0
 40
0.0
 40
0.0
 40
0.0
 40
0.3333333333333333
 40
0.3333333333333333
 40
0.3333333333333333
 40
0.3333333333333333
 40
1.0
 40
1.0
 40
1.0
 40
1.0
 10
7.4027
 20
6.6555
 30
0.0
 10
7.4027
 20
6.6555
 30
0.0
 10
3.17
 20
6.6555
 30
0.0
 10
3.17
 20
6.6555
 30
0.0
 10
3.17
 20
6.6555
 30
0.0
 10
3.17
 20
6.6555
 30
0.0
 10
7.4027
 20
6.6555
 30
0.0
 10
7.4027
 20
6.6555
 30
0.0
  0
SPLINE
  5
C1
330
1F
100
AcDbEntity
  8
VRSTVA_1
 62
   250
100
AcDbSpline
210
0.0
220
0.0
230
1.0
 70
    27
 71
     3
 72
    12
 73
     8
 74
     0
 42
0.0000000001
 43
0.0000000001
 40
0.0
 40
0.0
 40
0.0
 40
0.0
 40
0.3333333333333333
 40
0.3333333333333333
 40
0.3333333333333333
 40
0.3333333333333333
 40
1.0
 40
1.0
 40
1.0
 40
1.0
 10
7.6125
 20
9.0544
 30
0.0
 10
7.6125
 20
9.0544
 30
0.0
 10
7.6125
 20
7.0137
 30
0.0
 10
7.6125
 20
7.0137
 30
0.0
 10
7.6125
 20
7.0137
 30
0.0
 10
7.6125
 20
7.0137
 30
0.0
 10
7.6125
 20
9.0544
 30
0.0
 10
7.6125
 20
9.0544
 30
0.0
  0
SPLINE
  5
C2
330
1F
100
AcDbEntity
  8
VRSTVA_1
 62
   250
100
AcDbSpline
210
0.0
220
0.0
230
1.0
 70
     8
 71
     3
 72
    40
 73
    36
 74
     0
 42
0.0000000001
 43
0.0000000001
 40
0.0
 40
0.0
 40
0.0
 40
0.0
 40
0.1
 40
0.1
 40
0.1
 40
0.1
 40
0.2
 40
0.2
 40
0.2
 40
0.2
 40
0.3
 40
0.3
 40
0.3
 40
0.3
 40
0.4
 40
0.4
 40
0.4
 40
0.4
 40
0.5
 40
0.5
 40
0.5
 40
0.5
 40
0.6
 40
0.6
 40
0.6
 40
0.6
 40
0.7
 40
0.7
 40
0.7
 40
0.7
 40
0.8
 40
0.8
 40
0.8
 40
0.8
 40
1.0
 40
1.0
 40
1.0
 40
1.0
 10
5.699
 20
10.0451
 30
0.0
 10
5.699
 20
10.0451
 30
0.0
 10
6.0581
 20
10.0418
 30
0.0
 10
6.0581
 20
10.0418
 30
0.0
 10
6.0581
 20
10.0418
 30
0.0
 10
6.0581
 20
10.0418
 30
0.0
 10
6.4796
 20
10.038
 30
0.0
 10
6.4796
 20
10.038
 30
0.0
 10
6.4796
 20
10.038
 30
0.0
 10
6.4796
 20
10.038
 30
0.0
 10
6.6743
 20
10.0362
 30
0.0
 10
6.6743
 20
10.0362
 30
0.0
 10
6.6743
 20
10.0362
 30
0.0
 10
6.6743
 20
10.0362
 30
0.0
 10
8.2259
 20
9.743
 30
0.0
 10
8.2259
 20
9.743
 30
0.0
 10
8.2259
 20
9.743
 30
0.0
 10
8.2259
 20
9.743
 30
0.0
 10
8.2603
 20
9.7123
 30
0.0
 10
8.2603
 20
9.7123
 30
0.0
 10
8.2603
 20
9.7123
 30
0.0
 10
8.3322
 20
9.6974
 30
0.0
 10
8.3837
 20
9.634
 30
0.0
 10
8.3837
 20
9.5606
 30
0.0
 10
8.3837
 20
9.5606
 30
0.0
 10
8.3837
 20
9.5606
 30
0.0
 10
8.3766
 20
6.8289
 30
0.0
 10
8.3766
 20
6.8289
 30
0.0
 10
8.3766
 20
6.8289
 30
0.0
 10
8.3766
 20
6.8289
 30
0.0
 10
7.7648
 20
6.8378
 30
0.0
 10
7.7648
 20
6.8378
 30
0.0
 10
7.7648
 20
6.8378
 30
0.0
 10
7.7648
 20
6.8378
 30
0.0
 10
7.7117
 20
7.1843
 30
0.0
 10
7.7117
 20
7.1843
 30
0.0
  0
SPLINE
  5
C3
330
1F
100
AcDbEntity
  8
VRSTVA_1
 62
   250
100
AcDbSpline
210
0.0
220
0.0
230
1.0
 70
     8
 71
     3
 72
    28
 73
    24
 74
     0
 42
0.0000000001
 43
0.0000000001
 40
0.0
 40
0.0
 40
0.0
 40
0.0
 40
0.1428571428571428
 40
0.1428571428571428
 40
0.1428571428571428
 40
0.1428571428571428
 40
0.2857142857142857
 40
0.2857142857142857
 40
0.2857142857142857
 40
0.2857142857142857
 40
0.4285714285714285
 40
0.4285714285714285
 40
0.4285714285714285
 40
0.4285714285714285
 40
0.5714285714285714
 40
0.5714285714285714
 40
0.5714285714285714
 40
0.5714285714285714
 40
0.7142857142857143
 40
0.7142857142857143
 40
0.7142857142857143
 40
0.7142857142857143
 40
1.0
 40
1.0
 40
1.0
 40
1.0
 10
4.9187
 20
10.0539
 30
0.0
 10
4.9187
 20
10.0539
 30
0.0
 10
3.9257
 20
10.0628
 30
0.0
 10
3.9257
 20
10.0628
 30
0.0
 10
3.9257
 20
10.0628
 30
0.0
 10
3.9257
 20
10.0628
 30
0.0
 10
2.3052
 20
9.7123
 30
0.0
 10
2.3052
 20
9.7123
 30
0.0
 10
2.3052
 20
9.7123
 30
0.0
 10
2.2334
 20
9.6974
 30
0.0
 10
2.1819
 20
9.634
 30
0.0
 10
2.1819
 20
9.5606
 30
0.0
 10
2.1819
 20
9.5606
 30
0.0
 10
2.1819
 20
9.5606
 30
0.0
 10
2.179
 20
6.8289
 30
0.0
 10
2.179
 20
6.8289
 30
0.0
 10
2.179
 20
6.8289
 30
0.0
 10
2.179
 20
6.8289
 30
0.0
 10
2.8174
 20
6.8289
 30
0.0
 10
2.8174
 20
6.8289
 30
0.0
 10
2.8174
 20
6.8289
 30
0.0
 10
2.8174
 20
6.8289
 30
0.0
 10
2.8884
 20
7.1665
 30
0.0
 10
2.8884
 20
7.1665
 30
0.0
  0
SPLINE
  5
C4
330
1F
100
AcDbEntity
  8
VRSTVA_1
 62
   250
100
AcDbSpline
210
0.0
220
0.0
230
1.0
 70
    27
 71
     3
 72
    16
 73
    12
 74
     0
 42
0.0000000001
 43
0.0000000001
 40
0.0
 40
0.0
 40
0.0
 40
0.0
 40
0.25
 40
0.25
 40
0.25
 40
0.25
 40
0.5
 40
0.5
 40
0.5
 40
0.5
 40
1.0
 40
1.0
 40
1.0
 40
1.0
 10
6.4796
 20
10.0432
 30
0.0
 10
6.4796
 20
10.0432
 30
0.0
 10
6.4796
 20
10.038
 30
0.0
 10
6.4796
 20
10.038
 30
0.0
 10
6.4796
 20
10.038
 30
0.0
 10
6.4796
 20
10.038
 30
0.0
 10
6.4796
 20
9.0577
 30
0.0
 10
6.4796
 20
9.0577
 30
0.0
 10
6.4796
 20
9.0577
 30
0.0
 10
6.4796
 20
9.0577
 30
0.0
 10
6.4796
 20
10.0432
 30
0.0
 10
6.4796
 20
10.0432
 30
0.0
  0
SPLINE
  5
C5
330
1F
100
AcDbEntity
  8
VRSTVA_1
 62
   250
100
AcDbSpline
210
0.0
220
0.0
230
1.0
 70
    27
 71
     3
 72
    28
 73
    24
 74
     0
 42
0.0000000001
 43
0.0000000001
 40
0.0
 40
0.0
 40
0.0
 40
0.0
 40
0.1428571428571428
 40
0.1428571428571428
 40
0.1428571428571428
 40
0.1428571428571428
 40
0.2857142857142857
 40
0.2857142857142857
 40
0.2857142857142857
 40
0.2857142857142857
 40
0.4285714285714285
 40
0.4285714285714285
 40
0.4285714285714285
 40
0.4285714285714285
 40
0.5714285714285714
 40
0.5714285714285714
 40
0.5714285714285714
 40
0.5714285714285714
 40
0.7142857142857143
 40
0.7142857142857143
 40
0.7142857142857143
 40
0.7142857142857143
 40
1.0
 40
1.0
 40
1.0
 40
1.0
 10
6.0581
 20
10.0432
 30
0.0
 10
6.0581
 20
10.0432
 30
0.0
 10
6.0581
 20
10.0418
 30
0.0
 10
6.0581
 20
10.0418
 30
0.0
 10
6.0581
 20
10.0418
 30
0.0
 10
6.0581
 20
10.0418
 30
0.0
 10
6.0581
 20
9.6381
 30
0.0
 10
6.0581
 20
9.6381
 30
0.0
 10
6.0581
 20
9.6381
 30
0.0
 10
6.0581
 20
9.6381
 30
0.0
 10
6.0581
 20
9.0551
 30
0.0
 10
6.0581
 20
9.0551
 30
0.0
 10
6.0581
 20
9.0551
 30
0.0
 10
6.0581
 20
9.0551
 30
0.0
 10
6.0581
 20
9.6381
 30
0.0
 10
6.0581
 20
9.6381
 30
0.0
 10
6.0581
 20
9.6381
 30
0.0
 10
6.0581
 20
9.6381
 30
0.0
 10
6.0581
 20
10.0418
 30
0.0
 10
6.0581
 20
10.0418
 30
0.0
 10
6.0581
 20
10.0418
 30
0.0
 10
6.0581
 20
10.0418
 30
0.0
 10
6.0581
 20
10.0432
 30
0.0
 10
6.0581
 20
10.0432
 30
0.0
  0
SPLINE
  5
C6
330
1F
100
AcDbEntity
  8
VRSTVA_1
 62
   250
100
AcDbSpline
210
0.0
220
0.0
230
1.0
 70
    27
 71
     3
 72
    20
 73
    16
 74
     0
 42
0.0000000001
 43
0.0000000001
 40
0.0
 40
0.0
 40
0.0
 40
0.0
 40
0.2
 40
0.2
 40
0.2
 40
0.2
 40
0.4
 40
0.4
 40
0.4
 40
0.4
 40
0.6
 40
0.6
 40
0.6
 40
0.6
 40
1.0
 40
1.0
 40
1.0
 40
1.0
 10
4.5076
 20
10.0432
 30
0.0
 10
4.5076
 20
10.0432
 30
0.0
 10
4.5076
 20
9.377
 30
0.0
 10
4.5076
 20
9.377
 30
0.0
 10
4.5076
 20
9.377
 30
0.0
 10
4.5076
 20
9.377
 30
0.0
 10
4.5076
 20
9.0596
 30
0.0
 10
4.5076
 20
9.0596
 30
0.0
 10
4.5076
 20
9.0596
 30
0.0
 10
4.5076
 20
9.0596
 30
0.0
 10
4.5076
 20
9.377
 30
0.0
 10
4.5076
 20
9.377
 30
0.0
 10
4.5076
 20
9.377
 30
0.0
 10
4.5076
 20
9.377
 30
0.0
 10
4.5076
 20
10.0432
 30
0.0
 10
4.5076
 20
10.0432
 30
0.0
  0
SPLINE
  5
C7
330
1F
100
AcDbEntity
  8
VRSTVA_1
 62
   250
100
AcDbSpline
210
0.0
220
0.0
230
1.0
 70
    27
 71
     3
 72
    12
 73
     8
 74
     0
 42
0.0000000001
 43
0.0000000001
 40
0.0
 40
0.0
 40
0.0
 40
0.0
 40
0.3333333333333333
 40
0.3333333333333333
 40
0.3333333333333333
 40
0.3333333333333333
 40
1.0
 40
1.0
 40
1.0
 40
1.0
 10
4.086
 20
9.0596
 30
0.0
 10
4.086
 20
9.0596
 30
0.0
 10
4.086
 20
10.0432
 30
0.0
 10
4.086
 20
10.0432
 30
0.0
 10
4.086
 20
10.0432
 30
0.0
 10
4.086
 20
10.0432
 30
0.0
 10
4.086
 20
9.0596
 30
0.0
 10
4.086
 20
9.0596
 30
0.0
  0
SPLINE
  5
C8
330
1F
100
AcDbEntity
  8
VRSTVA_1
 62
   250
100
AcDbSpline
210
0.0
220
0.0
230
1.0
 70
    11
 71
     3
 72
    20
 73
    16
 74
     0
 42
0.0000000001
 43
0.0000000001
 40
0.0
 40
0.0
 40
0.0
 40
0.0
 40
0.2
 40
0.2
 40
0.2
 40
0.2
 40
0.4
 40
0.4
 40
0.4
 40
0.4
 40
0.6
 40
0.6
 40
0.6
 40
0.6
 40
1.0
 40
1.0
 40
1.0
 40
1.0
 10
5.8143
 20
11.0168
 30
0.0
 10
5.8143
 20
11.0168
 30
0.0
 10
5.6704
 20
10.4928
 30
0.0
 10
5.6704
 20
10.4928
 30
0.0
 10
5.6704
 20
10.4928
 30
0.0
 10
5.6704
 20
10.4928
 30
0.0
 10
5.6153
 20
10.4074
 30
0.0
 10
5.6153
 20
10.4074
 30
0.0
 10
5.6153
 20
10.4074
 30
0.0
 10
5.6153
 20
10.4074
 30
0.0
 10
5.6294
 20
9.5748
 30
0.0
 10
5.6294
 20
9.5748
 30
0.0
 10
5.6294
 20
9.5748
 30
0.0
 10
5.6294
 20
9.5748
 30
0.0
 10
5.8143
 20
11.0168
 30
0.0
 10
5.8143
 20
11.0168
 30
0.0
  0
SPLINE
  5
C9
330
1F
100
AcDbEntity
  8
VRSTVA_1
 62
   250
100
AcDbSpline
210
0.0
220
0.0
230
1.0
 70
    11
 71
     3
 72
    60
 73
    56
 74
     0
 42
0.0000000001
 43
0.0000000001
 40
0.0
 40
0.0
 40
0.0
 40
0.0
 40
0.0666666666666667
 40
0.0666666666666667
 40
0.0666666666666667
 40
0.0666666666666667
 40
0.1333333333333333
 40
0.1333333333333333
 40
0.1333333333333333
 40
0.1333333333333333
 40
0.2
 40
0.2
 40
0.2
 40
0.2
 40
0.2666666666666667
 40
0.2666666666666667
 40
0.2666666666666667
 40
0.2666666666666667
 40
0.3333333333333333
 40
0.3333333333333333
 40
0.3333333333333333
 40
0.3333333333333333
 40
0.4
 40
0.4
 40
0.4
 40
0.4
 40
0.4666666666666667
 40
0.4666666666666667
 40
0.4666666666666667
 40
0.4666666666666667
 40
0.5333333333333333
 40
0.5333333333333333
 40
0.5333333333333333
 40
0.5333333333333333
 40
0.6
 40
0.6
 40
0.6
 40
0.6
 40
0.6666666666666666
 40
0.6666666666666666
 40
0.6666666666666666
 40
0.6666666666666666
 40
0.7333333333333333
 40
0.7333333333333333
 40
0.7333333333333333
 40
0.7333333333333333
 40
0.8
 40
0.8
 40
0.8
 40
0.8
 40
0.8666666666666667
 40
0.8666666666666667
 40
0.8666666666666667
 40
0.8666666666666667
 40
1.0
 40
1.0
 40
1.0
 40
1.0
 10
5.5774
 20
9.578
 30
0.0
 10
5.5774
 20
9.578
 30
0.0
 10
5.5774
 20
9.5612
 30
0.0
 10
5.5774
 20
9.5612
 30
0.0
 10
5.5774
 20
9.5612
 30
0.0
 10
5.5774
 20
9.5612
 30
0.0
 10
4.9882
 20
9.5612
 30
0.0
 10
4.9882
 20
9.5612
 30
0.0
 10
4.9882
 20
9.5612
 30
0.0
 10
4.9882
 20
9.5612
 30
0.0
 10
4.9882
 20
9.113
 30
0.0
 10
4.9882
 20
9.113
 30
0.0
 10
4.9882
 20
9.113
 30
0.0
 10
4.9882
 20
9.113
 30
0.0
 10
4.9882
 20
9.5612
 30
0.0
 10
4.9882
 20
9.5612
 30
0.0
 10
4.9882
 20
9.5612
 30
0.0
 10
4.9882
 20
9.5612
 30
0.0
 10
4.6981
 20
9.5612
 30
0.0
 10
4.6981
 20
9.5612
 30
0.0
 10
4.6981
 20
9.5612
 30
0.0
 10
4.6981
 20
9.5612
 30
0.0
 10
4.9882
 20
9.5612
 30
0.0
 10
4.9882
 20
9.5612
 30
0.0
 10
4.9882
 20
9.5612
 30
0.0
 10
4.9882
 20
9.5612
 30
0.0
 10
4.9882
 20
9.578
 30
0.0
 10
4.9882
 20
9.578
 30
0.0
 10
4.9882
 20
9.578
 30
0.0
 10
4.9882
 20
9.578
 30
0.0
 10
4.9882
 20
9.5612
 30
0.0
 10
4.9882
 20
9.5612
 30
0.0
 10
4.9882
 20
9.5612
 30
0.0
 10
4.9882
 20
9.5612
 30
0.0
 10
5.5774
 20
9.5612
 30
0.0
 10
5.5774
 20
9.5612
 30
0.0
 10
5.5774
 20
9.5612
 30
0.0
 10
5.5774
 20
9.5612
 30
0.0
 10
5.5774
 20
9.113
 30
0.0
 10
5.5774
 20
9.113
 30
0.0
 10
5.5774
 20
9.113
 30
0.0
 10
5.5774
 20
9.113
 30
0.0
 10
5.5774
 20
9.5612
 30
0.0
 10
5.5774
 20
9.5612
 30
0.0
 10
5.5774
 20
9.5612
 30
0.0
 10
5.5774
 20
9.5612
 30
0.0
 10
5.8258
 20
9.5612
 30
0.0
 10
5.8258
 20
9.5612
 30
0.0
 10
5.8258
 20
9.5612
 30
0.0
 10
5.8258
 20
9.5612
 30
0.0
 10
5.5774
 20
9.5612
 30
0.0
 10
5.5774
 20
9.5612
 30
0.0
 10
5.5774
 20
9.5612
 30
0.0
 10
5.5774
 20
9.5612
 30
0.0
 10
5.5774
 20
9.578
 30
0.0
 10
5.5774
 20
9.578
 30
0.0
  0
SPLINE
  5
CA
330
1F
100
AcDbEntity
  8
VRSTVA_1
 62
   250
100
AcDbSpline
210
0.0
220
0.0
230
1.0
 70
    11
 71
     3
 72
    36
 73
    32
 74
     0
 42
0.0000000001
 43
0.0000000001
 40
0.0
 40
0.0
 40
0.0
 40
0.0
 40
0.1111111111111111
 40
0.1111111111111111
 40
0.1111111111111111
 40
0.1111111111111111
 40
0.2222222222222222
 40
0.2222222222222222
 40
0.2222222222222222
 40
0.2222222222222222
 40
0.3333333333333333
 40
0.3333333333333333
 40
0.3333333333333333
 40
0.3333333333333333
 40
0.4444444444444444
 40
0.4444444444444444
 40
0.4444444444444444
 40
0.4444444444444444
 40
0.5555555555555556
 40
0.5555555555555556
 40
0.5555555555555556
 40
0.5555555555555556
 40
0.6666666666666666
 40
0.6666666666666666
 40
0.6666666666666666
 40
0.6666666666666666
 40
0.7777777777777778
 40
0.7777777777777778
 40
0.7777777777777778
 40
0.7777777777777778
 40
1.0
 40
1.0
 40
1.0
 40
1.0
 10
4.9232
 20
10.4928
 30
0.0
 10
4.9232
 20
10.4928
 30
0.0
 10
4.9339
 20
10.4928
 30
0.0
 10
4.9339
 20
10.4928
 30
0.0
 10
4.9339
 20
10.4928
 30
0.0
 10
4.9339
 20
10.4928
 30
0.0
 10
4.9339
 20
9.5932
 30
0.0
 10
4.9339
 20
9.5932
 30
0.0
 10
4.9339
 20
9.5932
 30
0.0
 10
4.9339
 20
9.5932
 30
0.0
 10
4.9339
 20
10.4928
 30
0.0
 10
4.9339
 20
10.4928
 30
0.0
 10
4.9339
 20
10.4928
 30
0.0
 10
4.9339
 20
10.4928
 30
0.0
 10
5.6704
 20
10.4928
 30
0.0
 10
5.6704
 20
10.4928
 30
0.0
 10
5.6704
 20
10.4928
 30
0.0
 10
5.6704
 20
10.4928
 30
0.0
 10
4.9339
 20
10.4928
 30
0.0
 10
4.9339
 20
10.4928
 30
0.0
 10
4.9339
 20
10.4928
 30
0.0
 10
4.9339
 20
10.4928
 30
0.0
 10
4.9339
 20
10.7244
 30
0.0
 10
4.9339
 20
10.7244
 30
0.0
 10
4.9339
 20
10.7244
 30
0.0
 10
4.9339
 20
10.7244
 30
0.0
 10
4.9339
 20
10.4928
 30
0.0
 10
4.9339
 20
10.4928
 30
0.0
 10
4.9339
 20
10.4928
 30
0.0
 10
4.9339
 20
10.4928
 30
0.0
 10
4.9232
 20
10.4928
 30
0.0
 10
4.9232
 20
10.4928
 30
0.0
  0
SPLINE
  5
CB
330
1F
100
AcDbEntity
  8
VRSTVA_1
 62
   250
100
AcDbSpline
210
0.0
220
0.0
230
1.0
 70
     8
 71
     3
 72
    16
 73
    12
 74
     0
 42
0.0000000001
 43
0.0000000001
 40
0.0
 40
0.0
 40
0.0
 40
0.0
 40
0.25
 40
0.25
 40
0.25
 40
0.25
 40
0.5
 40
0.5
 40
0.5
 40
0.5
 40
1.0
 40
1.0
 40
1.0
 40
1.0
 10
5.8143
 20
11.0168
 30
0.0
 10
5.8143
 20
11.0168
 30
0.0
 10
5.6704
 20
10.4928
 30
0.0
 10
5.6704
 20
10.4928
 30
0.0
 10
5.6704
 20
10.4928
 30
0.0
 10
5.6704
 20
10.4928
 30
0.0
 10
5.6153
 20
10.4074
 30
0.0
 10
5.6153
 20
10.4074
 30
0.0
 10
5.6153
 20
10.4074
 30
0.0
 10
5.6153
 20
10.4074
 30
0.0
 10
5.6294
 20
9.5748
 30
0.0
 10
5.6294
 20
9.5748
 30
0.0
  0
SPLINE
  5
CC
330
1F
100
AcDbEntity
  8
VRSTVA_1
 62
   250
100
AcDbSpline
210
0.0
220
0.0
230
1.0
 70
    11
 71
     3
 72
    60
 73
    56
 74
     0
 42
0.0000000001
 43
0.0000000001
 40
0.0
 40
0.0
 40
0.0
 40
0.0
 40
0.0666666666666667
 40
0.0666666666666667
 40
0.0666666666666667
 40
0.0666666666666667
 40
0.1333333333333333
 40
0.1333333333333333
 40
0.1333333333333333
 40
0.1333333333333333
 40
0.2
 40
0.2
 40
0.2
 40
0.2
 40
0.2666666666666667
 40
0.2666666666666667
 40
0.2666666666666667
 40
0.2666666666666667
 40
0.3333333333333333
 40
0.3333333333333333
 40
0.3333333333333333
 40
0.3333333333333333
 40
0.4
 40
0.4
 40
0.4
 40
0.4
 40
0.4666666666666667
 40
0.4666666666666667
 40
0.4666666666666667
 40
0.4666666666666667
 40
0.5333333333333333
 40
0.5333333333333333
 40
0.5333333333333333
 40
0.5333333333333333
 40
0.6
 40
0.6
 40
0.6
 40
0.6
 40
0.6666666666666666
 40
0.6666666666666666
 40
0.6666666666666666
 40
0.6666666666666666
 40
0.7333333333333333
 40
0.7333333333333333
 40
0.7333333333333333
 40
0.7333333333333333
 40
0.8
 40
0.8
 40
0.8
 40
0.8
 40
0.8666666666666667
 40
0.8666666666666667
 40
0.8666666666666667
 40
0.8666666666666667
 40
1.0
 40
1.0
 40
1.0
 40
1.0
 10
5.5774
 20
9.578
 30
0.0
 10
5.5774
 20
9.578
 30
0.0
 10
5.5774
 20
9.5612
 30
0.0
 10
5.5774
 20
9.5612
 30
0.0
 10
5.5774
 20
9.5612
 30
0.0
 10
5.5774
 20
9.5612
 30
0.0
 10
4.9882
 20
9.5612
 30
0.0
 10
4.9882
 20
9.5612
 30
0.0
 10
4.9882
 20
9.5612
 30
0.0
 10
4.9882
 20
9.5612
 30
0.0
 10
4.9882
 20
9.113
 30
0.0
 10
4.9882
 20
9.113
 30
0.0
 10
4.9882
 20
9.113
 30
0.0
 10
4.9882
 20
9.113
 30
0.0
 10
4.9882
 20
9.5612
 30
0.0
 10
4.9882
 20
9.5612
 30
0.0
 10
4.9882
 20
9.5612
 30
0.0
 10
4.9882
 20
9.5612
 30
0.0
 10
4.6981
 20
9.5612
 30
0.0
 10
4.6981
 20
9.5612
 30
0.0
 10
4.6981
 20
9.5612
 30
0.0
 10
4.6981
 20
9.5612
 30
0.0
 10
4.9882
 20
9.5612
 30
0.0
 10
4.9882
 20
9.5612
 30
0.0
 10
4.9882
 20
9.5612
 30
0.0
 10
4.9882
 20
9.5612
 30
0.0
 10
4.9882
 20
9.578
 30
0.0
 10
4.9882
 20
9.578
 30
0.0
 10
4.9882
 20
9.578
 30
0.0
 10
4.9882
 20
9.578
 30
0.0
 10
4.9882
 20
9.5612
 30
0.0
 10
4.9882
 20
9.5612
 30
0.0
 10
4.9882
 20
9.5612
 30
0.0
 10
4.9882
 20
9.5612
 30
0.0
 10
5.5774
 20
9.5612
 30
0.0
 10
5.5774
 20
9.5612
 30
0.0
 10
5.5774
 20
9.5612
 30
0.0
 10
5.5774
 20
9.5612
 30
0.0
 10
5.5774
 20
9.113
 30
0.0
 10
5.5774
 20
9.113
 30
0.0
 10
5.5774
 20
9.113
 30
0.0
 10
5.5774
 20
9.113
 30
0.0
 10
5.5774
 20
9.5612
 30
0.0
 10
5.5774
 20
9.5612
 30
0.0
 10
5.5774
 20
9.5612
 30
0.0
 10
5.5774
 20
9.5612
 30
0.0
 10
5.8258
 20
9.5612
 30
0.0
 10
5.8258
 20
9.5612
 30
0.0
 10
5.8258
 20
9.5612
 30
0.0
 10
5.8258
 20
9.5612
 30
0.0
 10
5.5774
 20
9.5612
 30
0.0
 10
5.5774
 20
9.5612
 30
0.0
 10
5.5774
 20
9.5612
 30
0.0
 10
5.5774
 20
9.5612
 30
0.0
 10
5.5774
 20
9.578
 30
0.0
 10
5.5774
 20
9.578
 30
0.0
  0
SPLINE
  5
CD
330
1F
100
AcDbEntity
  8
VRSTVA_1
 62
   250
100
AcDbSpline
210
0.0
220
0.0
230
1.0
 70
    11
 71
     3
 72
    36
 73
    32
 74
     0
 42
0.0000000001
 43
0.0000000001
 40
0.0
 40
0.0
 40
0.0
 40
0.0
 40
0.1111111111111111
 40
0.1111111111111111
 40
0.1111111111111111
 40
0.1111111111111111
 40
0.2222222222222222
 40
0.2222222222222222
 40
0.2222222222222222
 40
0.2222222222222222
 40
0.3333333333333333
 40
0.3333333333333333
 40
0.3333333333333333
 40
0.3333333333333333
 40
0.4444444444444444
 40
0.4444444444444444
 40
0.4444444444444444
 40
0.4444444444444444
 40
0.5555555555555556
 40
0.5555555555555556
 40
0.5555555555555556
 40
0.5555555555555556
 40
0.6666666666666666
 40
0.6666666666666666
 40
0.6666666666666666
 40
0.6666666666666666
 40
0.7777777777777778
 40
0.7777777777777778
 40
0.7777777777777778
 40
0.7777777777777778
 40
1.0
 40
1.0
 40
1.0
 40
1.0
 10
4.9232
 20
10.4928
 30
0.0
 10
4.9232
 20
10.4928
 30
0.0
 10
4.9339
 20
10.4928
 30
0.0
 10
4.9339
 20
10.4928
 30
0.0
 10
4.9339
 20
10.4928
 30
0.0
 10
4.9339
 20
10.4928
 30
0.0
 10
4.9339
 20
9.5932
 30
0.0
 10
4.9339
 20
9.5932
 30
0.0
 10
4.9339
 20
9.5932
 30
0.0
 10
4.9339
 20
9.5932
 30
0.0
 10
4.9339
 20
10.4928
 30
0.0
 10
4.9339
 20
10.4928
 30
0.0
 10
4.9339
 20
10.4928
 30
0.0
 10
4.9339
 20
10.4928
 30
0.0
 10
5.6704
 20
10.4928
 30
0.0
 10
5.6704
 20
10.4928
 30
0.0
 10
5.6704
 20
10.4928
 30
0.0
 10
5.6704
 20
10.4928
 30
0.0
 10
4.9339
 20
10.4928
 30
0.0
 10
4.9339
 20
10.4928
 30
0.0
 10
4.9339
 20
10.4928
 30
0.0
 10
4.9339
 20
10.4928
 30
0.0
 10
4.9339
 20
10.7244
 30
0.0
 10
4.9339
 20
10.7244
 30
0.0
 10
4.9339
 20
10.7244
 30
0.0
 10
4.9339
 20
10.7244
 30
0.0
 10
4.9339
 20
10.4928
 30
0.0
 10
4.9339
 20
10.4928
 30
0.0
 10
4.9339
 20
10.4928
 30
0.0
 10
4.9339
 20
10.4928
 30
0.0
 10
4.9232
 20
10.4928
 30
0.0
 10
4.9232
 20
10.4928
 30
0.0
  0
SPLINE
  5
CE
330
1F
100
AcDbEntity
  8
VRSTVA_1
 62
   250
100
AcDbSpline
210
0.0
220
0.0
230
1.0
 70
    11
 71
     3
 72
    20
 73
    16
 74
     0
 42
0.0000000001
 43
0.0000000001
 40
0.0
 40
0.0
 40
0.0
 40
0.0
 40
0.2
 40
0.2
 40
0.2
 40
0.2
 40
0.4
 40
0.4
 40
0.4
 40
0.4
 40
0.6
 40
0.6
 40
0.6
 40
0.6
 40
1.0
 40
1.0
 40
1.0
 40
1.0
 10
0.1918
 20
13.6335
 30
0.0
 10
0.0462
 20
13.6335
 30
0.0
 10
-0.0718
 20
13.5156
 30
0.0
 10
-0.0718
 20
13.37
 30
0.0
 10
-0.0718
 20
13.37
 30
0.0
 10
-0.0718
 20
13.2244
 30
0.0
 10
0.0462
 20
13.1064
 30
0.0
 10
0.1918
 20
13.1064
 30
0.0
 10
0.1918
 20
13.1064
 30
0.0
 10
0.3374
 20
13.1064
 30
0.0
 10
0.4554
 20
13.2244
 30
0.0
 10
0.4554
 20
13.37
 30
0.0
 10
0.4554
 20
13.37
 30
0.0
 10
0.4554
 20
13.5156
 30
0.0
 10
0.3374
 20
13.6335
 30
0.0
 10
0.1918
 20
13.6335
 30
0.0
  0
SPLINE
  5
CF
330
1F
100
AcDbEntity
  8
VRSTVA_1
 62
   250
100
AcDbSpline
210
0.0
220
0.0
230
1.0
 70
     8
 71
     3
 72
    20
 73
    16
 74
     0
 42
0.0000000001
 43
0.0000000001
 40
0.0
 40
0.0
 40
0.0
 40
0.0
 40
0.2
 40
0.2
 40
0.2
 40
0.2
 40
0.4
 40
0.4
 40
0.4
 40
0.4
 40
0.6
 40
0.6
 40
0.6
 40
0.6
 40
1.0
 40
1.0
 40
1.0
 40
1.0
 10
-2.4361
 20
14.2461
 30
0.0
 10
-2.4361
 20
14.2461
 30
0.0
 10
-3.4209
 20
15.0499
 30
0.0
 10
-3.4209
 20
15.0499
 30
0.0
 10
-3.4209
 20
15.0499
 30
0.0
 10
-3.7537
 20
15.3192
 30
0.0
 10
-4.2418
 20
15.2678
 30
0.0
 10
-4.5111
 20
14.9349
 30
0.0
 10
-4.5111
 20
14.9349
 30
0.0
 10
-4.7805
 20
14.6021
 30
0.0
 10
-4.729
 20
14.114
 30
0.0
 10
-4.3961
 20
13.8447
 30
0.0
 10
-4.3961
 20
13.8447
 30
0.0
 10
-4.3961
 20
13.8447
 30
0.0
 10
-2.473
 20
12.3085
 30
0.0
 10
-2.473
 20
12.3085
 30
0.0
  0
SPLINE
  5
D0
330
1F
100
AcDbEntity
  8
VRSTVA_1
 62
   250
100
AcDbSpline
210
0.0
220
0.0
230
1.0
 70
    11
 71
     3
 72
    20
 73
    16
 74
     0
 42
0.0000000001
 43
0.0000000001
 40
0.0
 40
0.0
 40
0.0
 40
0.0
 40
0.2
 40
0.2
 40
0.2
 40
0.2
 40
0.4
 40
0.4
 40
0.4
 40
0.4
 40
0.6
 40
0.6
 40
0.6
 40
0.6
 40
1.0
 40
1.0
 40
1.0
 40
1.0
 10
-2.7216
 20
14.1759
 30
0.0
 10
-2.8672
 20
14.1759
 30
0.0
 10
-2.9851
 20
14.0579
 30
0.0
 10
-2.9851
 20
13.9124
 30
0.0
 10
-2.9851
 20
13.9124
 30
0.0
 10
-2.9851
 20
13.7668
 30
0.0
 10
-2.8672
 20
13.6488
 30
0.0
 10
-2.7216
 20
13.6488
 30
0.0
 10
-2.7216
 20
13.6488
 30
0.0
 10
-2.576
 20
13.6488
 30
0.0
 10
-2.458
 20
13.7668
 30
0.0
 10
-2.458
 20
13.9124
 30
0.0
 10
-2.458
 20
13.9124
 30
0.0
 10
-2.458
 20
14.0579
 30
0.0
 10
-2.576
 20
14.1759
 30
0.0
 10
-2.7216
 20
14.1759
 30
0.0
  0
SPLINE
  5
D1
330
1F
100
AcDbEntity
  8
VRSTVA_1
 62
   250
100
AcDbSpline
210
0.0
220
0.0
230
1.0
 70
    11
 71
     3
 72
    20
 73
    16
 74
     0
 42
0.0000000001
 43
0.0000000001
 40
0.0
 40
0.0
 40
0.0
 40
0.0
 40
0.2
 40
0.2
 40
0.2
 40
0.2
 40
0.4
 40
0.4
 40
0.4
 40
0.4
 40
0.6
 40
0.6
 40
0.6
 40
0.6
 40
1.0
 40
1.0
 40
1.0
 40
1.0
 10
5.2828
 20
11.7254
 30
0.0
 10
5.1158
 20
11.7254
 30
0.0
 10
4.9804
 20
11.59
 30
0.0
 10
4.9804
 20
11.423
 30
0.0
 10
4.9804
 20
11.423
 30
0.0
 10
4.9804
 20
11.2561
 30
0.0
 10
5.1158
 20
11.1207
 30
0.0
 10
5.2828
 20
11.1207
 30
0.0
 10
5.2828
 20
11.1207
 30
0.0
 10
5.4497
 20
11.1207
 30
0.0
 10
5.5851
 20
11.2561
 30
0.0
 10
5.5851
 20
11.423
 30
0.0
 10
5.5851
 20
11.423
 30
0.0
 10
5.5851
 20
11.59
 30
0.0
 10
5.4497
 20
11.7254
 30
0.0
 10
5.2828
 20
11.7254
 30
0.0
  0
SPLINE
  5
D2
330
1F
100
AcDbEntity
  8
VRSTVA_1
 62
   250
100
AcDbSpline
210
0.0
220
0.0
230
1.0
 70
     8
 71
     3
 72
    76
 73
    72
 74
     0
 42
0.0000000001
 43
0.0000000001
 40
0.0
 40
0.0
 40
0.0
 40
0.0
 40
0.0526315789473684
 40
0.0526315789473684
 40
0.0526315789473684
 40
0.0526315789473684
 40
0.1052631578947368
 40
0.1052631578947368
 40
0.1052631578947368
 40
0.1052631578947368
 40
0.1578947368421053
 40
0.1578947368421053
 40
0.1578947368421053
 40
0.1578947368421053
 40
0.2105263157894737
 40
0.2105263157894737
 40
0.2105263157894737
 40
0.2105263157894737
 40
0.2631578947368421
 40
0.2631578947368421
 40
0.2631578947368421
 40
0.2631578947368421
 40
0.3157894736842105
 40
0.3157894736842105
 40
0.3157894736842105
 40
0.3157894736842105
 40
0.3684210526315789
 40
0.3684210526315789
 40
0.3684210526315789
 40
0.3684210526315789
 40
0.4210526315789473
 40
0.4210526315789473
 40
0.4210526315789473
 40
0.4210526315789473
 40
0.4736842105263158
 40
0.4736842105263158
 40
0.4736842105263158
 40
0.4736842105263158
 40
0.5263157894736842
 40
0.5263157894736842
 40
0.5263157894736842
 40
0.5263157894736842
 40
0.5789473684210527
 40
0.5789473684210527
 40
0.5789473684210527
 40
0.5789473684210527
 40
0.631578947368421
 40
0.631578947368421
 40
0.631578947368421
 40
0.631578947368421
 40
0.6842105263157895
 40
0.6842105263157895
 40
0.6842105263157895
 40
0.6842105263157895
 40
0.7368421052631579
 40
0.7368421052631579
 40
0.7368421052631579
 40
0.7368421052631579
 40
0.7894736842105263
 40
0.7894736842105263
 40
0.7894736842105263
 40
0.7894736842105263
 40
0.8421052631578947
 40
0.8421052631578947
 40
0.8421052631578947
 40
0.8421052631578947
 40
0.8947368421052632
 40
0.8947368421052632
 40
0.8947368421052632
 40
0.8947368421052632
 40
1.0
 40
1.0
 40
1.0
 40
1.0
 10
-0.8871
 20
13.4875
 30
0.0
 10
-0.8871
 20
13.4875
 30
0.0
 10
0.6527
 20
14.3016
 30
0.0
 10
0.6527
 20
14.3016
 30
0.0
 10
0.6527
 20
14.3016
 30
0.0
 10
0.843
 20
14.4025
 30
0.0
 10
1.0777
 20
14.3595
 30
0.0
 10
1.2199
 20
14.1976
 30
0.0
 10
1.2199
 20
14.1976
 30
0.0
 10
1.2199
 20
14.1976
 30
0.0
 10
1.559
 20
13.7916
 30
0.0
 10
1.559
 20
13.7916
 30
0.0
 10
1.559
 20
13.7916
 30
0.0
 10
1.559
 20
13.7916
 30
0.0
 10
3.7142
 20
12.509
 30
0.0
 10
3.7142
 20
12.509
 30
0.0
 10
3.7142
 20
12.509
 30
0.0
 10
3.7142
 20
12.509
 30
0.0
 10
5.3141
 20
12.2975
 30
0.0
 10
5.3141
 20
12.2975
 30
0.0
 10
5.3141
 20
12.2975
 30
0.0
 10
5.3141
 20
12.2975
 30
0.0
 10
5.6447
 20
12.152
 30
0.0
 10
5.6447
 20
12.152
 30
0.0
 10
5.6447
 20
12.152
 30
0.0
 10
5.6447
 20
12.152
 30
0.0
 10
5.843
 20
11.9273
 30
0.0
 10
5.843
 20
11.9273
 30
0.0
 10
5.843
 20
11.9273
 30
0.0
 10
5.843
 20
11.9273
 30
0.0
 10
5.9356
 20
11.6628
 30
0.0
 10
5.9356
 20
11.6628
 30
0.0
 10
5.9356
 20
11.6628
 30
0.0
 10
5.9356
 20
11.6628
 30
0.0
 10
5.9356
 20
11.3852
 30
0.0
 10
5.9356
 20
11.3852
 30
0.0
 10
5.9356
 20
11.3852
 30
0.0
 10
5.9356
 20
11.3852
 30
0.0
 10
5.8695
 20
11.1207
 30
0.0
 10
5.8695
 20
11.1207
 30
0.0
 10
5.8695
 20
11.1207
 30
0.0
 10
5.8695
 20
11.1207
 30
0.0
 10
5.7108
 20
10.8827
 30
0.0
 10
5.7108
 20
10.8827
 30
0.0
 10
5.7108
 20
10.8827
 30
0.0
 10
5.7108
 20
10.8827
 30
0.0
 10
5.5389
 20
10.7637
 30
0.0
 10
5.5389
 20
10.7637
 30
0.0
 10
5.5389
 20
10.7637
 30
0.0
 10
5.5389
 20
10.7637
 30
0.0
 10
5.3009
 20
10.6976
 30
0.0
 10
5.3009
 20
10.6976
 30
0.0
 10
5.3009
 20
10.6976
 30
0.0
 10
5.3009
 20
10.6976
 30
0.0
 10
5.0761
 20
10.6844
 30
0.0
 10
5.0761
 20
10.6844
 30
0.0
 10
5.0761
 20
10.6844
 30
0.0
 10
5.0761
 20
10.6844
 30
0.0
 10
3.3176
 20
10.962
 30
0.0
 10
3.3176
 20
10.962
 30
0.0
 10
3.3176
 20
10.962
 30
0.0
 10
3.3176
 20
10.962
 30
0.0
 10
1.9028
 20
11.8215
 30
0.0
 10
1.9028
 20
11.8215
 30
0.0
 10
1.9028
 20
11.8215
 30
0.0
 10
1.9028
 20
11.8215
 30
0.0
 10
1.3342
 20
11.2662
 30
0.0
 10
1.3342
 20
11.2662
 30
0.0
 10
1.3342
 20
11.2662
 30
0.0
 10
1.3342
 20
11.2662
 30
0.0
 10
-0.8607
 20
11.6232
 30
0.0
 10
-0.8607
 20
11.6232
 30
0.0
  0
SPLINE
  5
D3
330
1F
100
AcDbEntity
  8
VRSTVA_1
 62
   250
100
AcDbSpline
210
0.0
220
0.0
230
1.0
 70
     8
 71
     3
 72
    12
 73
     8
 74
     0
 42
0.0000000001
 43
0.0000000001
 40
0.0
 40
0.0
 40
0.0
 40
0.0
 40
0.3333333333333333
 40
0.3333333333333333
 40
0.3333333333333333
 40
0.3333333333333333
 40
1.0
 40
1.0
 40
1.0
 40
1.0
 10
-2.4585
 20
19.5987
 30
0.0
 10
-2.6956
 20
19.4808
 30
0.0
 10
-2.8456
 20
19.2387
 30
0.0
 10
-2.8456
 20
18.9738
 30
0.0
 10
-2.8456
 20
18.9738
 30
0.0
 10
-2.8456
 20
18.7089
 30
0.0
 10
-2.6956
 20
18.467
 30
0.0
 10
-2.4585
 20
18.3491
 30
0.0
  0
SPLINE
  5
D4
330
1F
100
AcDbEntity
  8
VRSTVA_1
 62
   250
100
AcDbSpline
210
0.0
220
0.0
230
1.0
 70
     8
 71
     3
 72
    16
 73
    12
 74
     0
 42
0.0000000001
 43
0.0000000001
 40
0.0
 40
0.0
 40
0.0
 40
0.0
 40
0.25
 40
0.25
 40
0.25
 40
0.25
 40
0.5
 40
0.5
 40
0.5
 40
0.5
 40
1.0
 40
1.0
 40
1.0
 40
1.0
 10
-0.9075
 20
14.582
 30
0.0
 10
-0.9075
 20
14.582
 30
0.0
 10
-0.4115
 20
15.9505
 30
0.0
 10
-0.4115
 20
15.9505
 30
0.0
 10
-0.4115
 20
15.9505
 30
0.0
 10
-0.4115
 20
15.9505
 30
0.0
 10
-0.0884
 20
15.9461
 30
0.0
 10
-0.0884
 20
15.9461
 30
0.0
 10
-0.0884
 20
15.9461
 30
0.0
 10
-0.0884
 20
15.9461
 30
0.0
 10
-0.7663
 20
18.2641
 30
0.0
 10
-0.7663
 20
18.2641
 30
0.0
  0
SPLINE
  5
D5
330
1F
100
AcDbEntity
  8
VRSTVA_1
 62
   250
100
AcDbSpline
210
0.0
220
0.0
230
1.0
 70
     8
 71
     3
 72
    28
 73
    24
 74
     0
 42
0.0000000001
 43
0.0000000001
 40
0.0
 40
0.0
 40
0.0
 40
0.0
 40
0.1428571428571428
 40
0.1428571428571428
 40
0.1428571428571428
 40
0.1428571428571428
 40
0.2857142857142857
 40
0.2857142857142857
 40
0.2857142857142857
 40
0.2857142857142857
 40
0.4285714285714285
 40
0.4285714285714285
 40
0.4285714285714285
 40
0.4285714285714285
 40
0.5714285714285714
 40
0.5714285714285714
 40
0.5714285714285714
 40
0.5714285714285714
 40
0.7142857142857143
 40
0.7142857142857143
 40
0.7142857142857143
 40
0.7142857142857143
 40
1.0
 40
1.0
 40
1.0
 40
1.0
 10
-2.4611
 20
18.1656
 30
0.0
 10
-2.4611
 20
18.1656
 30
0.0
 10
-2.6798
 20
18.0672
 30
0.0
 10
-2.6798
 20
18.0672
 30
0.0
 10
-2.6798
 20
18.0672
 30
0.0
 10
-2.6798
 20
18.0672
 30
0.0
 10
-3.1875
 20
16.3343
 30
0.0
 10
-3.1875
 20
16.3343
 30
0.0
 10
-3.1875
 20
16.3343
 30
0.0
 10
-3.203
 20
16.2801
 30
0.0
 10
-3.1879
 20
16.2219
 30
0.0
 10
-3.1481
 20
16.182
 30
0.0
 10
-3.1481
 20
16.182
 30
0.0
 10
-3.1084
 20
16.1421
 30
0.0
 10
-3.0502
 20
16.127
 30
0.0
 10
-2.996
 20
16.1424
 30
0.0
 10
-2.996
 20
16.1424
 30
0.0
 10
-2.996
 20
16.1424
 30
0.0
 10
-2.6251
 20
16.2304
 30
0.0
 10
-2.6251
 20
16.2304
 30
0.0
 10
-2.6251
 20
16.2304
 30
0.0
 10
-2.6251
 20
16.2304
 30
0.0
 10
-2.4501
 20
16.2522
 30
0.0
 10
-2.4501
 20
16.2522
 30
0.0
  0
SPLINE
  5
D6
330
1F
100
AcDbEntity
  8
VRSTVA_1
 62
   250
100
AcDbSpline
210
0.0
220
0.0
230
1.0
 70
     8
 71
     3
 72
    52
 73
    48
 74
     0
 42
0.0000000001
 43
0.0000000001
 40
0.0
 40
0.0
 40
0.0
 40
0.0
 40
0.0769230769230769
 40
0.0769230769230769
 40
0.0769230769230769
 40
0.0769230769230769
 40
0.1538461538461539
 40
0.1538461538461539
 40
0.1538461538461539
 40
0.1538461538461539
 40
0.2307692307692308
 40
0.2307692307692308
 40
0.2307692307692308
 40
0.2307692307692308
 40
0.3076923076923077
 40
0.3076923076923077
 40
0.3076923076923077
 40
0.3076923076923077
 40
0.3846153846153846
 40
0.3846153846153846
 40
0.3846153846153846
 40
0.3846153846153846
 40
0.4615384615384616
 40
0.4615384615384616
 40
0.4615384615384616
 40
0.4615384615384616
 40
0.5384615384615384
 40
0.5384615384615384
 40
0.5384615384615384
 40
0.5384615384615384
 40
0.6153846153846154
 40
0.6153846153846154
 40
0.6153846153846154
 40
0.6153846153846154
 40
0.6923076923076923
 40
0.6923076923076923
 40
0.6923076923076923
 40
0.6923076923076923
 40
0.7692307692307693
 40
0.7692307692307693
 40
0.7692307692307693
 40
0.7692307692307693
 40
0.8461538461538461
 40
0.8461538461538461
 40
0.8461538461538461
 40
0.8461538461538461
 40
1.0
 40
1.0
 40
1.0
 40
1.0
 10
-2.5048
 20
19.9041
 30
0.0
 10
-2.5048
 20
19.9041
 30
0.0
 10
-4.1325
 20
19.9041
 30
0.0
 10
-4.1325
 20
19.9041
 30
0.0
 10
-4.1325
 20
19.9041
 30
0.0
 10
-4.1684
 20
19.9041
 30
0.0
 10
-4.1996
 20
19.8795
 30
0.0
 10
-4.208
 20
19.8447
 30
0.0
 10
-4.208
 20
19.8447
 30
0.0
 10
-4.2163
 20
19.8099
 30
0.0
 10
-4.1996
 20
19.7738
 30
0.0
 10
-4.1677
 20
19.7575
 30
0.0
 10
-4.1677
 20
19.7575
 30
0.0
 10
-4.1677
 20
19.7575
 30
0.0
 10
-3.2046
 20
19.2809
 30
0.0
 10
-3.2046
 20
19.2809
 30
0.0
 10
-3.2046
 20
19.2809
 30
0.0
 10
-3.2046
 20
19.2809
 30
0.0
 10
-3.1062
 20
19.1388
 30
0.0
 10
-3.1062
 20
19.1388
 30
0.0
 10
-3.1062
 20
19.1388
 30
0.0
 10
-3.1062
 20
19.1388
 30
0.0
 10
-3.1062
 20
18.9966
 30
0.0
 10
-3.1062
 20
18.9966
 30
0.0
 10
-3.1062
 20
18.9966
 30
0.0
 10
-3.1062
 20
18.9966
 30
0.0
 10
-4.0902
 20
15.5743
 30
0.0
 10
-4.0902
 20
15.5743
 30
0.0
 10
-4.0902
 20
15.5743
 30
0.0
 10
-4.0902
 20
15.5743
 30
0.0
 10
-4.0684
 20
15.465
 30
0.0
 10
-4.0684
 20
15.465
 30
0.0
 10
-4.0684
 20
15.465
 30
0.0
 10
-4.0684
 20
15.465
 30
0.0
 10
-3.9043
 20
15.4978
 30
0.0
 10
-3.9043
 20
15.4978
 30
0.0
 10
-3.9043
 20
15.4978
 30
0.0
 10
-3.9043
 20
15.4978
 30
0.0
 10
-3.7403
 20
15.465
 30
0.0
 10
-3.7403
 20
15.465
 30
0.0
 10
-3.7403
 20
15.465
 30
0.0
 10
-3.7403
 20
15.465
 30
0.0
 10
-3.6091
 20
15.3557
 30
0.0
 10
-3.6091
 20
15.3557
 30
0.0
 10
-3.6091
 20
15.3557
 30
0.0
 10
-3.6091
 20
15.3557
 30
0.0
 10
-3.4779
 20
15.0714
 30
0.0
 10
-3.4779
 20
15.0714
 30
0.0
  0
SPLINE
  5
D7
330
1F
100
AcDbEntity
  8
VRSTVA_1
 62
   250
100
AcDbSpline
210
0.0
220
0.0
230
1.0
 70
     8
 71
     3
 72
    20
 73
    16
 74
     0
 42
0.0000000001
 43
0.0000000001
 40
0.0
 40
0.0
 40
0.0
 40
0.0
 40
0.2
 40
0.2
 40
0.2
 40
0.2
 40
0.4
 40
0.4
 40
0.4
 40
0.4
 40
0.6
 40
0.6
 40
0.6
 40
0.6
 40
1.0
 40
1.0
 40
1.0
 40
1.0
 10
4.1487
 20
20.8138
 30
0.0
 10
4.1487
 20
20.8138
 30
0.0
 10
4.1313
 20
19.9817
 30
0.0
 10
4.1313
 20
19.9817
 30
0.0
 10
4.1313
 20
19.9817
 30
0.0
 10
4.1313
 20
19.8104
 30
0.0
 10
3.9925
 20
19.6715
 30
0.0
 10
3.8213
 20
19.6715
 30
0.0
 10
3.8213
 20
19.6715
 30
0.0
 10
3.8213
 20
19.6715
 30
0.0
 10
2.0382
 20
19.6648
 30
0.0
 10
2.0382
 20
19.6648
 30
0.0
 10
2.0382
 20
19.6648
 30
0.0
 10
2.0382
 20
19.6648
 30
0.0
 10
-0.9138
 20
19.6535
 30
0.0
 10
-0.9138
 20
19.6535
 30
0.0
  0
SPLINE
  5
D8
330
1F
100
AcDbEntity
  8
VRSTVA_1
 62
   250
100
AcDbSpline
210
0.0
220
0.0
230
1.0
 70
     8
 71
     3
 72
    16
 73
    12
 74
     0
 42
0.0000000001
 43
0.0000000001
 40
0.0
 40
0.0
 40
0.0
 40
0.0
 40
0.25
 40
0.25
 40
0.25
 40
0.25
 40
0.5
 40
0.5
 40
0.5
 40
0.5
 40
1.0
 40
1.0
 40
1.0
 40
1.0
 10
8.7813
 20
18.2643
 30
0.0
 10
8.7813
 20
18.2643
 30
0.0
 10
8.7827
 20
17.656
 30
0.0
 10
8.7827
 20
17.656
 30
0.0
 10
8.7827
 20
17.656
 30
0.0
 10
8.7827
 20
17.4848
 30
0.0
 10
8.9214
 20
17.3459
 30
0.0
 10
9.0927
 20
17.3459
 30
0.0
 10
9.0927
 20
17.3459
 30
0.0
 10
9.0927
 20
17.3459
 30
0.0
 10
9.2051
 20
17.3432
 30
0.0
 10
9.2051
 20
17.3432
 30
0.0
  0
SPLINE
  5
D9
330
1F
100
AcDbEntity
  8
VRSTVA_1
 62
   250
100
AcDbSpline
210
0.0
220
0.0
230
1.0
 70
     8
 71
     3
 72
    16
 73
    12
 74
     0
 42
0.0000000001
 43
0.0000000001
 40
0.0
 40
0.0
 40
0.0
 40
0.0
 40
0.25
 40
0.25
 40
0.25
 40
0.25
 40
0.5
 40
0.5
 40
0.5
 40
0.5
 40
1.0
 40
1.0
 40
1.0
 40
1.0
 10
7.6871
 20
18.2542
 30
0.0
 10
7.6871
 20
18.2542
 30
0.0
 10
8.9223
 20
15.6197
 30
0.0
 10
8.9223
 20
15.6197
 30
0.0
 10
8.9223
 20
15.6197
 30
0.0
 10
8.9223
 20
15.6197
 30
0.0
 10
9.0379
 20
15.5258
 30
0.0
 10
9.0379
 20
15.5258
 30
0.0
 10
9.0379
 20
15.5258
 30
0.0
 10
9.0379
 20
15.5258
 30
0.0
 10
9.1929
 20
15.4435
 30
0.0
 10
9.1929
 20
15.4435
 30
0.0
  0
SPLINE
  5
DA
330
1F
100
AcDbEntity
  8
VRSTVA_1
 62
   250
100
AcDbSpline
210
0.0
220
0.0
230
1.0
 70
     8
 71
     3
 72
    16
 73
    12
 74
     0
 42
0.0000000001
 43
0.0000000001
 40
0.0
 40
0.0
 40
0.0
 40
0.0
 40
0.25
 40
0.25
 40
0.25
 40
0.25
 40
0.5
 40
0.5
 40
0.5
 40
0.5
 40
1.0
 40
1.0
 40
1.0
 40
1.0
 10
7.0734
 20
20.8436
 30
0.0
 10
7.0734
 20
20.8436
 30
0.0
 10
7.0772
 20
19.9817
 30
0.0
 10
7.0772
 20
19.9817
 30
0.0
 10
7.0772
 20
19.9817
 30
0.0
 10
7.0772
 20
19.8104
 30
0.0
 10
7.216
 20
19.6715
 30
0.0
 10
7.3872
 20
19.6715
 30
0.0
 10
7.3872
 20
19.6715
 30
0.0
 10
7.3872
 20
19.6715
 30
0.0
 10
10.0426
 20
19.6982
 30
0.0
 10
10.0426
 20
19.6982
 30
0.0
  0
SPLINE
  5
DB
330
1F
100
AcDbEntity
  8
VRSTVA_1
 62
   250
100
AcDbSpline
210
0.0
220
0.0
230
1.0
 70
    11
 71
     3
 72
    40
 73
    36
 74
     0
 42
0.0000000001
 43
0.0000000001
 40
0.0
 40
0.0
 40
0.0
 40
0.0
 40
0.1
 40
0.1
 40
0.1
 40
0.1
 40
0.2
 40
0.2
 40
0.2
 40
0.2
 40
0.3
 40
0.3
 40
0.3
 40
0.3
 40
0.4
 40
0.4
 40
0.4
 40
0.4
 40
0.5
 40
0.5
 40
0.5
 40
0.5
 40
0.6
 40
0.6
 40
0.6
 40
0.6
 40
0.7
 40
0.7
 40
0.7
 40
0.7
 40
0.8
 40
0.8
 40
0.8
 40
0.8
 40
1.0
 40
1.0
 40
1.0
 40
1.0
 10
2.0382
 20
19.6715
 30
0.0
 10
2.0382
 20
19.6715
 30
0.0
 10
2.0382
 20
19.6648
 30
0.0
 10
2.0382
 20
19.6648
 30
0.0
 10
2.0382
 20
19.6648
 30
0.0
 10
2.0382
 20
19.6648
 30
0.0
 10
2.0382
 20
18.2762
 30
0.0
 10
2.0382
 20
18.2762
 30
0.0
 10
2.0382
 20
18.2762
 30
0.0
 10
2.0382
 20
18.2762
 30
0.0
 10
8.3175
 20
18.2762
 30
0.0
 10
8.3175
 20
18.2762
 30
0.0
 10
8.3175
 20
18.2762
 30
0.0
 10
8.3175
 20
18.2762
 30
0.0
 10
8.3175
 20
19.6715
 30
0.0
 10
8.3175
 20
19.6715
 30
0.0
 10
8.3175
 20
19.6715
 30
0.0
 10
8.3175
 20
19.6715
 30
0.0
 10
8.3175
 20
18.2762
 30
0.0
 10
8.3175
 20
18.2762
 30
0.0
 10
8.3175
 20
18.2762
 30
0.0
 10
8.3175
 20
18.2762
 30
0.0
 10
10.0253
 20
18.2762
 30
0.0
 10
10.0253
 20
18.2762
 30
0.0
 10
10.0253
 20
18.2762
 30
0.0
 10
10.0253
 20
18.2762
 30
0.0
 10
8.3175
 20
18.2762
 30
0.0
 10
8.3175
 20
18.2762
 30
0.0
 10
8.3175
 20
18.2762
 30
0.0
 10
8.3175
 20
18.2762
 30
0.0
 10
2.0382
 20
18.2762
 30
0.0
 10
2.0382
 20
18.2762
 30
0.0
 10
2.0382
 20
18.2762
 30
0.0
 10
2.0382
 20
18.2762
 30
0.0
 10
2.0382
 20
19.6715
 30
0.0
 10
2.0382
 20
19.6715
 30
0.0
  0
SPLINE
  5
DC
330
1F
100
AcDbEntity
  8
VRSTVA_1
 62
   250
100
AcDbSpline
210
0.0
220
0.0
230
1.0
 70
    27
 71
     3
 72
    12
 73
     8
 74
     0
 42
0.0000000001
 43
0.0000000001
 40
0.0
 40
0.0
 40
0.0
 40
0.0
 40
0.3333333333333333
 40
0.3333333333333333
 40
0.3333333333333333
 40
0.3333333333333333
 40
1.0
 40
1.0
 40
1.0
 40
1.0
 10
-0.9075
 20
18.2762
 30
0.0
 10
-0.9075
 20
18.2762
 30
0.0
 10
2.0382
 20
18.2762
 30
0.0
 10
2.0382
 20
18.2762
 30
0.0
 10
2.0382
 20
18.2762
 30
0.0
 10
2.0382
 20
18.2762
 30
0.0
 10
-0.9075
 20
18.2762
 30
0.0
 10
-0.9075
 20
18.2762
 30
0.0
  0
SPLINE
  5
DD
330
1F
100
AcDbEntity
  8
VRSTVA_1
 62
   250
100
AcDbSpline
210
0.0
220
0.0
230
1.0
 70
     8
 71
     3
 72
    16
 73
    12
 74
     0
 42
0.0000000001
 43
0.0000000001
 40
0.0
 40
0.0
 40
0.0
 40
0.0
 40
0.25
 40
0.25
 40
0.25
 40
0.25
 40
0.5
 40
0.5
 40
0.5
 40
0.5
 40
1.0
 40
1.0
 40
1.0
 40
1.0
 10
-2.4544
 20
-1.802
 30
0.0
 10
-2.4544
 20
-1.802
 30
0.0
 10
-2.4544
 20
9.2837
 30
0.0
 10
-2.4544
 20
9.2837
 30
0.0
 10
-2.4544
 20
9.2837
 30
0.0
 10
-2.4544
 20
9.2837
 30
0.0
 10
-2.4544
 20
20.8977
 30
0.0
 10
-2.4544
 20
20.8977
 30
0.0
 10
-2.4544
 20
20.8977
 30
0.0
 10
-2.4544
 20
20.8977
 30
0.0
 10
2.0231
 20
22.2151
 30
0.0
 10
2.0231
 20
22.2151
 30
0.0
  0
SPLINE
  5
DE
330
1F
100
AcDbEntity
  8
VRSTVA_1
 62
   250
100
AcDbSpline
210
0.0
220
0.0
230
1.0
 70
     8
 71
     3
 72
    16
 73
    12
 74
     0
 42
0.0000000001
 43
0.0000000001
 40
0.0
 40
0.0
 40
0.0
 40
0.0
 40
0.25
 40
0.25
 40
0.25
 40
0.25
 40
0.5
 40
0.5
 40
0.5
 40
0.5
 40
1.0
 40
1.0
 40
1.0
 40
1.0
 10
-2.4546
 20
-5.8332
 30
0.0
 10
-2.4546
 20
-5.8332
 30
0.0
 10
-2.4546
 20
-14.3062
 30
0.0
 10
-2.4546
 20
-14.3062
 30
0.0
 10
-2.4546
 20
-14.3062
 30
0.0
 10
-2.4546
 20
-14.3062
 30
0.0
 10
-0.8785
 20
-14.3134
 30
0.0
 10
-0.8785
 20
-14.3134
 30
0.0
 10
-0.8785
 20
-14.3134
 30
0.0
 10
-0.8785
 20
-14.3134
 30
0.0
 10
-0.8785
 20
-5.829
 30
0.0
 10
-0.8785
 20
-5.829
 30
0.0
  0
SPLINE
  5
DF
330
1F
100
AcDbEntity
  8
VRSTVA_1
 62
   250
100
AcDbSpline
210
0.0
220
0.0
230
1.0
 70
     8
 71
     3
 72
    16
 73
    12
 74
     0
 42
0.0000000001
 43
0.0000000001
 40
0.0
 40
0.0
 40
0.0
 40
0.0
 40
0.25
 40
0.25
 40
0.25
 40
0.25
 40
0.5
 40
0.5
 40
0.5
 40
0.5
 40
1.0
 40
1.0
 40
1.0
 40
1.0
 10
11.6782
 20
-5.8385
 30
0.0
 10
11.6782
 20
-5.8385
 30
0.0
 10
11.6782
 20
-14.3115
 30
0.0
 10
11.6782
 20
-14.3115
 30
0.0
 10
11.6782
 20
-14.3115
 30
0.0
 10
11.6782
 20
-14.3115
 30
0.0
 10
13.2543
 20
-14.3187
 30
0.0
 10
13.2543
 20
-14.3187
 30
0.0
 10
13.2543
 20
-14.3187
 30
0.0
 10
13.2543
 20
-14.3187
 30
0.0
 10
13.2543
 20
-5.8343
 30
0.0
 10
13.2543
 20
-5.8343
 30
0.0
  0
SPLINE
  5
E0
330
1F
100
AcDbEntity
  8
VRSTVA_1
 62
   250
100
AcDbSpline
210
0.0
220
0.0
230
1.0
 70
    11
 71
     3
 72
    20
 73
    16
 74
     0
 42
0.0000000001
 43
0.0000000001
 40
0.0
 40
0.0
 40
0.0
 40
0.0
 40
0.2
 40
0.2
 40
0.2
 40
0.2
 40
0.4
 40
0.4
 40
0.4
 40
0.4
 40
0.6
 40
0.6
 40
0.6
 40
0.6
 40
1.0
 40
1.0
 40
1.0
 40
1.0
 10
12.4344
 20
-6.2183
 30
0.0
 10
12.2589
 20
-6.2183
 30
0.0
 10
12.1167
 20
-6.3607
 30
0.0
 10
12.1167
 20
-6.5361
 30
0.0
 10
12.1167
 20
-6.5361
 30
0.0
 10
12.1167
 20
-6.7117
 30
0.0
 10
12.2589
 20
-6.8541
 30
0.0
 10
12.4344
 20
-6.8541
 30
0.0
 10
12.4344
 20
-6.8541
 30
0.0
 10
12.61
 20
-6.8541
 30
0.0
 10
12.7523
 20
-6.7117
 30
0.0
 10
12.7523
 20
-6.5361
 30
0.0
 10
12.7523
 20
-6.5361
 30
0.0
 10
12.7523
 20
-6.3607
 30
0.0
 10
12.61
 20
-6.2183
 30
0.0
 10
12.4344
 20
-6.2183
 30
0.0
  0
SPLINE
  5
E1
330
1F
100
AcDbEntity
  8
VRSTVA_1
 62
   250
100
AcDbSpline
210
0.0
220
0.0
230
1.0
 70
    11
 71
     3
 72
    20
 73
    16
 74
     0
 42
0.0000000001
 43
0.0000000001
 40
0.0
 40
0.0
 40
0.0
 40
0.0
 40
0.2
 40
0.2
 40
0.2
 40
0.2
 40
0.4
 40
0.4
 40
0.4
 40
0.4
 40
0.6
 40
0.6
 40
0.6
 40
0.6
 40
1.0
 40
1.0
 40
1.0
 40
1.0
 10
12.4344
 20
-7.4587
 30
0.0
 10
12.2589
 20
-7.4587
 30
0.0
 10
12.1167
 20
-7.601
 30
0.0
 10
12.1167
 20
-7.7765
 30
0.0
 10
12.1167
 20
-7.7765
 30
0.0
 10
12.1167
 20
-7.952
 30
0.0
 10
12.2589
 20
-8.0944
 30
0.0
 10
12.4344
 20
-8.0944
 30
0.0
 10
12.4344
 20
-8.0944
 30
0.0
 10
12.61
 20
-8.0944
 30
0.0
 10
12.7523
 20
-7.952
 30
0.0
 10
12.7523
 20
-7.7765
 30
0.0
 10
12.7523
 20
-7.7765
 30
0.0
 10
12.7523
 20
-7.601
 30
0.0
 10
12.61
 20
-7.4587
 30
0.0
 10
12.4344
 20
-7.4587
 30
0.0
  0
SPLINE
  5
E2
330
1F
100
AcDbEntity
  8
VRSTVA_1
 62
   250
100
AcDbSpline
210
0.0
220
0.0
230
1.0
 70
    11
 71
     3
 72
    20
 73
    16
 74
     0
 42
0.0000000001
 43
0.0000000001
 40
0.0
 40
0.0
 40
0.0
 40
0.0
 40
0.2
 40
0.2
 40
0.2
 40
0.2
 40
0.4
 40
0.4
 40
0.4
 40
0.4
 40
0.6
 40
0.6
 40
0.6
 40
0.6
 40
1.0
 40
1.0
 40
1.0
 40
1.0
 10
12.4344
 20
-8.699
 30
0.0
 10
12.2589
 20
-8.699
 30
0.0
 10
12.1167
 20
-8.8413
 30
0.0
 10
12.1167
 20
-9.0169
 30
0.0
 10
12.1167
 20
-9.0169
 30
0.0
 10
12.1167
 20
-9.1924
 30
0.0
 10
12.2589
 20
-9.3347
 30
0.0
 10
12.4344
 20
-9.3347
 30
0.0
 10
12.4344
 20
-9.3347
 30
0.0
 10
12.61
 20
-9.3347
 30
0.0
 10
12.7523
 20
-9.1924
 30
0.0
 10
12.7523
 20
-9.0169
 30
0.0
 10
12.7523
 20
-9.0169
 30
0.0
 10
12.7523
 20
-8.8413
 30
0.0
 10
12.61
 20
-8.699
 30
0.0
 10
12.4344
 20
-8.699
 30
0.0
  0
SPLINE
  5
E3
330
1F
100
AcDbEntity
  8
VRSTVA_1
 62
   250
100
AcDbSpline
210
0.0
220
0.0
230
1.0
 70
    11
 71
     3
 72
    24
 73
    20
 74
     0
 42
0.0000000001
 43
0.0000000001
 40
0.0
 40
0.0
 40
0.0
 40
0.0
 40
0.1666666666666667
 40
0.1666666666666667
 40
0.1666666666666667
 40
0.1666666666666667
 40
0.3333333333333333
 40
0.3333333333333333
 40
0.3333333333333333
 40
0.3333333333333333
 40
0.5
 40
0.5
 40
0.5
 40
0.5
 40
0.6666666666666666
 40
0.6666666666666666
 40
0.6666666666666666
 40
0.6666666666666666
 40
1.0
 40
1.0
 40
1.0
 40
1.0
 10
12.4344
 20
-9.9394
 30
0.0
 10
12.2589
 20
-9.9394
 30
0.0
 10
12.1167
 20
-10.0817
 30
0.0
 10
12.1167
 20
-10.2572
 30
0.0
 10
12.1167
 20
-10.2572
 30
0.0
 10
12.1167
 20
-10.4327
 30
0.0
 10
12.2589
 20
-10.575
 30
0.0
 10
12.4344
 20
-10.575
 30
0.0
 10
12.4344
 20
-10.575
 30
0.0
 10
12.4563
 20
-10.575
 30
0.0
 10
12.4778
 20
-10.5729
 30
0.0
 10
12.4984
 20
-10.5687
 30
0.0
 10
12.4984
 20
-10.5687
 30
0.0
 10
12.6434
 20
-10.539
 30
0.0
 10
12.7523
 20
-10.4108
 30
0.0
 10
12.7523
 20
-10.2572
 30
0.0
 10
12.7523
 20
-10.2572
 30
0.0
 10
12.7523
 20
-10.0817
 30
0.0
 10
12.61
 20
-9.9394
 30
0.0
 10
12.4344
 20
-9.9394
 30
0.0
  0
SPLINE
  5
E4
330
1F
100
AcDbEntity
  8
VRSTVA_1
 62
   250
100
AcDbSpline
210
0.0
220
0.0
230
1.0
 70
    11
 71
     3
 72
    20
 73
    16
 74
     0
 42
0.0000000001
 43
0.0000000001
 40
0.0
 40
0.0
 40
0.0
 40
0.0
 40
0.2
 40
0.2
 40
0.2
 40
0.2
 40
0.4
 40
0.4
 40
0.4
 40
0.4
 40
0.6
 40
0.6
 40
0.6
 40
0.6
 40
1.0
 40
1.0
 40
1.0
 40
1.0
 10
12.4344
 20
-11.1797
 30
0.0
 10
12.2589
 20
-11.1797
 30
0.0
 10
12.1167
 20
-11.322
 30
0.0
 10
12.1167
 20
-11.4976
 30
0.0
 10
12.1167
 20
-11.4976
 30
0.0
 10
12.1167
 20
-11.6731
 30
0.0
 10
12.2589
 20
-11.8154
 30
0.0
 10
12.4344
 20
-11.8154
 30
0.0
 10
12.4344
 20
-11.8154
 30
0.0
 10
12.61
 20
-11.8154
 30
0.0
 10
12.7523
 20
-11.6731
 30
0.0
 10
12.7523
 20
-11.4976
 30
0.0
 10
12.7523
 20
-11.4976
 30
0.0
 10
12.7523
 20
-11.322
 30
0.0
 10
12.61
 20
-11.1797
 30
0.0
 10
12.4344
 20
-11.1797
 30
0.0
  0
SPLINE
  5
E5
330
1F
100
AcDbEntity
  8
VRSTVA_1
 62
   250
100
AcDbSpline
210
0.0
220
0.0
230
1.0
 70
    11
 71
     3
 72
    20
 73
    16
 74
     0
 42
0.0000000001
 43
0.0000000001
 40
0.0
 40
0.0
 40
0.0
 40
0.0
 40
0.2
 40
0.2
 40
0.2
 40
0.2
 40
0.4
 40
0.4
 40
0.4
 40
0.4
 40
0.6
 40
0.6
 40
0.6
 40
0.6
 40
1.0
 40
1.0
 40
1.0
 40
1.0
 10
12.4344
 20
-12.42
 30
0.0
 10
12.2589
 20
-12.42
 30
0.0
 10
12.1167
 20
-12.5624
 30
0.0
 10
12.1167
 20
-12.7378
 30
0.0
 10
12.1167
 20
-12.7378
 30
0.0
 10
12.1167
 20
-12.9134
 30
0.0
 10
12.2589
 20
-13.0558
 30
0.0
 10
12.4344
 20
-13.0558
 30
0.0
 10
12.4344
 20
-13.0558
 30
0.0
 10
12.61
 20
-13.0558
 30
0.0
 10
12.7523
 20
-12.9134
 30
0.0
 10
12.7523
 20
-12.7378
 30
0.0
 10
12.7523
 20
-12.7378
 30
0.0
 10
12.7523
 20
-12.5624
 30
0.0
 10
12.61
 20
-12.42
 30
0.0
 10
12.4344
 20
-12.42
 30
0.0
  0
SPLINE
  5
E6
330
1F
100
AcDbEntity
  8
VRSTVA_1
 62
   250
100
AcDbSpline
210
0.0
220
0.0
230
1.0
 70
    11
 71
     3
 72
    20
 73
    16
 74
     0
 42
0.0000000001
 43
0.0000000001
 40
0.0
 40
0.0
 40
0.0
 40
0.0
 40
0.2
 40
0.2
 40
0.2
 40
0.2
 40
0.4
 40
0.4
 40
0.4
 40
0.4
 40
0.6
 40
0.6
 40
0.6
 40
0.6
 40
1.0
 40
1.0
 40
1.0
 40
1.0
 10
-1.6983
 20
-6.213
 30
0.0
 10
-1.8739
 20
-6.213
 30
0.0
 10
-2.0161
 20
-6.3554
 30
0.0
 10
-2.0161
 20
-6.5308
 30
0.0
 10
-2.0161
 20
-6.5308
 30
0.0
 10
-2.0161
 20
-6.7063
 30
0.0
 10
-1.8739
 20
-6.8487
 30
0.0
 10
-1.6983
 20
-6.8487
 30
0.0
 10
-1.6983
 20
-6.8487
 30
0.0
 10
-1.5228
 20
-6.8487
 30
0.0
 10
-1.3805
 20
-6.7063
 30
0.0
 10
-1.3805
 20
-6.5308
 30
0.0
 10
-1.3805
 20
-6.5308
 30
0.0
 10
-1.3805
 20
-6.3554
 30
0.0
 10
-1.5228
 20
-6.213
 30
0.0
 10
-1.6983
 20
-6.213
 30
0.0
  0
SPLINE
  5
E7
330
1F
100
AcDbEntity
  8
VRSTVA_1
 62
   250
100
AcDbSpline
210
0.0
220
0.0
230
1.0
 70
    11
 71
     3
 72
    20
 73
    16
 74
     0
 42
0.0000000001
 43
0.0000000001
 40
0.0
 40
0.0
 40
0.0
 40
0.0
 40
0.2
 40
0.2
 40
0.2
 40
0.2
 40
0.4
 40
0.4
 40
0.4
 40
0.4
 40
0.6
 40
0.6
 40
0.6
 40
0.6
 40
1.0
 40
1.0
 40
1.0
 40
1.0
 10
-1.6983
 20
-7.4533
 30
0.0
 10
-1.8739
 20
-7.4533
 30
0.0
 10
-2.0161
 20
-7.5956
 30
0.0
 10
-2.0161
 20
-7.7712
 30
0.0
 10
-2.0161
 20
-7.7712
 30
0.0
 10
-2.0161
 20
-7.9467
 30
0.0
 10
-1.8739
 20
-8.0891
 30
0.0
 10
-1.6983
 20
-8.0891
 30
0.0
 10
-1.6983
 20
-8.0891
 30
0.0
 10
-1.5228
 20
-8.0891
 30
0.0
 10
-1.3805
 20
-7.9467
 30
0.0
 10
-1.3805
 20
-7.7712
 30
0.0
 10
-1.3805
 20
-7.7712
 30
0.0
 10
-1.3805
 20
-7.5956
 30
0.0
 10
-1.5228
 20
-7.4533
 30
0.0
 10
-1.6983
 20
-7.4533
 30
0.0
  0
SPLINE
  5
E8
330
1F
100
AcDbEntity
  8
VRSTVA_1
 62
   250
100
AcDbSpline
210
0.0
220
0.0
230
1.0
 70
    11
 71
     3
 72
    20
 73
    16
 74
     0
 42
0.0000000001
 43
0.0000000001
 40
0.0
 40
0.0
 40
0.0
 40
0.0
 40
0.2
 40
0.2
 40
0.2
 40
0.2
 40
0.4
 40
0.4
 40
0.4
 40
0.4
 40
0.6
 40
0.6
 40
0.6
 40
0.6
 40
1.0
 40
1.0
 40
1.0
 40
1.0
 10
-1.6983
 20
-8.6937
 30
0.0
 10
-1.8739
 20
-8.6937
 30
0.0
 10
-2.0161
 20
-8.836
 30
0.0
 10
-2.0161
 20
-9.0115
 30
0.0
 10
-2.0161
 20
-9.0115
 30
0.0
 10
-2.0161
 20
-9.187
 30
0.0
 10
-1.8739
 20
-9.3294
 30
0.0
 10
-1.6983
 20
-9.3294
 30
0.0
 10
-1.6983
 20
-9.3294
 30
0.0
 10
-1.5228
 20
-9.3294
 30
0.0
 10
-1.3805
 20
-9.187
 30
0.0
 10
-1.3805
 20
-9.0115
 30
0.0
 10
-1.3805
 20
-9.0115
 30
0.0
 10
-1.3805
 20
-8.836
 30
0.0
 10
-1.5228
 20
-8.6937
 30
0.0
 10
-1.6983
 20
-8.6937
 30
0.0
  0
SPLINE
  5
E9
330
1F
100
AcDbEntity
  8
VRSTVA_1
 62
   250
100
AcDbSpline
210
0.0
220
0.0
230
1.0
 70
    11
 71
     3
 72
    24
 73
    20
 74
     0
 42
0.0000000001
 43
0.0000000001
 40
0.0
 40
0.0
 40
0.0
 40
0.0
 40
0.1666666666666667
 40
0.1666666666666667
 40
0.1666666666666667
 40
0.1666666666666667
 40
0.3333333333333333
 40
0.3333333333333333
 40
0.3333333333333333
 40
0.3333333333333333
 40
0.5
 40
0.5
 40
0.5
 40
0.5
 40
0.6666666666666666
 40
0.6666666666666666
 40
0.6666666666666666
 40
0.6666666666666666
 40
1.0
 40
1.0
 40
1.0
 40
1.0
 10
-1.6983
 20
-9.934
 30
0.0
 10
-1.8739
 20
-9.934
 30
0.0
 10
-2.0161
 20
-10.0763
 30
0.0
 10
-2.0161
 20
-10.2519
 30
0.0
 10
-2.0161
 20
-10.2519
 30
0.0
 10
-2.0161
 20
-10.4274
 30
0.0
 10
-1.8739
 20
-10.5697
 30
0.0
 10
-1.6983
 20
-10.5697
 30
0.0
 10
-1.6983
 20
-10.5697
 30
0.0
 10
-1.6765
 20
-10.5697
 30
0.0
 10
-1.6549
 20
-10.5676
 30
0.0
 10
-1.6344
 20
-10.5634
 30
0.0
 10
-1.6344
 20
-10.5634
 30
0.0
 10
-1.4894
 20
-10.5337
 30
0.0
 10
-1.3805
 20
-10.4054
 30
0.0
 10
-1.3805
 20
-10.2519
 30
0.0
 10
-1.3805
 20
-10.2519
 30
0.0
 10
-1.3805
 20
-10.0763
 30
0.0
 10
-1.5228
 20
-9.934
 30
0.0
 10
-1.6983
 20
-9.934
 30
0.0
  0
SPLINE
  5
EA
330
1F
100
AcDbEntity
  8
VRSTVA_1
 62
   250
100
AcDbSpline
210
0.0
220
0.0
230
1.0
 70
    11
 71
     3
 72
    20
 73
    16
 74
     0
 42
0.0000000001
 43
0.0000000001
 40
0.0
 40
0.0
 40
0.0
 40
0.0
 40
0.2
 40
0.2
 40
0.2
 40
0.2
 40
0.4
 40
0.4
 40
0.4
 40
0.4
 40
0.6
 40
0.6
 40
0.6
 40
0.6
 40
1.0
 40
1.0
 40
1.0
 40
1.0
 10
-1.6983
 20
-11.1744
 30
0.0
 10
-1.8739
 20
-11.1744
 30
0.0
 10
-2.0161
 20
-11.3167
 30
0.0
 10
-2.0161
 20
-11.4922
 30
0.0
 10
-2.0161
 20
-11.4922
 30
0.0
 10
-2.0161
 20
-11.6678
 30
0.0
 10
-1.8739
 20
-11.8101
 30
0.0
 10
-1.6983
 20
-11.8101
 30
0.0
 10
-1.6983
 20
-11.8101
 30
0.0
 10
-1.5228
 20
-11.8101
 30
0.0
 10
-1.3805
 20
-11.6678
 30
0.0
 10
-1.3805
 20
-11.4922
 30
0.0
 10
-1.3805
 20
-11.4922
 30
0.0
 10
-1.3805
 20
-11.3167
 30
0.0
 10
-1.5228
 20
-11.1744
 30
0.0
 10
-1.6983
 20
-11.1744
 30
0.0
  0
SPLINE
  5
EB
330
1F
100
AcDbEntity
  8
VRSTVA_1
 62
   250
100
AcDbSpline
210
0.0
220
0.0
230
1.0
 70
    11
 71
     3
 72
    20
 73
    16
 74
     0
 42
0.0000000001
 43
0.0000000001
 40
0.0
 40
0.0
 40
0.0
 40
0.0
 40
0.2
 40
0.2
 40
0.2
 40
0.2
 40
0.4
 40
0.4
 40
0.4
 40
0.4
 40
0.6
 40
0.6
 40
0.6
 40
0.6
 40
1.0
 40
1.0
 40
1.0
 40
1.0
 10
-1.6983
 20
-12.4146
 30
0.0
 10
-1.8739
 20
-12.4146
 30
0.0
 10
-2.0161
 20
-12.557
 30
0.0
 10
-2.0161
 20
-12.7325
 30
0.0
 10
-2.0161
 20
-12.7325
 30
0.0
 10
-2.0161
 20
-12.908
 30
0.0
 10
-1.8739
 20
-13.0504
 30
0.0
 10
-1.6983
 20
-13.0504
 30
0.0
 10
-1.6983
 20
-13.0504
 30
0.0
 10
-1.5228
 20
-13.0504
 30
0.0
 10
-1.3805
 20
-12.908
 30
0.0
 10
-1.3805
 20
-12.7325
 30
0.0
 10
-1.3805
 20
-12.7325
 30
0.0
 10
-1.3805
 20
-12.557
 30
0.0
 10
-1.5228
 20
-12.4146
 30
0.0
 10
-1.6983
 20
-12.4146
 30
0.0
  0
SPLINE
  5
EC
330
1F
100
AcDbEntity
  8
VRSTVA_1
 62
   250
100
AcDbSpline
210
0.0
220
0.0
230
1.0
 70
     8
 71
     3
 72
    20
 73
    16
 74
     0
 42
0.0000000001
 43
0.0000000001
 40
0.0
 40
0.0
 40
0.0
 40
0.0
 40
0.2
 40
0.2
 40
0.2
 40
0.2
 40
0.4
 40
0.4
 40
0.4
 40
0.4
 40
0.6
 40
0.6
 40
0.6
 40
0.6
 40
1.0
 40
1.0
 40
1.0
 40
1.0
 10
-1.4854
 20
-1.8054
 30
0.0
 10
-1.3878
 20
-1.7173
 30
0.0
 10
-1.3544
 20
-1.5781
 30
0.0
 10
-1.4016
 20
-1.4554
 30
0.0
 10
-1.4016
 20
-1.4554
 30
0.0
 10
-1.4488
 20
-1.3326
 30
0.0
 10
-1.5668
 20
-1.2515
 30
0.0
 10
-1.6983
 20
-1.2515
 30
0.0
 10
-1.6983
 20
-1.2515
 30
0.0
 10
-1.8299
 20
-1.2515
 30
0.0
 10
-1.9478
 20
-1.3326
 30
0.0
 10
-1.995
 20
-1.4554
 30
0.0
 10
-1.995
 20
-1.4554
 30
0.0
 10
-2.0422
 20
-1.5781
 30
0.0
 10
-2.0089
 20
-1.7173
 30
0.0
 10
-1.9113
 20
-1.8054
 30
0.0
  0
SPLINE
  5
ED
330
1F
100
AcDbEntity
  8
VRSTVA_1
 62
   250
100
AcDbSpline
210
0.0
220
0.0
230
1.0
 70
    11
 71
     3
 72
    20
 73
    16
 74
     0
 42
0.0000000001
 43
0.0000000001
 40
0.0
 40
0.0
 40
0.0
 40
0.0
 40
0.2
 40
0.2
 40
0.2
 40
0.2
 40
0.4
 40
0.4
 40
0.4
 40
0.4
 40
0.6
 40
0.6
 40
0.6
 40
0.6
 40
1.0
 40
1.0
 40
1.0
 40
1.0
 10
10.4106
 20
21.2809
 30
0.0
 10
10.0681
 20
21.2809
 30
0.0
 10
9.7904
 20
21.0033
 30
0.0
 10
9.7904
 20
20.6607
 30
0.0
 10
9.7904
 20
20.6607
 30
0.0
 10
9.7904
 20
20.3182
 30
0.0
 10
10.0681
 20
20.0405
 30
0.0
 10
10.4106
 20
20.0405
 30
0.0
 10
10.4106
 20
20.0405
 30
0.0
 10
10.7532
 20
20.0405
 30
0.0
 10
11.0307
 20
20.3182
 30
0.0
 10
11.0307
 20
20.6607
 30
0.0
 10
11.0307
 20
20.6607
 30
0.0
 10
11.0307
 20
21.0033
 30
0.0
 10
10.7532
 20
21.2809
 30
0.0
 10
10.4106
 20
21.2809
 30
0.0
  0
SPLINE
  5
EE
330
1F
100
AcDbEntity
  8
VRSTVA_1
 62
   250
100
AcDbSpline
210
0.0
220
0.0
230
1.0
 70
     8
 71
     3
 72
    16
 73
    12
 74
     0
 42
0.0000000001
 43
0.0000000001
 40
0.0
 40
0.0
 40
0.0
 40
0.0
 40
0.25
 40
0.25
 40
0.25
 40
0.25
 40
0.5
 40
0.5
 40
0.5
 40
0.5
 40
1.0
 40
1.0
 40
1.0
 40
1.0
 10
10.7207
 20
17.4234
 30
0.0
 10
10.9562
 20
17.4234
 30
0.0
 10
11.1471
 20
17.6143
 30
0.0
 10
11.1471
 20
17.8498
 30
0.0
 10
11.1471
 20
17.8498
 30
0.0
 10
11.1471
 20
18.0853
 30
0.0
 10
10.9562
 20
18.2762
 30
0.0
 10
10.7207
 20
18.2762
 30
0.0
 10
10.7207
 20
18.2762
 30
0.0
 10
10.7207
 20
18.2762
 30
0.0
 10
10.0007
 20
18.2831
 30
0.0
 10
10.0007
 20
18.2831
 30
0.0
  0
SPLINE
  5
EF
330
1F
100
AcDbEntity
  8
VRSTVA_1
 62
   250
100
AcDbSpline
210
0.0
220
0.0
230
1.0
 70
     8
 71
     3
 72
    16
 73
    12
 74
     0
 42
0.0000000001
 43
0.0000000001
 40
0.0
 40
0.0
 40
0.0
 40
0.0
 40
0.25
 40
0.25
 40
0.25
 40
0.25
 40
0.5
 40
0.5
 40
0.5
 40
0.5
 40
1.0
 40
1.0
 40
1.0
 40
1.0
 10
9.3253
 20
19.7372
 30
0.0
 10
9.3253
 20
20.0112
 30
0.0
 10
9.1454
 20
20.2528
 30
0.0
 10
8.8827
 20
20.3313
 30
0.0
 10
8.8827
 20
20.3313
 30
0.0
 10
8.8827
 20
20.3313
 30
0.0
 10
8.2955
 20
20.5295
 30
0.0
 10
8.2955
 20
20.5295
 30
0.0
 10
8.2955
 20
20.5295
 30
0.0
 10
8.2955
 20
20.5295
 30
0.0
 10
8.2861
 20
20.8304
 30
0.0
 10
8.2861
 20
20.8304
 30
0.0
  0
SPLINE
  5
F0
330
1F
100
AcDbEntity
  8
VRSTVA_1
 62
   250
100
AcDbSpline
210
0.0
220
0.0
230
1.0
 70
     8
 71
     3
 72
    20
 73
    16
 74
     0
 42
0.0000000001
 43
0.0000000001
 40
0.0
 40
0.0
 40
0.0
 40
0.0
 40
0.2
 40
0.2
 40
0.2
 40
0.2
 40
0.4
 40
0.4
 40
0.4
 40
0.4
 40
0.6
 40
0.6
 40
0.6
 40
0.6
 40
1.0
 40
1.0
 40
1.0
 40
1.0
 10
12.6546
 20
-1.8054
 30
0.0
 10
12.7523
 20
-1.7173
 30
0.0
 10
12.7856
 20
-1.5781
 30
0.0
 10
12.7384
 20
-1.4554
 30
0.0
 10
12.7384
 20
-1.4554
 30
0.0
 10
12.6912
 20
-1.3326
 30
0.0
 10
12.5733
 20
-1.2515
 30
0.0
 10
12.4417
 20
-1.2515
 30
0.0
 10
12.4417
 20
-1.2515
 30
0.0
 10
12.3102
 20
-1.2515
 30
0.0
 10
12.1922
 20
-1.3326
 30
0.0
 10
12.145
 20
-1.4554
 30
0.0
 10
12.145
 20
-1.4554
 30
0.0
 10
12.0979
 20
-1.5781
 30
0.0
 10
12.1312
 20
-1.7173
 30
0.0
 10
12.2288
 20
-1.8054
 30
0.0
  0
SPLINE
  5
F1
330
1F
100
AcDbEntity
  8
VRSTVA_1
 62
   250
100
AcDbSpline
210
0.0
220
0.0
230
1.0
 70
    11
 71
     3
 72
    20
 73
    16
 74
     0
 42
0.0000000001
 43
0.0000000001
 40
0.0
 40
0.0
 40
0.0
 40
0.0
 40
0.2
 40
0.2
 40
0.2
 40
0.2
 40
0.4
 40
0.4
 40
0.4
 40
0.4
 40
0.6
 40
0.6
 40
0.6
 40
0.6
 40
1.0
 40
1.0
 40
1.0
 40
1.0
 10
12.4417
 20
-0.0112
 30
0.0
 10
12.2662
 20
-0.0112
 30
0.0
 10
12.1238
 20
-0.1536
 30
0.0
 10
12.1238
 20
-0.3291
 30
0.0
 10
12.1238
 20
-0.3291
 30
0.0
 10
12.1238
 20
-0.5046
 30
0.0
 10
12.2662
 20
-0.647
 30
0.0
 10
12.4417
 20
-0.647
 30
0.0
 10
12.4417
 20
-0.647
 30
0.0
 10
12.6173
 20
-0.647
 30
0.0
 10
12.7595
 20
-0.5046
 30
0.0
 10
12.7595
 20
-0.3291
 30
0.0
 10
12.7595
 20
-0.3291
 30
0.0
 10
12.7595
 20
-0.1536
 30
0.0
 10
12.6173
 20
-0.0112
 30
0.0
 10
12.4417
 20
-0.0112
 30
0.0
  0
SPLINE
  5
F2
330
1F
100
AcDbEntity
  8
VRSTVA_1
 62
   250
100
AcDbSpline
210
0.0
220
0.0
230
1.0
 70
    11
 71
     3
 72
    20
 73
    16
 74
     0
 42
0.0000000001
 43
0.0000000001
 40
0.0
 40
0.0
 40
0.0
 40
0.0
 40
0.2
 40
0.2
 40
0.2
 40
0.2
 40
0.4
 40
0.4
 40
0.4
 40
0.4
 40
0.6
 40
0.6
 40
0.6
 40
0.6
 40
1.0
 40
1.0
 40
1.0
 40
1.0
 10
12.4417
 20
1.2292
 30
0.0
 10
12.2662
 20
1.2292
 30
0.0
 10
12.1238
 20
1.0868
 30
0.0
 10
12.1238
 20
0.9112
 30
0.0
 10
12.1238
 20
0.9112
 30
0.0
 10
12.1238
 20
0.7358
 30
0.0
 10
12.2662
 20
0.5934
 30
0.0
 10
12.4417
 20
0.5934
 30
0.0
 10
12.4417
 20
0.5934
 30
0.0
 10
12.6173
 20
0.5934
 30
0.0
 10
12.7595
 20
0.7358
 30
0.0
 10
12.7595
 20
0.9112
 30
0.0
 10
12.7595
 20
0.9112
 30
0.0
 10
12.7595
 20
1.0868
 30
0.0
 10
12.6173
 20
1.2292
 30
0.0
 10
12.4417
 20
1.2292
 30
0.0
  0
SPLINE
  5
F3
330
1F
100
AcDbEntity
  8
VRSTVA_1
 62
   250
100
AcDbSpline
210
0.0
220
0.0
230
1.0
 70
    11
 71
     3
 72
    20
 73
    16
 74
     0
 42
0.0000000001
 43
0.0000000001
 40
0.0
 40
0.0
 40
0.0
 40
0.0
 40
0.2
 40
0.2
 40
0.2
 40
0.2
 40
0.4
 40
0.4
 40
0.4
 40
0.4
 40
0.6
 40
0.6
 40
0.6
 40
0.6
 40
1.0
 40
1.0
 40
1.0
 40
1.0
 10
12.4417
 20
2.4695
 30
0.0
 10
12.2662
 20
2.4695
 30
0.0
 10
12.1238
 20
2.3271
 30
0.0
 10
12.1238
 20
2.1516
 30
0.0
 10
12.1238
 20
2.1516
 30
0.0
 10
12.1238
 20
1.9761
 30
0.0
 10
12.2662
 20
1.8337
 30
0.0
 10
12.4417
 20
1.8337
 30
0.0
 10
12.4417
 20
1.8337
 30
0.0
 10
12.6173
 20
1.8337
 30
0.0
 10
12.7595
 20
1.9761
 30
0.0
 10
12.7595
 20
2.1516
 30
0.0
 10
12.7595
 20
2.1516
 30
0.0
 10
12.7595
 20
2.3271
 30
0.0
 10
12.6173
 20
2.4695
 30
0.0
 10
12.4417
 20
2.4695
 30
0.0
  0
SPLINE
  5
F4
330
1F
100
AcDbEntity
  8
VRSTVA_1
 62
   250
100
AcDbSpline
210
0.0
220
0.0
230
1.0
 70
    11
 71
     3
 72
    20
 73
    16
 74
     0
 42
0.0000000001
 43
0.0000000001
 40
0.0
 40
0.0
 40
0.0
 40
0.0
 40
0.2
 40
0.2
 40
0.2
 40
0.2
 40
0.4
 40
0.4
 40
0.4
 40
0.4
 40
0.6
 40
0.6
 40
0.6
 40
0.6
 40
1.0
 40
1.0
 40
1.0
 40
1.0
 10
12.4417
 20
3.7099
 30
0.0
 10
12.2662
 20
3.7099
 30
0.0
 10
12.1238
 20
3.5675
 30
0.0
 10
12.1238
 20
3.3919
 30
0.0
 10
12.1238
 20
3.3919
 30
0.0
 10
12.1238
 20
3.2165
 30
0.0
 10
12.2662
 20
3.0741
 30
0.0
 10
12.4417
 20
3.0741
 30
0.0
 10
12.4417
 20
3.0741
 30
0.0
 10
12.6173
 20
3.0741
 30
0.0
 10
12.7595
 20
3.2165
 30
0.0
 10
12.7595
 20
3.3919
 30
0.0
 10
12.7595
 20
3.3919
 30
0.0
 10
12.7595
 20
3.5675
 30
0.0
 10
12.6173
 20
3.7099
 30
0.0
 10
12.4417
 20
3.7099
 30
0.0
  0
SPLINE
  5
F5
330
1F
100
AcDbEntity
  8
VRSTVA_1
 62
   250
100
AcDbSpline
210
0.0
220
0.0
230
1.0
 70
    11
 71
     3
 72
    20
 73
    16
 74
     0
 42
0.0000000001
 43
0.0000000001
 40
0.0
 40
0.0
 40
0.0
 40
0.0
 40
0.2
 40
0.2
 40
0.2
 40
0.2
 40
0.4
 40
0.4
 40
0.4
 40
0.4
 40
0.6
 40
0.6
 40
0.6
 40
0.6
 40
1.0
 40
1.0
 40
1.0
 40
1.0
 10
12.4417
 20
4.9502
 30
0.0
 10
12.2662
 20
4.9502
 30
0.0
 10
12.1238
 20
4.8078
 30
0.0
 10
12.1238
 20
4.6323
 30
0.0
 10
12.1238
 20
4.6323
 30
0.0
 10
12.1238
 20
4.4568
 30
0.0
 10
12.2662
 20
4.3144
 30
0.0
 10
12.4417
 20
4.3144
 30
0.0
 10
12.4417
 20
4.3144
 30
0.0
 10
12.6173
 20
4.3144
 30
0.0
 10
12.7595
 20
4.4568
 30
0.0
 10
12.7595
 20
4.6323
 30
0.0
 10
12.7595
 20
4.6323
 30
0.0
 10
12.7595
 20
4.8078
 30
0.0
 10
12.6173
 20
4.9502
 30
0.0
 10
12.4417
 20
4.9502
 30
0.0
  0
SPLINE
  5
F6
330
1F
100
AcDbEntity
  8
VRSTVA_1
 62
   250
100
AcDbSpline
210
0.0
220
0.0
230
1.0
 70
    11
 71
     3
 72
    20
 73
    16
 74
     0
 42
0.0000000001
 43
0.0000000001
 40
0.0
 40
0.0
 40
0.0
 40
0.0
 40
0.2
 40
0.2
 40
0.2
 40
0.2
 40
0.4
 40
0.4
 40
0.4
 40
0.4
 40
0.6
 40
0.6
 40
0.6
 40
0.6
 40
1.0
 40
1.0
 40
1.0
 40
1.0
 10
12.4417
 20
6.1905
 30
0.0
 10
12.2662
 20
6.1905
 30
0.0
 10
12.1238
 20
6.0482
 30
0.0
 10
12.1238
 20
5.8726
 30
0.0
 10
12.1238
 20
5.8726
 30
0.0
 10
12.1238
 20
5.6971
 30
0.0
 10
12.2662
 20
5.5548
 30
0.0
 10
12.4417
 20
5.5548
 30
0.0
 10
12.4417
 20
5.5548
 30
0.0
 10
12.6173
 20
5.5548
 30
0.0
 10
12.7595
 20
5.6971
 30
0.0
 10
12.7595
 20
5.8726
 30
0.0
 10
12.7595
 20
5.8726
 30
0.0
 10
12.7595
 20
6.0482
 30
0.0
 10
12.6173
 20
6.1905
 30
0.0
 10
12.4417
 20
6.1905
 30
0.0
  0
SPLINE
  5
F7
330
1F
100
AcDbEntity
  8
VRSTVA_1
 62
   250
100
AcDbSpline
210
0.0
220
0.0
230
1.0
 70
    11
 71
     3
 72
    20
 73
    16
 74
     0
 42
0.0000000001
 43
0.0000000001
 40
0.0
 40
0.0
 40
0.0
 40
0.0
 40
0.2
 40
0.2
 40
0.2
 40
0.2
 40
0.4
 40
0.4
 40
0.4
 40
0.4
 40
0.6
 40
0.6
 40
0.6
 40
0.6
 40
1.0
 40
1.0
 40
1.0
 40
1.0
 10
12.4417
 20
7.4308
 30
0.0
 10
12.2662
 20
7.4308
 30
0.0
 10
12.1238
 20
7.2885
 30
0.0
 10
12.1238
 20
7.113
 30
0.0
 10
12.1238
 20
7.113
 30
0.0
 10
12.1238
 20
6.9375
 30
0.0
 10
12.2662
 20
6.7952
 30
0.0
 10
12.4417
 20
6.7952
 30
0.0
 10
12.4417
 20
6.7952
 30
0.0
 10
12.6173
 20
6.7952
 30
0.0
 10
12.7595
 20
6.9375
 30
0.0
 10
12.7595
 20
7.113
 30
0.0
 10
12.7595
 20
7.113
 30
0.0
 10
12.7595
 20
7.2885
 30
0.0
 10
12.6173
 20
7.4308
 30
0.0
 10
12.4417
 20
7.4308
 30
0.0
  0
SPLINE
  5
F8
330
1F
100
AcDbEntity
  8
VRSTVA_1
 62
   250
100
AcDbSpline
210
0.0
220
0.0
230
1.0
 70
    11
 71
     3
 72
    20
 73
    16
 74
     0
 42
0.0000000001
 43
0.0000000001
 40
0.0
 40
0.0
 40
0.0
 40
0.0
 40
0.2
 40
0.2
 40
0.2
 40
0.2
 40
0.4
 40
0.4
 40
0.4
 40
0.4
 40
0.6
 40
0.6
 40
0.6
 40
0.6
 40
1.0
 40
1.0
 40
1.0
 40
1.0
 10
9.9958
 20
19.6946
 30
0.0
 10
9.6255
 20
19.6946
 30
0.0
 10
9.3253
 20
19.3945
 30
0.0
 10
9.3253
 20
19.0242
 30
0.0
 10
9.3253
 20
19.0242
 30
0.0
 10
9.3253
 20
18.6539
 30
0.0
 10
9.6255
 20
18.3536
 30
0.0
 10
9.9958
 20
18.3536
 30
0.0
 10
9.9958
 20
18.3536
 30
0.0
 10
10.3662
 20
18.3536
 30
0.0
 10
10.6663
 20
18.6539
 30
0.0
 10
10.6663
 20
19.0242
 30
0.0
 10
10.6663
 20
19.0242
 30
0.0
 10
10.6663
 20
19.3945
 30
0.0
 10
10.3662
 20
19.6946
 30
0.0
 10
9.9958
 20
19.6946
 30
0.0
  0
SPLINE
  5
F9
330
1F
100
AcDbEntity
  8
VRSTVA_1
 62
   250
100
AcDbSpline
210
0.0
220
0.0
230
1.0
 70
     8
 71
     3
 72
    20
 73
    16
 74
     0
 42
0.0000000001
 43
0.0000000001
 40
0.0
 40
0.0
 40
0.0
 40
0.0
 40
0.2
 40
0.2
 40
0.2
 40
0.2
 40
0.4
 40
0.4
 40
0.4
 40
0.4
 40
0.6
 40
0.6
 40
0.6
 40
0.6
 40
1.0
 40
1.0
 40
1.0
 40
1.0
 10
-0.9075
 20
20.4467
 30
0.0
 10
-0.9075
 20
20.4467
 30
0.0
 10
-0.0083
 20
20.4467
 30
0.0
 10
-0.0083
 20
20.4467
 30
0.0
 10
-0.0083
 20
20.4467
 30
0.0
 10
-0.0083
 20
20.4467
 30
0.0
 10
-0.0022
 20
19.983
 30
0.0
 10
-0.0022
 20
19.983
 30
0.0
 10
-0.0022
 20
19.983
 30
0.0
 10
-0.0022
 20
19.983
 30
0.0
 10
2.4657
 20
20.6322
 30
0.0
 10
2.4657
 20
20.6322
 30
0.0
 10
2.4657
 20
20.6322
 30
0.0
 10
2.4657
 20
20.6322
 30
0.0
 10
2.4657
 20
20.8136
 30
0.0
 10
2.4657
 20
20.8136
 30
0.0
  0
SPLINE
  5
FA
330
1F
100
AcDbEntity
  8
VRSTVA_1
 62
   250
100
AcDbSpline
210
0.0
220
0.0
230
1.0
 70
     8
 71
     3
 72
    44
 73
    40
 74
     0
 42
0.0000000001
 43
0.0000000001
 40
0.0
 40
0.0
 40
0.0
 40
0.0
 40
0.0909090909090909
 40
0.0909090909090909
 40
0.0909090909090909
 40
0.0909090909090909
 40
0.1818181818181818
 40
0.1818181818181818
 40
0.1818181818181818
 40
0.1818181818181818
 40
0.2727272727272727
 40
0.2727272727272727
 40
0.2727272727272727
 40
0.2727272727272727
 40
0.3636363636363636
 40
0.3636363636363636
 40
0.3636363636363636
 40
0.3636363636363636
 40
0.4545454545454545
 40
0.4545454545454545
 40
0.4545454545454545
 40
0.4545454545454545
 40
0.5454545454545454
 40
0.5454545454545454
 40
0.5454545454545454
 40
0.5454545454545454
 40
0.6363636363636364
 40
0.6363636363636364
 40
0.6363636363636364
 40
0.6363636363636364
 40
0.7272727272727273
 40
0.7272727272727273
 40
0.7272727272727273
 40
0.7272727272727273
 40
0.8181818181818182
 40
0.8181818181818182
 40
0.8181818181818182
 40
0.8181818181818182
 40
1.0
 40
1.0
 40
1.0
 40
1.0
 10
13.198
 20
-1.802
 30
0.0
 10
13.198
 20
-1.802
 30
0.0
 10
13.198
 20
20.8943
 30
0.0
 10
13.198
 20
20.8943
 30
0.0
 10
13.198
 20
20.8943
 30
0.0
 10
13.198
 20
20.8943
 30
0.0
 10
13.198
 20
21.3697
 30
0.0
 10
13.198
 20
21.3697
 30
0.0
 10
13.198
 20
21.3697
 30
0.0
 10
13.198
 20
21.3697
 30
0.0
 10
8.8662
 20
22.6572
 30
0.0
 10
8.8662
 20
22.6572
 30
0.0
 10
8.8662
 20
22.6572
 30
0.0
 10
8.8662
 20
22.6572
 30
0.0
 10
8.7032
 20
22.679
 30
0.0
 10
8.7032
 20
22.679
 30
0.0
 10
8.7032
 20
22.679
 30
0.0
 10
8.7032
 20
22.679
 30
0.0
 10
1.9045
 20
22.667
 30
0.0
 10
1.9045
 20
22.667
 30
0.0
 10
1.9045
 20
22.667
 30
0.0
 10
1.9045
 20
22.667
 30
0.0
 10
-3.8665
 20
20.9676
 30
0.0
 10
-3.8665
 20
20.9676
 30
0.0
 10
-3.8665
 20
20.9676
 30
0.0
 10
-3.8665
 20
20.9676
 30
0.0
 10
-4.051
 20
20.8293
 30
0.0
 10
-4.051
 20
20.8293
 30
0.0
 10
-4.051
 20
20.8293
 30
0.0
 10
-4.051
 20
20.8293
 30
0.0
 10
-4.1432
 20
20.6794
 30
0.0
 10
-4.1432
 20
20.6794
 30
0.0
 10
-4.1432
 20
20.6794
 30
0.0
 10
-4.1432
 20
20.6794
 30
0.0
 10
-4.1663
 20
20.5411
 30
0.0
 10
-4.1663
 20
20.5411
 30
0.0
 10
-4.1663
 20
20.5411
 30
0.0
 10
-4.1663
 20
20.5411
 30
0.0
 10
-4.1547
 20
19.9071
 30
0.0
 10
-4.1547
 20
19.9071
 30
0.0
  0
SPLINE
  5
FB
330
1F
100
AcDbEntity
  8
VRSTVA_1
 62
   250
100
AcDbSpline
210
0.0
220
0.0
230
1.0
 70
     8
 71
     3
 72
    20
 73
    16
 74
     0
 42
0.0000000001
 43
0.0000000001
 40
0.0
 40
0.0
 40
0.0
 40
0.0
 40
0.2
 40
0.2
 40
0.2
 40
0.2
 40
0.4
 40
0.4
 40
0.4
 40
0.4
 40
0.6
 40
0.6
 40
0.6
 40
0.6
 40
1.0
 40
1.0
 40
1.0
 40
1.0
 10
11.6908
 20
15.4429
 30
0.0
 10
11.6908
 20
15.4429
 30
0.0
 10
11.6545
 20
15.4429
 30
0.0
 10
11.6545
 20
15.4429
 30
0.0
 10
11.6545
 20
15.4429
 30
0.0
 10
11.6545
 20
15.4429
 30
0.0
 10
9.1702
 20
15.4429
 30
0.0
 10
9.1702
 20
15.4429
 30
0.0
 10
9.1702
 20
15.4429
 30
0.0
 10
9.1702
 20
15.4429
 30
0.0
 10
9.1734
 20
17.3921
 30
0.0
 10
9.1734
 20
17.3921
 30
0.0
 10
9.1734
 20
17.3921
 30
0.0
 10
9.1734
 20
17.3921
 30
0.0
 10
11.6376
 20
17.4049
 30
0.0
 10
11.6376
 20
17.4049
 30
0.0
  0
SPLINE
  5
FC
330
1F
100
AcDbEntity
  8
VRSTVA_1
 62
   250
100
AcDbSpline
210
0.0
220
0.0
230
1.0
 70
     8
 71
     3
 72
    24
 73
    20
 74
     0
 42
0.0000000001
 43
0.0000000001
 40
0.0
 40
0.0
 40
0.0
 40
0.0
 40
0.1666666666666667
 40
0.1666666666666667
 40
0.1666666666666667
 40
0.1666666666666667
 40
0.3333333333333333
 40
0.3333333333333333
 40
0.3333333333333333
 40
0.3333333333333333
 40
0.5
 40
0.5
 40
0.5
 40
0.5
 40
0.6666666666666666
 40
0.6666666666666666
 40
0.6666666666666666
 40
0.6666666666666666
 40
1.0
 40
1.0
 40
1.0
 40
1.0
 10
2.0382
 20
22.6763
 30
0.0
 10
2.0382
 20
22.6763
 30
0.0
 10
2.0382
 20
20.8158
 30
0.0
 10
2.0382
 20
20.8158
 30
0.0
 10
2.0382
 20
20.8158
 30
0.0
 10
2.0382
 20
20.8158
 30
0.0
 10
8.7326
 20
20.8408
 30
0.0
 10
8.7326
 20
20.8408
 30
0.0
 10
8.7326
 20
20.8408
 30
0.0
 10
8.7326
 20
20.8408
 30
0.0
 10
8.724
 20
22.2112
 30
0.0
 10
8.724
 20
22.2112
 30
0.0
 10
8.724
 20
22.2112
 30
0.0
 10
8.724
 20
22.2112
 30
0.0
 10
8.7239
 20
22.2316
 30
0.0
 10
8.7239
 20
22.2316
 30
0.0
 10
8.7239
 20
22.2316
 30
0.0
 10
8.7239
 20
22.2316
 30
0.0
 10
8.7211
 20
22.6851
 30
0.0
 10
8.7211
 20
22.6851
 30
0.0
  0
SPLINE
  5
FD
330
1F
100
AcDbEntity
  8
VRSTVA_1
 62
   250
100
AcDbSpline
210
0.0
220
0.0
230
1.0
 70
     8
 71
     3
 72
    16
 73
    12
 74
     0
 42
0.0000000001
 43
0.0000000001
 40
0.0
 40
0.0
 40
0.0
 40
0.0
 40
0.25
 40
0.25
 40
0.25
 40
0.25
 40
0.5
 40
0.5
 40
0.5
 40
0.5
 40
1.0
 40
1.0
 40
1.0
 40
1.0
 10
-2.0349
 20
21.0197
 30
0.0
 10
-2.0349
 20
21.0197
 30
0.0
 10
-2.0349
 20
20.4467
 30
0.0
 10
-2.0349
 20
20.4467
 30
0.0
 10
-2.0349
 20
20.4467
 30
0.0
 10
-2.0349
 20
20.4467
 30
0.0
 10
-1.2298
 20
20.4623
 30
0.0
 10
-1.2298
 20
20.4623
 30
0.0
 10
-1.2298
 20
20.4623
 30
0.0
 10
-1.2298
 20
20.4623
 30
0.0
 10
-1.2162
 20
21.2789
 30
0.0
 10
-1.2162
 20
21.2789
 30
0.0
  0
SPLINE
  5
FE
330
1F
100
AcDbEntity
  8
VRSTVA_1
 62
   250
100
AcDbSpline
210
0.0
220
0.0
230
1.0
 70
    11
 71
     3
 72
    80
 73
    76
 74
     0
 42
0.0000000001
 43
0.0000000001
 40
0.0
 40
0.0
 40
0.0
 40
0.0
 40
0.05
 40
0.05
 40
0.05
 40
0.05
 40
0.1
 40
0.1
 40
0.1
 40
0.1
 40
0.15
 40
0.15
 40
0.15
 40
0.15
 40
0.2
 40
0.2
 40
0.2
 40
0.2
 40
0.25
 40
0.25
 40
0.25
 40
0.25
 40
0.3
 40
0.3
 40
0.3
 40
0.3
 40
0.35
 40
0.35
 40
0.35
 40
0.35
 40
0.4
 40
0.4
 40
0.4
 40
0.4
 40
0.45
 40
0.45
 40
0.45
 40
0.45
 40
0.5
 40
0.5
 40
0.5
 40
0.5
 40
0.55
 40
0.55
 40
0.55
 40
0.55
 40
0.6
 40
0.6
 40
0.6
 40
0.6
 40
0.65
 40
0.65
 40
0.65
 40
0.65
 40
0.7
 40
0.7
 40
0.7
 40
0.7
 40
0.75
 40
0.75
 40
0.75
 40
0.75
 40
0.8
 40
0.8
 40
0.8
 40
0.8
 40
0.85
 40
0.85
 40
0.85
 40
0.85
 40
0.9
 40
0.9
 40
0.9
 40
0.9
 40
1.0
 40
1.0
 40
1.0
 40
1.0
 10
-2.2754
 20
9.2837
 30
0.0
 10
-2.2754
 20
9.2837
 30
0.0
 10
-2.2754
 20
-1.2866
 30
0.0
 10
-2.2754
 20
-1.2866
 30
0.0
 10
-2.2754
 20
-1.2866
 30
0.0
 10
-2.2754
 20
-1.2866
 30
0.0
 10
-2.2754
 20
-1.802
 30
0.0
 10
-2.2754
 20
-1.802
 30
0.0
 10
-2.2754
 20
-1.802
 30
0.0
 10
-2.2754
 20
-1.802
 30
0.0
 10
-2.2754
 20
9.2837
 30
0.0
 10
-2.2754
 20
9.2837
 30
0.0
 10
-2.2754
 20
9.2837
 30
0.0
 10
-2.2754
 20
9.2837
 30
0.0
 10
-1.0902
 20
9.2837
 30
0.0
 10
-1.0902
 20
9.2837
 30
0.0
 10
-1.0902
 20
9.2837
 30
0.0
 10
-1.0902
 20
9.2837
 30
0.0
 10
-1.0902
 20
5.1932
 30
0.0
 10
-1.0902
 20
5.1932
 30
0.0
 10
-1.0902
 20
5.1932
 30
0.0
 10
-1.0902
 20
5.1932
 30
0.0
 10
-1.0902
 20
-1.802
 30
0.0
 10
-1.0902
 20
-1.802
 30
0.0
 10
-1.0902
 20
-1.802
 30
0.0
 10
-1.0902
 20
-1.802
 30
0.0
 10
-1.0902
 20
5.1932
 30
0.0
 10
-1.0902
 20
5.1932
 30
0.0
 10
-1.0902
 20
5.1932
 30
0.0
 10
-1.0902
 20
5.1932
 30
0.0
 10
-1.0902
 20
9.2837
 30
0.0
 10
-1.0902
 20
9.2837
 30
0.0
 10
-1.0902
 20
9.2837
 30
0.0
 10
-1.0902
 20
9.2837
 30
0.0
 10
-0.9109
 20
9.2837
 30
0.0
 10
-0.9109
 20
9.2837
 30
0.0
 10
-0.9109
 20
9.2837
 30
0.0
 10
-0.9109
 20
9.2837
 30
0.0
 10
-0.9109
 20
6.1738
 30
0.0
 10
-0.9109
 20
6.1738
 30
0.0
 10
-0.9109
 20
6.1738
 30
0.0
 10
-0.9109
 20
6.1738
 30
0.0
 10
-0.9109
 20
-1.802
 30
0.0
 10
-0.9109
 20
-1.802
 30
0.0
 10
-0.9109
 20
-1.802
 30
0.0
 10
-0.9109
 20
-1.802
 30
0.0
 10
-0.9109
 20
6.1738
 30
0.0
 10
-0.9109
 20
6.1738
 30
0.0
 10
-0.9109
 20
6.1738
 30
0.0
 10
-0.9109
 20
6.1738
 30
0.0
 10
-0.9109
 20
9.2837
 30
0.0
 10
-0.9109
 20
9.2837
 30
0.0
 10
-0.9109
 20
9.2837
 30
0.0
 10
-0.9109
 20
9.2837
 30
0.0
 10
-0.9075
 20
9.2837
 30
0.0
 10
-0.9075
 20
9.2837
 30
0.0
 10
-0.9075
 20
9.2837
 30
0.0
 10
-0.9075
 20
9.2837
 30
0.0
 10
-0.9109
 20
9.2837
 30
0.0
 10
-0.9109
 20
9.2837
 30
0.0
 10
-0.9109
 20
9.2837
 30
0.0
 10
-0.9109
 20
9.2837
 30
0.0
 10
-0.9109
 20
21.296
 30
0.0
 10
-0.9109
 20
21.296
 30
0.0
 10
-0.9109
 20
21.296
 30
0.0
 10
-0.9109
 20
21.296
 30
0.0
 10
-0.9109
 20
9.2837
 30
0.0
 10
-0.9109
 20
9.2837
 30
0.0
 10
-0.9109
 20
9.2837
 30
0.0
 10
-0.9109
 20
9.2837
 30
0.0
 10
-1.0902
 20
9.2837
 30
0.0
 10
-1.0902
 20
9.2837
 30
0.0
 10
-1.0902
 20
9.2837
 30
0.0
 10
-1.0902
 20
9.2837
 30
0.0
 10
-2.2754
 20
9.2837
 30
0.0
 10
-2.2754
 20
9.2837
 30
0.0
  0
SPLINE
  5
FF
330
1F
100
AcDbEntity
  8
VRSTVA_1
 62
   250
100
AcDbSpline
210
0.0
220
0.0
230
1.0
 70
    27
 71
     3
 72
    12
 73
     8
 74
     0
 42
0.0000000001
 43
0.0000000001
 40
0.0
 40
0.0
 40
0.0
 40
0.0
 40
0.3333333333333333
 40
0.3333333333333333
 40
0.3333333333333333
 40
0.3333333333333333
 40
1.0
 40
1.0
 40
1.0
 40
1.0
 10
-2.2754
 20
-5.8332
 30
0.0
 10
-2.2754
 20
-5.8332
 30
0.0
 10
-2.2754
 20
-14.3062
 30
0.0
 10
-2.2754
 20
-14.3062
 30
0.0
 10
-2.2754
 20
-14.3062
 30
0.0
 10
-2.2754
 20
-14.3062
 30
0.0
 10
-2.2754
 20
-5.8332
 30
0.0
 10
-2.2754
 20
-5.8332
 30
0.0
  0
SPLINE
  5
100
330
1F
100
AcDbEntity
  8
VRSTVA_1
 62
   250
100
AcDbSpline
210
0.0
220
0.0
230
1.0
 70
    27
 71
     3
 72
    12
 73
     8
 74
     0
 42
0.0000000001
 43
0.0000000001
 40
0.0
 40
0.0
 40
0.0
 40
0.0
 40
0.3333333333333333
 40
0.3333333333333333
 40
0.3333333333333333
 40
0.3333333333333333
 40
1.0
 40
1.0
 40
1.0
 40
1.0
 10
11.8574
 20
-5.8385
 30
0.0
 10
11.8574
 20
-5.8385
 30
0.0
 10
11.8574
 20
-14.3115
 30
0.0
 10
11.8574
 20
-14.3115
 30
0.0
 10
11.8574
 20
-14.3115
 30
0.0
 10
11.8574
 20
-14.3115
 30
0.0
 10
11.8574
 20
-5.8385
 30
0.0
 10
11.8574
 20
-5.8385
 30
0.0
  0
SPLINE
  5
101
330
1F
100
AcDbEntity
  8
VRSTVA_1
 62
   250
100
AcDbSpline
210
0.0
220
0.0
230
1.0
 70
    27
 71
     3
 72
    12
 73
     8
 74
     0
 42
0.0000000001
 43
0.0000000001
 40
0.0
 40
0.0
 40
0.0
 40
0.0
 40
0.3333333333333333
 40
0.3333333333333333
 40
0.3333333333333333
 40
0.3333333333333333
 40
1.0
 40
1.0
 40
1.0
 40
1.0
 10
13.0426
 20
-5.8385
 30
0.0
 10
13.0426
 20
-5.8385
 30
0.0
 10
13.0426
 20
-14.3115
 30
0.0
 10
13.0426
 20
-14.3115
 30
0.0
 10
13.0426
 20
-14.3115
 30
0.0
 10
13.0426
 20
-14.3115
 30
0.0
 10
13.0426
 20
-5.8385
 30
0.0
 10
13.0426
 20
-5.8385
 30
0.0
  0
SPLINE
  5
102
330
1F
100
AcDbEntity
  8
VRSTVA_1
 62
   250
100
AcDbSpline
210
0.0
220
0.0
230
1.0
 70
    27
 71
     3
 72
    12
 73
     8
 74
     0
 42
0.0000000001
 43
0.0000000001
 40
0.0
 40
0.0
 40
0.0
 40
0.0
 40
0.3333333333333333
 40
0.3333333333333333
 40
0.3333333333333333
 40
0.3333333333333333
 40
1.0
 40
1.0
 40
1.0
 40
1.0
 10
-1.0902
 20
-5.8332
 30
0.0
 10
-1.0902
 20
-5.8332
 30
0.0
 10
-1.0902
 20
-14.3062
 30
0.0
 10
-1.0902
 20
-14.3062
 30
0.0
 10
-1.0902
 20
-14.3062
 30
0.0
 10
-1.0902
 20
-14.3062
 30
0.0
 10
-1.0902
 20
-5.8332
 30
0.0
 10
-1.0902
 20
-5.8332
 30
0.0
  0
SPLINE
  5
103
330
1F
100
AcDbEntity
  8
VRSTVA_1
 62
   250
100
AcDbSpline
210
0.0
220
0.0
230
1.0
 70
    11
 71
     3
 72
    20
 73
    16
 74
     0
 42
0.0000000001
 43
0.0000000001
 40
0.0
 40
0.0
 40
0.0
 40
0.0
 40
0.2
 40
0.2
 40
0.2
 40
0.2
 40
0.4
 40
0.4
 40
0.4
 40
0.4
 40
0.6
 40
0.6
 40
0.6
 40
0.6
 40
1.0
 40
1.0
 40
1.0
 40
1.0
 10
-1.3805
 20
7.113
 30
0.0
 10
-1.3805
 20
7.2885
 30
0.0
 10
-1.5228
 20
7.4308
 30
0.0
 10
-1.6983
 20
7.4308
 30
0.0
 10
-1.6983
 20
7.4308
 30
0.0
 10
-1.8739
 20
7.4308
 30
0.0
 10
-2.0161
 20
7.2885
 30
0.0
 10
-2.0161
 20
7.113
 30
0.0
 10
-2.0161
 20
7.113
 30
0.0
 10
-2.0161
 20
6.9375
 30
0.0
 10
-1.8739
 20
6.7952
 30
0.0
 10
-1.6983
 20
6.7952
 30
0.0
 10
-1.6983
 20
6.7952
 30
0.0
 10
-1.5228
 20
6.7952
 30
0.0
 10
-1.3805
 20
6.9375
 30
0.0
 10
-1.3805
 20
7.113
 30
0.0
  0
SPLINE
  5
104
330
1F
100
AcDbEntity
  8
VRSTVA_1
 62
   250
100
AcDbSpline
210
0.0
220
0.0
230
1.0
 70
    11
 71
     3
 72
    20
 73
    16
 74
     0
 42
0.0000000001
 43
0.0000000001
 40
0.0
 40
0.0
 40
0.0
 40
0.0
 40
0.2
 40
0.2
 40
0.2
 40
0.2
 40
0.4
 40
0.4
 40
0.4
 40
0.4
 40
0.6
 40
0.6
 40
0.6
 40
0.6
 40
1.0
 40
1.0
 40
1.0
 40
1.0
 10
-1.3805
 20
5.8726
 30
0.0
 10
-1.3805
 20
6.0482
 30
0.0
 10
-1.5228
 20
6.1905
 30
0.0
 10
-1.6983
 20
6.1905
 30
0.0
 10
-1.6983
 20
6.1905
 30
0.0
 10
-1.8739
 20
6.1905
 30
0.0
 10
-2.0161
 20
6.0482
 30
0.0
 10
-2.0161
 20
5.8726
 30
0.0
 10
-2.0161
 20
5.8726
 30
0.0
 10
-2.0161
 20
5.6971
 30
0.0
 10
-1.8739
 20
5.5548
 30
0.0
 10
-1.6983
 20
5.5548
 30
0.0
 10
-1.6983
 20
5.5548
 30
0.0
 10
-1.5228
 20
5.5548
 30
0.0
 10
-1.3805
 20
5.6971
 30
0.0
 10
-1.3805
 20
5.8726
 30
0.0
  0
SPLINE
  5
105
330
1F
100
AcDbEntity
  8
VRSTVA_1
 62
   250
100
AcDbSpline
210
0.0
220
0.0
230
1.0
 70
    11
 71
     3
 72
    20
 73
    16
 74
     0
 42
0.0000000001
 43
0.0000000001
 40
0.0
 40
0.0
 40
0.0
 40
0.0
 40
0.2
 40
0.2
 40
0.2
 40
0.2
 40
0.4
 40
0.4
 40
0.4
 40
0.4
 40
0.6
 40
0.6
 40
0.6
 40
0.6
 40
1.0
 40
1.0
 40
1.0
 40
1.0
 10
-1.3805
 20
4.6323
 30
0.0
 10
-1.3805
 20
4.8078
 30
0.0
 10
-1.5228
 20
4.9502
 30
0.0
 10
-1.6983
 20
4.9502
 30
0.0
 10
-1.6983
 20
4.9502
 30
0.0
 10
-1.8739
 20
4.9502
 30
0.0
 10
-2.0161
 20
4.8078
 30
0.0
 10
-2.0161
 20
4.6323
 30
0.0
 10
-2.0161
 20
4.6323
 30
0.0
 10
-2.0161
 20
4.4568
 30
0.0
 10
-1.8739
 20
4.3144
 30
0.0
 10
-1.6983
 20
4.3144
 30
0.0
 10
-1.6983
 20
4.3144
 30
0.0
 10
-1.5228
 20
4.3144
 30
0.0
 10
-1.3805
 20
4.4568
 30
0.0
 10
-1.3805
 20
4.6323
 30
0.0
  0
SPLINE
  5
106
330
1F
100
AcDbEntity
  8
VRSTVA_1
 62
   250
100
AcDbSpline
210
0.0
220
0.0
230
1.0
 70
    11
 71
     3
 72
    28
 73
    24
 74
     0
 42
0.0000000001
 43
0.0000000001
 40
0.0
 40
0.0
 40
0.0
 40
0.0
 40
0.1428571428571428
 40
0.1428571428571428
 40
0.1428571428571428
 40
0.1428571428571428
 40
0.2857142857142857
 40
0.2857142857142857
 40
0.2857142857142857
 40
0.2857142857142857
 40
0.4285714285714285
 40
0.4285714285714285
 40
0.4285714285714285
 40
0.4285714285714285
 40
0.5714285714285714
 40
0.5714285714285714
 40
0.5714285714285714
 40
0.5714285714285714
 40
0.7142857142857143
 40
0.7142857142857143
 40
0.7142857142857143
 40
0.7142857142857143
 40
1.0
 40
1.0
 40
1.0
 40
1.0
 10
-1.3805
 20
3.3919
 30
0.0
 10
-1.3805
 20
3.4302
 30
0.0
 10
-1.3874
 20
3.4666
 30
0.0
 10
-1.3997
 20
3.5006
 30
0.0
 10
-1.3997
 20
3.5006
 30
0.0
 10
-1.4442
 20
3.6225
 30
0.0
 10
-1.561
 20
3.7099
 30
0.0
 10
-1.6983
 20
3.7099
 30
0.0
 10
-1.6983
 20
3.7099
 30
0.0
 10
-1.8739
 20
3.7099
 30
0.0
 10
-2.0161
 20
3.5675
 30
0.0
 10
-2.0161
 20
3.3919
 30
0.0
 10
-2.0161
 20
3.3919
 30
0.0
 10
-2.0161
 20
3.2165
 30
0.0
 10
-1.8739
 20
3.0741
 30
0.0
 10
-1.6983
 20
3.0741
 30
0.0
 10
-1.6983
 20
3.0741
 30
0.0
 10
-1.602
 20
3.0741
 30
0.0
 10
-1.5159
 20
3.1169
 30
0.0
 10
-1.4575
 20
3.1846
 30
0.0
 10
-1.4575
 20
3.1846
 30
0.0
 10
-1.4097
 20
3.2403
 30
0.0
 10
-1.3805
 20
3.3129
 30
0.0
 10
-1.3805
 20
3.3919
 30
0.0
  0
SPLINE
  5
107
330
1F
100
AcDbEntity
  8
VRSTVA_1
 62
   250
100
AcDbSpline
210
0.0
220
0.0
230
1.0
 70
    11
 71
     3
 72
    28
 73
    24
 74
     0
 42
0.0000000001
 43
0.0000000001
 40
0.0
 40
0.0
 40
0.0
 40
0.0
 40
0.1428571428571428
 40
0.1428571428571428
 40
0.1428571428571428
 40
0.1428571428571428
 40
0.2857142857142857
 40
0.2857142857142857
 40
0.2857142857142857
 40
0.2857142857142857
 40
0.4285714285714285
 40
0.4285714285714285
 40
0.4285714285714285
 40
0.4285714285714285
 40
0.5714285714285714
 40
0.5714285714285714
 40
0.5714285714285714
 40
0.5714285714285714
 40
0.7142857142857143
 40
0.7142857142857143
 40
0.7142857142857143
 40
0.7142857142857143
 40
1.0
 40
1.0
 40
1.0
 40
1.0
 10
-1.3805
 20
2.1516
 30
0.0
 10
-1.3805
 20
2.2897
 30
0.0
 10
-1.4688
 20
2.407
 30
0.0
 10
-1.5918
 20
2.4509
 30
0.0
 10
-1.5918
 20
2.4509
 30
0.0
 10
-1.6252
 20
2.4628
 30
0.0
 10
-1.6609
 20
2.4695
 30
0.0
 10
-1.6983
 20
2.4695
 30
0.0
 10
-1.6983
 20
2.4695
 30
0.0
 10
-1.8739
 20
2.4695
 30
0.0
 10
-2.0161
 20
2.3271
 30
0.0
 10
-2.0161
 20
2.1516
 30
0.0
 10
-2.0161
 20
2.1516
 30
0.0
 10
-2.0161
 20
1.9783
 30
0.0
 10
-1.8773
 20
1.837
 30
0.0
 10
-1.7046
 20
1.8337
 30
0.0
 10
-1.7046
 20
1.8337
 30
0.0
 10
-1.7025
 20
1.8337
 30
0.0
 10
-1.7005
 20
1.8337
 30
0.0
 10
-1.6983
 20
1.8337
 30
0.0
 10
-1.6983
 20
1.8337
 30
0.0
 10
-1.5228
 20
1.8337
 30
0.0
 10
-1.3805
 20
1.9761
 30
0.0
 10
-1.3805
 20
2.1516
 30
0.0
  0
SPLINE
  5
108
330
1F
100
AcDbEntity
  8
VRSTVA_1
 62
   250
100
AcDbSpline
210
0.0
220
0.0
230
1.0
 70
    11
 71
     3
 72
    28
 73
    24
 74
     0
 42
0.0000000001
 43
0.0000000001
 40
0.0
 40
0.0
 40
0.0
 40
0.0
 40
0.1428571428571428
 40
0.1428571428571428
 40
0.1428571428571428
 40
0.1428571428571428
 40
0.2857142857142857
 40
0.2857142857142857
 40
0.2857142857142857
 40
0.2857142857142857
 40
0.4285714285714285
 40
0.4285714285714285
 40
0.4285714285714285
 40
0.4285714285714285
 40
0.5714285714285714
 40
0.5714285714285714
 40
0.5714285714285714
 40
0.5714285714285714
 40
0.7142857142857143
 40
0.7142857142857143
 40
0.7142857142857143
 40
0.7142857142857143
 40
1.0
 40
1.0
 40
1.0
 40
1.0
 10
-1.3805
 20
0.9112
 30
0.0
 10
-1.3805
 20
1.0868
 30
0.0
 10
-1.5228
 20
1.2292
 30
0.0
 10
-1.6983
 20
1.2292
 30
0.0
 10
-1.6983
 20
1.2292
 30
0.0
 10
-1.7412
 20
1.2292
 30
0.0
 10
-1.7823
 20
1.2206
 30
0.0
 10
-1.8196
 20
1.2052
 30
0.0
 10
-1.8196
 20
1.2052
 30
0.0
 10
-1.9351
 20
1.1575
 30
0.0
 10
-2.0161
 20
1.0439
 30
0.0
 10
-2.0161
 20
0.9112
 30
0.0
 10
-2.0161
 20
0.9112
 30
0.0
 10
-2.0161
 20
0.8198
 30
0.0
 10
-1.9776
 20
0.7372
 30
0.0
 10
-1.9158
 20
0.6792
 30
0.0
 10
-1.9158
 20
0.6792
 30
0.0
 10
-1.859
 20
0.6258
 30
0.0
 10
-1.7824
 20
0.5934
 30
0.0
 10
-1.6983
 20
0.5934
 30
0.0
 10
-1.6983
 20
0.5934
 30
0.0
 10
-1.5228
 20
0.5934
 30
0.0
 10
-1.3805
 20
0.7358
 30
0.0
 10
-1.3805
 20
0.9112
 30
0.0
  0
SPLINE
  5
109
330
1F
100
AcDbEntity
  8
VRSTVA_1
 62
   250
100
AcDbSpline
210
0.0
220
0.0
230
1.0
 70
    11
 71
     3
 72
    20
 73
    16
 74
     0
 42
0.0000000001
 43
0.0000000001
 40
0.0
 40
0.0
 40
0.0
 40
0.0
 40
0.2
 40
0.2
 40
0.2
 40
0.2
 40
0.4
 40
0.4
 40
0.4
 40
0.4
 40
0.6
 40
0.6
 40
0.6
 40
0.6
 40
1.0
 40
1.0
 40
1.0
 40
1.0
 10
-1.3805
 20
-0.3291
 30
0.0
 10
-1.3805
 20
-0.1536
 30
0.0
 10
-1.5228
 20
-0.0112
 30
0.0
 10
-1.6983
 20
-0.0112
 30
0.0
 10
-1.6983
 20
-0.0112
 30
0.0
 10
-1.8739
 20
-0.0112
 30
0.0
 10
-2.0161
 20
-0.1536
 30
0.0
 10
-2.0161
 20
-0.3291
 30
0.0
 10
-2.0161
 20
-0.3291
 30
0.0
 10
-2.0161
 20
-0.5046
 30
0.0
 10
-1.8739
 20
-0.647
 30
0.0
 10
-1.6983
 20
-0.647
 30
0.0
 10
-1.6983
 20
-0.647
 30
0.0
 10
-1.5228
 20
-0.647
 30
0.0
 10
-1.3805
 20
-0.5046
 30
0.0
 10
-1.3805
 20
-0.3291
 30
0.0
  0
SPLINE
  5
10A
330
1F
100
AcDbEntity
  8
VRSTVA_1
 62
   250
100
AcDbSpline
210
0.0
220
0.0
230
1.0
 70
    11
 71
     3
 72
    20
 73
    16
 74
     0
 42
0.0000000001
 43
0.0000000001
 40
0.0
 40
0.0
 40
0.0
 40
0.0
 40
0.2
 40
0.2
 40
0.2
 40
0.2
 40
0.4
 40
0.4
 40
0.4
 40
0.4
 40
0.6
 40
0.6
 40
0.6
 40
0.6
 40
1.0
 40
1.0
 40
1.0
 40
1.0
 10
-1.365
 20
12.5396
 30
0.0
 10
-1.365
 20
12.7151
 30
0.0
 10
-1.5072
 20
12.8574
 30
0.0
 10
-1.6828
 20
12.8574
 30
0.0
 10
-1.6828
 20
12.8574
 30
0.0
 10
-1.8584
 20
12.8574
 30
0.0
 10
-2.0007
 20
12.7151
 30
0.0
 10
-2.0007
 20
12.5396
 30
0.0
 10
-2.0007
 20
12.5396
 30
0.0
 10
-2.0007
 20
12.364
 30
0.0
 10
-1.8584
 20
12.2217
 30
0.0
 10
-1.6828
 20
12.2217
 30
0.0
 10
-1.6828
 20
12.2217
 30
0.0
 10
-1.5072
 20
12.2217
 30
0.0
 10
-1.365
 20
12.364
 30
0.0
 10
-1.365
 20
12.5396
 30
0.0
  0
SPLINE
  5
10B
330
1F
100
AcDbEntity
  8
VRSTVA_1
 62
   250
100
AcDbSpline
210
0.0
220
0.0
230
1.0
 70
    11
 71
     3
 72
    68
 73
    64
 74
     0
 42
0.0000000001
 43
0.0000000001
 40
0.0
 40
0.0
 40
0.0
 40
0.0
 40
0.0588235294117647
 40
0.0588235294117647
 40
0.0588235294117647
 40
0.0588235294117647
 40
0.1176470588235294
 40
0.1176470588235294
 40
0.1176470588235294
 40
0.1176470588235294
 40
0.1764705882352941
 40
0.1764705882352941
 40
0.1764705882352941
 40
0.1764705882352941
 40
0.2352941176470588
 40
0.2352941176470588
 40
0.2352941176470588
 40
0.2352941176470588
 40
0.2941176470588235
 40
0.2941176470588235
 40
0.2941176470588235
 40
0.2941176470588235
 40
0.3529411764705883
 40
0.3529411764705883
 40
0.3529411764705883
 40
0.3529411764705883
 40
0.4117647058823529
 40
0.4117647058823529
 40
0.4117647058823529
 40
0.4117647058823529
 40
0.4705882352941176
 40
0.4705882352941176
 40
0.4705882352941176
 40
0.4705882352941176
 40
0.5294117647058824
 40
0.5294117647058824
 40
0.5294117647058824
 40
0.5294117647058824
 40
0.5882352941176471
 40
0.5882352941176471
 40
0.5882352941176471
 40
0.5882352941176471
 40
0.6470588235294118
 40
0.6470588235294118
 40
0.6470588235294118
 40
0.6470588235294118
 40
0.7058823529411765
 40
0.7058823529411765
 40
0.7058823529411765
 40
0.7058823529411765
 40
0.7647058823529411
 40
0.7647058823529411
 40
0.7647058823529411
 40
0.7647058823529411
 40
0.8235294117647058
 40
0.8235294117647058
 40
0.8235294117647058
 40
0.8235294117647058
 40
0.8823529411764706
 40
0.8823529411764706
 40
0.8823529411764706
 40
0.8823529411764706
 40
1.0
 40
1.0
 40
1.0
 40
1.0
 10
8.7105
 20
22.2356
 30
0.0
 10
8.7105
 20
22.2356
 30
0.0
 10
8.7239
 20
22.2316
 30
0.0
 10
8.7239
 20
22.2316
 30
0.0
 10
8.7239
 20
22.2316
 30
0.0
 10
8.7239
 20
22.2316
 30
0.0
 10
8.7922
 20
22.2112
 30
0.0
 10
8.7922
 20
22.2112
 30
0.0
 10
8.7922
 20
22.2112
 30
0.0
 10
8.7922
 20
22.2112
 30
0.0
 10
8.724
 20
22.2112
 30
0.0
 10
8.724
 20
22.2112
 30
0.0
 10
8.724
 20
22.2112
 30
0.0
 10
8.724
 20
22.2112
 30
0.0
 10
8.7051
 20
22.2112
 30
0.0
 10
8.7051
 20
22.2112
 30
0.0
 10
8.7051
 20
22.2112
 30
0.0
 10
8.7051
 20
22.2112
 30
0.0
 10
8.724
 20
22.2112
 30
0.0
 10
8.724
 20
22.2112
 30
0.0
 10
8.724
 20
22.2112
 30
0.0
 10
8.724
 20
22.2112
 30
0.0
 10
8.7922
 20
22.2112
 30
0.0
 10
8.7922
 20
22.2112
 30
0.0
 10
8.7922
 20
22.2112
 30
0.0
 10
8.7922
 20
22.2112
 30
0.0
 10
11.8336
 20
21.3021
 30
0.0
 10
11.8336
 20
21.3021
 30
0.0
 10
11.8336
 20
21.3021
 30
0.0
 10
11.8336
 20
21.3021
 30
0.0
 10
11.8336
 20
-1.802
 30
0.0
 10
11.8336
 20
-1.802
 30
0.0
 10
11.8336
 20
-1.802
 30
0.0
 10
11.8336
 20
-1.802
 30
0.0
 10
11.8336
 20
21.3021
 30
0.0
 10
11.8336
 20
21.3021
 30
0.0
 10
11.8336
 20
21.3021
 30
0.0
 10
11.8336
 20
21.3021
 30
0.0
 10
13.198
 20
20.8943
 30
0.0
 10
13.198
 20
20.8943
 30
0.0
 10
13.198
 20
20.8943
 30
0.0
 10
13.198
 20
20.8943
 30
0.0
 10
13.2014
 20
20.8933
 30
0.0
 10
13.2014
 20
20.8933
 30
0.0
 10
13.2014
 20
20.8933
 30
0.0
 10
13.2014
 20
20.8933
 30
0.0
 10
13.198
 20
20.8943
 30
0.0
 10
13.198
 20
20.8943
 30
0.0
 10
13.198
 20
20.8943
 30
0.0
 10
13.198
 20
20.8943
 30
0.0
 10
11.8336
 20
21.3021
 30
0.0
 10
11.8336
 20
21.3021
 30
0.0
 10
11.8336
 20
21.3021
 30
0.0
 10
11.8336
 20
21.3021
 30
0.0
 10
8.7922
 20
22.2112
 30
0.0
 10
8.7922
 20
22.2112
 30
0.0
 10
8.7922
 20
22.2112
 30
0.0
 10
8.7922
 20
22.2112
 30
0.0
 10
8.7239
 20
22.2316
 30
0.0
 10
8.7239
 20
22.2316
 30
0.0
 10
8.7239
 20
22.2316
 30
0.0
 10
8.7239
 20
22.2316
 30
0.0
 10
8.7105
 20
22.2356
 30
0.0
 10
8.7105
 20
22.2356
 30
0.0
  0
SPLINE
  5
10C
330
1F
100
AcDbEntity
  8
VRSTVA_1
 62
   250
100
AcDbSpline
210
0.0
220
0.0
230
1.0
 70
    27
 71
     3
 72
    12
 73
     8
 74
     0
 42
0.0000000001
 43
0.0000000001
 40
0.0
 40
0.0
 40
0.0
 40
0.0
 40
0.3333333333333333
 40
0.3333333333333333
 40
0.3333333333333333
 40
0.3333333333333333
 40
1.0
 40
1.0
 40
1.0
 40
1.0
 10
-4.1635
 20
20.4467
 30
0.0
 10
-4.1635
 20
20.4467
 30
0.0
 10
-2.458
 20
20.4467
 30
0.0
 10
-2.458
 20
20.4467
 30
0.0
 10
-2.458
 20
20.4467
 30
0.0
 10
-2.458
 20
20.4467
 30
0.0
 10
-4.1635
 20
20.4467
 30
0.0
 10
-4.1635
 20
20.4467
 30
0.0
  0
SPLINE
  5
10D
330
1F
100
AcDbEntity
  8
VRSTVA_1
 62
   250
100
AcDbSpline
210
0.0
220
0.0
230
1.0
 70
    27
 71
     3
 72
    12
 73
     8
 74
     0
 42
0.0000000001
 43
0.0000000001
 40
0.0
 40
0.0
 40
0.0
 40
0.0
 40
0.3333333333333333
 40
0.3333333333333333
 40
0.3333333333333333
 40
0.3333333333333333
 40
1.0
 40
1.0
 40
1.0
 40
1.0
 10
13.0188
 20
20.9478
 30
0.0
 10
13.0188
 20
20.9478
 30
0.0
 10
13.0188
 20
-1.802
 30
0.0
 10
13.0188
 20
-1.802
 30
0.0
 10
13.0188
 20
-1.802
 30
0.0
 10
13.0188
 20
-1.802
 30
0.0
 10
13.0188
 20
20.9478
 30
0.0
 10
13.0188
 20
20.9478
 30
0.0
  0
SPLINE
  5
10E
330
1F
100
AcDbEntity
  8
VRSTVA_1
 62
   250
100
AcDbSpline
210
0.0
220
0.0
230
1.0
 70
    27
 71
     3
 72
    28
 73
    24
 74
     0
 42
0.0000000001
 43
0.0000000001
 40
0.0
 40
0.0
 40
0.0
 40
0.0
 40
0.1428571428571428
 40
0.1428571428571428
 40
0.1428571428571428
 40
0.1428571428571428
 40
0.2857142857142857
 40
0.2857142857142857
 40
0.2857142857142857
 40
0.2857142857142857
 40
0.4285714285714285
 40
0.4285714285714285
 40
0.4285714285714285
 40
0.4285714285714285
 40
0.5714285714285714
 40
0.5714285714285714
 40
0.5714285714285714
 40
0.5714285714285714
 40
0.7142857142857143
 40
0.7142857142857143
 40
0.7142857142857143
 40
0.7142857142857143
 40
1.0
 40
1.0
 40
1.0
 40
1.0
 10
11.6545
 20
-1.802
 30
0.0
 10
11.6545
 20
-1.802
 30
0.0
 10
11.6545
 20
15.4429
 30
0.0
 10
11.6545
 20
15.4429
 30
0.0
 10
11.6545
 20
15.4429
 30
0.0
 10
11.6545
 20
15.4429
 30
0.0
 10
11.6545
 20
17.1649
 30
0.0
 10
11.6545
 20
17.1649
 30
0.0
 10
11.6545
 20
17.1649
 30
0.0
 10
11.6545
 20
17.1649
 30
0.0
 10
11.6545
 20
21.3054
 30
0.0
 10
11.6545
 20
21.3054
 30
0.0
 10
11.6545
 20
21.3054
 30
0.0
 10
11.6545
 20
21.3054
 30
0.0
 10
11.6545
 20
17.1649
 30
0.0
 10
11.6545
 20
17.1649
 30
0.0
 10
11.6545
 20
17.1649
 30
0.0
 10
11.6545
 20
17.1649
 30
0.0
 10
11.6545
 20
15.4429
 30
0.0
 10
11.6545
 20
15.4429
 30
0.0
 10
11.6545
 20
15.4429
 30
0.0
 10
11.6545
 20
15.4429
 30
0.0
 10
11.6545
 20
-1.802
 30
0.0
 10
11.6545
 20
-1.802
 30
0.0
  0
SPLINE
  5
10F
330
1F
100
AcDbEntity
  8
VRSTVA_1
 62
   250
100
AcDbSpline
210
0.0
220
0.0
230
1.0
 70
    27
 71
     3
 72
    20
 73
    16
 74
     0
 42
0.0000000001
 43
0.0000000001
 40
0.0
 40
0.0
 40
0.0
 40
0.0
 40
0.2
 40
0.2
 40
0.2
 40
0.2
 40
0.4
 40
0.4
 40
0.4
 40
0.4
 40
0.6
 40
0.6
 40
0.6
 40
0.6
 40
1.0
 40
1.0
 40
1.0
 40
1.0
 10
-2.458
 20
9.2837
 30
0.0
 10
-2.458
 20
9.2837
 30
0.0
 10
-2.4544
 20
9.2837
 30
0.0
 10
-2.4544
 20
9.2837
 30
0.0
 10
-2.4544
 20
9.2837
 30
0.0
 10
-2.4544
 20
9.2837
 30
0.0
 10
-2.2754
 20
9.2837
 30
0.0
 10
-2.2754
 20
9.2837
 30
0.0
 10
-2.2754
 20
9.2837
 30
0.0
 10
-2.2754
 20
9.2837
 30
0.0
 10
-2.4544
 20
9.2837
 30
0.0
 10
-2.4544
 20
9.2837
 30
0.0
 10
-2.4544
 20
9.2837
 30
0.0
 10
-2.4544
 20
9.2837
 30
0.0
 10
-2.458
 20
9.2837
 30
0.0
 10
-2.458
 20
9.2837
 30
0.0
  0
SPLINE
  5
110
330
1F
100
AcDbEntity
  8
VRSTVA_1
 62
   250
100
AcDbSpline
210
0.0
220
0.0
230
1.0
 70
    11
 71
     3
 72
    48
 73
    44
 74
     0
 42
0.0000000001
 43
0.0000000001
 40
0.0
 40
0.0
 40
0.0
 40
0.0
 40
0.0833333333333333
 40
0.0833333333333333
 40
0.0833333333333333
 40
0.0833333333333333
 40
0.1666666666666667
 40
0.1666666666666667
 40
0.1666666666666667
 40
0.1666666666666667
 40
0.25
 40
0.25
 40
0.25
 40
0.25
 40
0.3333333333333333
 40
0.3333333333333333
 40
0.3333333333333333
 40
0.3333333333333333
 40
0.4166666666666667
 40
0.4166666666666667
 40
0.4166666666666667
 40
0.4166666666666667
 40
0.5
 40
0.5
 40
0.5
 40
0.5
 40
0.5833333333333334
 40
0.5833333333333334
 40
0.5833333333333334
 40
0.5833333333333334
 40
0.6666666666666666
 40
0.6666666666666666
 40
0.6666666666666666
 40
0.6666666666666666
 40
0.75
 40
0.75
 40
0.75
 40
0.75
 40
0.8333333333333334
 40
0.8333333333333334
 40
0.8333333333333334
 40
0.8333333333333334
 40
1.0
 40
1.0
 40
1.0
 40
1.0
 10
8.6992
 20
28.083
 30
0.0
 10
8.6992
 20
28.083
 30
0.0
 10
1.5958
 20
28.083
 30
0.0
 10
1.5958
 20
28.083
 30
0.0
 10
1.5958
 20
28.083
 30
0.0
 10
1.5958
 20
28.083
 30
0.0
 10
1.6205
 20
28.2639
 30
0.0
 10
1.6205
 20
28.2639
 30
0.0
 10
1.6205
 20
28.2639
 30
0.0
 10
1.6205
 20
28.2639
 30
0.0
 10
1.6944
 20
28.3872
 30
0.0
 10
1.6944
 20
28.3872
 30
0.0
 10
1.6944
 20
28.3872
 30
0.0
 10
1.6944
 20
28.3872
 30
0.0
 10
1.8918
 20
28.5023
 30
0.0
 10
1.8918
 20
28.5023
 30
0.0
 10
1.8918
 20
28.5023
 30
0.0
 10
1.8918
 20
28.5023
 30
0.0
 10
2.6873
 20
28.656
 30
0.0
 10
2.6873
 20
28.656
 30
0.0
 10
2.6873
 20
28.656
 30
0.0
 10
4.3693
 20
28.8401
 30
0.0
 10
6.4548
 20
28.8523
 30
0.0
 10
8.1368
 20
28.6681
 30
0.0
 10
8.1368
 20
28.6681
 30
0.0
 10
8.1368
 20
28.6681
 30
0.0
 10
8.8903
 20
28.5207
 30
0.0
 10
8.8903
 20
28.5207
 30
0.0
 10
8.8903
 20
28.5207
 30
0.0
 10
8.8903
 20
28.5207
 30
0.0
 10
9.0736
 20
28.3941
 30
0.0
 10
9.0736
 20
28.3941
 30
0.0
 10
9.0736
 20
28.3941
 30
0.0
 10
9.0736
 20
28.3941
 30
0.0
 10
9.1557
 20
28.2484
 30
0.0
 10
9.1557
 20
28.2484
 30
0.0
 10
9.1557
 20
28.2484
 30
0.0
 10
9.1557
 20
28.2484
 30
0.0
 10
9.1557
 20
28.1028
 30
0.0
 10
9.1557
 20
28.1028
 30
0.0
 10
9.1557
 20
28.1028
 30
0.0
 10
9.1557
 20
28.1028
 30
0.0
 10
8.6992
 20
28.083
 30
0.0
 10
8.6992
 20
28.083
 30
0.0
  0
SPLINE
  5
111
330
1F
100
AcDbEntity
  8
VRSTVA_1
 62
   250
100
AcDbSpline
210
0.0
220
0.0
230
1.0
 70
     8
 71
     3
 72
    52
 73
    48
 74
     0
 42
0.0000000001
 43
0.0000000001
 40
0.0
 40
0.0
 40
0.0
 40
0.0
 40
0.0769230769230769
 40
0.0769230769230769
 40
0.0769230769230769
 40
0.0769230769230769
 40
0.1538461538461539
 40
0.1538461538461539
 40
0.1538461538461539
 40
0.1538461538461539
 40
0.2307692307692308
 40
0.2307692307692308
 40
0.2307692307692308
 40
0.2307692307692308
 40
0.3076923076923077
 40
0.3076923076923077
 40
0.3076923076923077
 40
0.3076923076923077
 40
0.3846153846153846
 40
0.3846153846153846
 40
0.3846153846153846
 40
0.3846153846153846
 40
0.4615384615384616
 40
0.4615384615384616
 40
0.4615384615384616
 40
0.4615384615384616
 40
0.5384615384615384
 40
0.5384615384615384
 40
0.5384615384615384
 40
0.5384615384615384
 40
0.6153846153846154
 40
0.6153846153846154
 40
0.6153846153846154
 40
0.6153846153846154
 40
0.6923076923076923
 40
0.6923076923076923
 40
0.6923076923076923
 40
0.6923076923076923
 40
0.7692307692307693
 40
0.7692307692307693
 40
0.7692307692307693
 40
0.7692307692307693
 40
0.8461538461538461
 40
0.8461538461538461
 40
0.8461538461538461
 40
0.8461538461538461
 40
1.0
 40
1.0
 40
1.0
 40
1.0
 10
2.4468
 20
28.1088
 30
0.0
 10
2.4468
 20
28.1088
 30
0.0
 10
2.5319
 20
25.2617
 30
0.0
 10
2.5319
 20
25.2617
 30
0.0
 10
2.5319
 20
25.2617
 30
0.0
 10
2.5319
 20
25.2617
 30
0.0
 10
2.5366
 20
25.2278
 30
0.0
 10
2.5366
 20
25.2278
 30
0.0
 10
2.5366
 20
25.2278
 30
0.0
 10
2.5366
 20
25.2278
 30
0.0
 10
2.5486
 20
25.1958
 30
0.0
 10
2.5486
 20
25.1958
 30
0.0
 10
2.5486
 20
25.1958
 30
0.0
 10
2.5486
 20
25.1958
 30
0.0
 10
2.5674
 20
25.167
 30
0.0
 10
2.5674
 20
25.167
 30
0.0
 10
2.5674
 20
25.167
 30
0.0
 10
2.5674
 20
25.167
 30
0.0
 10
2.592
 20
25.1432
 30
0.0
 10
2.592
 20
25.1432
 30
0.0
 10
2.592
 20
25.1432
 30
0.0
 10
2.592
 20
25.1432
 30
0.0
 10
2.6214
 20
25.1253
 30
0.0
 10
2.6214
 20
25.1253
 30
0.0
 10
2.6214
 20
25.1253
 30
0.0
 10
2.6214
 20
25.1253
 30
0.0
 10
2.6538
 20
25.1142
 30
0.0
 10
2.6538
 20
25.1142
 30
0.0
 10
2.6538
 20
25.1142
 30
0.0
 10
2.6538
 20
25.1142
 30
0.0
 10
2.6879
 20
25.1105
 30
0.0
 10
2.6879
 20
25.1105
 30
0.0
 10
2.6879
 20
25.1105
 30
0.0
 10
2.6879
 20
25.1105
 30
0.0
 10
8.1069
 20
25.1066
 30
0.0
 10
8.1069
 20
25.1066
 30
0.0
 10
8.1069
 20
25.1066
 30
0.0
 10
8.1069
 20
25.1066
 30
0.0
 10
8.2091
 20
25.1322
 30
0.0
 10
8.2091
 20
25.1322
 30
0.0
 10
8.2091
 20
25.1322
 30
0.0
 10
8.2091
 20
25.1322
 30
0.0
 10
8.2686
 20
25.2686
 30
0.0
 10
8.2686
 20
25.2686
 30
0.0
 10
8.2686
 20
25.2686
 30
0.0
 10
8.2686
 20
25.2686
 30
0.0
 10
8.3282
 20
28.0917
 30
0.0
 10
8.3282
 20
28.0917
 30
0.0
  0
SPLINE
  5
112
330
1F
100
AcDbEntity
  8
VRSTVA_1
 62
   250
100
AcDbSpline
210
0.0
220
0.0
230
1.0
 70
    27
 71
     3
 72
    12
 73
     8
 74
     0
 42
0.0000000001
 43
0.0000000001
 40
0.0
 40
0.0
 40
0.0
 40
0.0
 40
0.3333333333333333
 40
0.3333333333333333
 40
0.3333333333333333
 40
0.3333333333333333
 40
1.0
 40
1.0
 40
1.0
 40
1.0
 10
3.9918
 20
25.0983
 30
0.0
 10
3.9918
 20
25.0983
 30
0.0
 10
3.9918
 20
22.6763
 30
0.0
 10
3.9918
 20
22.6763
 30
0.0
 10
3.9918
 20
22.6763
 30
0.0
 10
3.9918
 20
22.6763
 30
0.0
 10
3.9918
 20
25.0983
 30
0.0
 10
3.9918
 20
25.0983
 30
0.0
  0
SPLINE
  5
113
330
1F
100
AcDbEntity
  8
VRSTVA_1
 62
   250
100
AcDbSpline
210
0.0
220
0.0
230
1.0
 70
    27
 71
     3
 72
    12
 73
     8
 74
     0
 42
0.0000000001
 43
0.0000000001
 40
0.0
 40
0.0
 40
0.0
 40
0.0
 40
0.3333333333333333
 40
0.3333333333333333
 40
0.3333333333333333
 40
0.3333333333333333
 40
1.0
 40
1.0
 40
1.0
 40
1.0
 10
1.8955
 20
28.499
 30
0.0
 10
1.8955
 20
28.499
 30
0.0
 10
8.879
 20
28.499
 30
0.0
 10
8.879
 20
28.499
 30
0.0
 10
8.879
 20
28.499
 30
0.0
 10
8.879
 20
28.499
 30
0.0
 10
1.8955
 20
28.499
 30
0.0
 10
1.8955
 20
28.499
 30
0.0
  0
SPLINE
  5
114
330
1F
100
AcDbEntity
  8
VRSTVA_1
 62
   250
100
AcDbSpline
210
0.0
220
0.0
230
1.0
 70
    27
 71
     3
 72
    12
 73
     8
 74
     0
 42
0.0000000001
 43
0.0000000001
 40
0.0
 40
0.0
 40
0.0
 40
0.0
 40
0.3333333333333333
 40
0.3333333333333333
 40
0.3333333333333333
 40
0.3333333333333333
 40
1.0
 40
1.0
 40
1.0
 40
1.0
 10
6.7826
 20
25.1643
 30
0.0
 10
6.7826
 20
25.1643
 30
0.0
 10
6.7826
 20
22.6763
 30
0.0
 10
6.7826
 20
22.6763
 30
0.0
 10
6.7826
 20
22.6763
 30
0.0
 10
6.7826
 20
22.6763
 30
0.0
 10
6.7826
 20
25.1643
 30
0.0
 10
6.7826
 20
25.1643
 30
0.0
  0
SPLINE
  5
115
330
1F
100
AcDbEntity
  8
VRSTVA_1
 62
   250
100
AcDbSpline
210
0.0
220
0.0
230
1.0
 70
    27
 71
     3
 72
    12
 73
     8
 74
     0
 42
0.0000000001
 43
0.0000000001
 40
0.0
 40
0.0
 40
0.0
 40
0.0
 40
0.3333333333333333
 40
0.3333333333333333
 40
0.3333333333333333
 40
0.3333333333333333
 40
1.0
 40
1.0
 40
1.0
 40
1.0
 10
6.5164
 20
25.1643
 30
0.0
 10
6.5164
 20
25.1643
 30
0.0
 10
6.5164
 20
22.6763
 30
0.0
 10
6.5164
 20
22.6763
 30
0.0
 10
6.5164
 20
22.6763
 30
0.0
 10
6.5164
 20
22.6763
 30
0.0
 10
6.5164
 20
25.1643
 30
0.0
 10
6.5164
 20
25.1643
 30
0.0
  0
SPLINE
  5
116
330
1F
100
AcDbEntity
  8
VRSTVA_1
 62
   250
100
AcDbSpline
210
0.0
220
0.0
230
1.0
 70
    27
 71
     3
 72
    12
 73
     8
 74
     0
 42
0.0000000001
 43
0.0000000001
 40
0.0
 40
0.0
 40
0.0
 40
0.0
 40
0.3333333333333333
 40
0.3333333333333333
 40
0.3333333333333333
 40
0.3333333333333333
 40
1.0
 40
1.0
 40
1.0
 40
1.0
 10
5.5323
 20
25.056
 30
0.0
 10
5.5323
 20
25.056
 30
0.0
 10
5.5323
 20
22.6763
 30
0.0
 10
5.5323
 20
22.6763
 30
0.0
 10
5.5323
 20
22.6763
 30
0.0
 10
5.5323
 20
22.6763
 30
0.0
 10
5.5323
 20
25.056
 30
0.0
 10
5.5323
 20
25.056
 30
0.0
  0
SPLINE
  5
117
330
1F
100
AcDbEntity
  8
VRSTVA_1
 62
   250
100
AcDbSpline
210
0.0
220
0.0
230
1.0
 70
    27
 71
     3
 72
    12
 73
     8
 74
     0
 42
0.0000000001
 43
0.0000000001
 40
0.0
 40
0.0
 40
0.0
 40
0.0
 40
0.3333333333333333
 40
0.3333333333333333
 40
0.3333333333333333
 40
0.3333333333333333
 40
1.0
 40
1.0
 40
1.0
 40
1.0
 10
5.242
 20
25.0706
 30
0.0
 10
5.242
 20
25.0706
 30
0.0
 10
5.242
 20
22.6763
 30
0.0
 10
5.242
 20
22.6763
 30
0.0
 10
5.242
 20
22.6763
 30
0.0
 10
5.242
 20
22.6763
 30
0.0
 10
5.242
 20
25.0706
 30
0.0
 10
5.242
 20
25.0706
 30
0.0
  0
SPLINE
  5
118
330
1F
100
AcDbEntity
  8
VRSTVA_1
 62
   250
100
AcDbSpline
210
0.0
220
0.0
230
1.0
 70
    27
 71
     3
 72
    12
 73
     8
 74
     0
 42
0.0000000001
 43
0.0000000001
 40
0.0
 40
0.0
 40
0.0
 40
0.0
 40
0.3333333333333333
 40
0.3333333333333333
 40
0.3333333333333333
 40
0.3333333333333333
 40
1.0
 40
1.0
 40
1.0
 40
1.0
 10
4.2579
 20
22.6763
 30
0.0
 10
4.2579
 20
22.6763
 30
0.0
 10
4.2579
 20
25.0983
 30
0.0
 10
4.2579
 20
25.0983
 30
0.0
 10
4.2579
 20
25.0983
 30
0.0
 10
4.2579
 20
25.0983
 30
0.0
 10
4.2579
 20
22.6763
 30
0.0
 10
4.2579
 20
22.6763
 30
0.0
  0
ENDSEC
  0
SECTION
  2
OBJECTS
  0
DICTIONARY
  5
C
330
0
100
AcDbDictionary
  3
ACAD_GROUP
350
D
  3
ACAD_LAYOUT
350
1A
  3
ACAD_MATERIAL
350
3B
  3
ACAD_MLEADERSTYLE
350
13B
  3
ACAD_MLINESTYLE
350
17
  3
ACAD_PLOTSETTINGS
350
19
  3
ACAD_VISUALSTYLE
350
2A
  3
ACDBHEADERROUNDTRIPXREC
350
119
  3
ACDBVARIABLEDICTIONARY
350
139
  0
DICTIONARY
  5
D
102
{ACAD_REACTORS
330
C
102
}
330
C
100
AcDbDictionary
  0
DICTIONARY
  5
1A
102
{ACAD_REACTORS
330
C
102
}
330
C
100
AcDbDictionary
  0
DICTIONARY
  5
3B
102
{ACAD_REACTORS
330
C
102
}
330
C
100
AcDbDictionary
  3
BYBLOCK
350
3D
  3
BYLAYER
350
3C
  3
GLOBAL
350
3E
  0
DICTIONARY
  5
13B
102
{ACAD_REACTORS
330
C
102
}
330
C
100
AcDbDictionary
  0
DICTIONARY
  5
17
102
{ACAD_REACTORS
330
C
102
}
330
C
100
AcDbDictionary
  3
STANDARD
350
18
  0
DICTIONARY
  5
19
102
{ACAD_REACTORS
330
C
102
}
330
C
100
AcDbDictionary
  0
DICTIONARY
  5
2A
102
{ACAD_REACTORS
330
C
102
}
330
C
100
AcDbDictionary
  3
2DWIREFRAME
350
2F
  3
3D_HIDDEN
350
31
  3
3DWIREFRAME
350
30
  3
BASIC
350
32
  3
BRIGHTEN
350
36
  3
COLORCHANGE
350
3A
  3
CONCEPTUAL
350
34
  3
DIM
350
35
  3
FACEPATTERN
350
39
  3
FLAT
350
2B
  3
FLATWITHEDGES
350
2C
  3
GOURAUD
350
2D
  3
GOURAUDWITHEDGES
350
2E
  3
LINEPATTERN
350
38
  3
REALISTIC
350
33
  3
THICKEN
350
37
  0
DICTIONARY
  5
119
102
{ACAD_REACTORS
330
C
102
}
330
C
100
AcDbDictionary
  3
CEPSNTYPE
350
122
  3
DIMSTYLEDATA
350
138
  3
FINGERPRINTGUID
350
123
  3
HYPERLINKBASE
350
11C
  3
INSUNITS
350
121
  3
LAYOUTDICT
350
11E
  3
LWETCUNION
350
120
  3
PLOTSETDICT
350
11F
  3
PSVPSCALE
350
125
  3
PUCSBASE
350
128
  3
PUCSORGBACK
350
12E
  3
PUCSORGBOTTOM
350
12A
  3
PUCSORGFRONT
350
12D
  3
PUCSORGLEFT
350
12B
  3
PUCSORGRIGHT
350
12C
  3
PUCSORGTOP
350
129
  3
PUCSORTHOREF
350
126
  3
PUCSORTHOVIEW
350
127
  3
STYLESHEET
350
11D
  3
TSTACKALIGN
350
11A
  3
TSTACKSIZE
350
11B
  3
UCSBASE
350
131
  3
UCSORGBACK
350
137
  3
UCSORGBOTTOM
350
133
  3
UCSORGFRONT
350
136
  3
UCSORGLEFT
350
134
  3
UCSORGRIGHT
350
135
  3
UCSORGTOP
350
132
  3
UCSORTHOREF
350
12F
  3
UCSORTHOVIEW
350
130
  3
VERSIONGUID
350
124
  0
DICTIONARY
  5
139
102
{ACAD_REACTORS
330
C
102
}
330
C
100
AcDbDictionary
  3
DIMASSOC
350
13C
  3
HIDETEXT
350
13D
  0
MATERIAL
  5
3D
102
{ACAD_REACTORS
330
3B
102
}
102
{ACAD_XDICTIONARY
360
140
102
}
330
3B
100
AcDbMaterial
  1
ByBlock
  0
MATERIAL
  5
3C
102
{ACAD_REACTORS
330
3B
102
}
102
{ACAD_XDICTIONARY
360
13E
102
}
330
3B
100
AcDbMaterial
  1
ByLayer
  0
MATERIAL
  5
3E
102
{ACAD_REACTORS
330
3B
102
}
102
{ACAD_XDICTIONARY
360
142
102
}
330
3B
100
AcDbMaterial
  1
Global
  0
MLINESTYLE
  5
18
102
{ACAD_REACTORS
330
17
102
}
330
17
100
AcDbMlineStyle
  2
Standard
 70
     0
  3

 62
   256
 51
90.0
 52
90.0
 71
     2
 49
0.5
 62
   256
  6
BYLAYER
 49
-0.5
 62
   256
  6
BYLAYER
  0
ACAD_PROXY_OBJECT
  5
2F
102
{ACAD_REACTORS
330
2A
102
}
330
2A
100
AcDbProxyObject
 90
      499
 91
      501
 93
      436
310
42CC9915DA5C99599C985B595049028333333333333E3BF0000000000000FB0107901411070040501600405405064090741402480A0340
1001
ACAD
1000
AcDbSavedByObjectVersion
1070
     0
  0
ACAD_PROXY_OBJECT
  5
31
102
{ACAD_REACTORS
330
2A
102
}
330
2A
100
AcDbProxyObject
 90
      499
 91
      501
 93
      500
310
424CD108121A5919195B90640502408333333333333E3BF0000000000000FB01079024090700405020000000000001110200405405064090740C02480A0340
1001
ACAD
1000
AcDbSavedByObjectVersion
1070
     0
  0
ACAD_PROXY_OBJECT
  5
30
102
{ACAD_REACTORS
330
2A
102
}
330
2A
100
AcDbProxyObject
 90
      499
 91
      501
 93
      436
310
42CCD915DA5C99599C985B595059028333333333333E3BF0000000000000FB0107901411070040501600405405064090741402480A0340
1001
ACAD
1000
AcDbSavedByObjectVersion
1070
     0
  0
ACAD_PROXY_OBJECT
  5
32
102
{ACAD_REACTORS
330
2A
102
}
330
2A
100
AcDbProxyObject
 90
      499
 91
      501
 93
      388
310
4150985CDA58D07406404333333333333E3BF0000000000000FB0107A41107004050150841D405064090741402480A0350
1001
ACAD
1000
AcDbSavedByObjectVersion
1070
     0
  0
ACAD_PROXY_OBJECT
  5
36
102
{ACAD_REACTORS
330
2A
102
}
330
2A
100
AcDbProxyObject
 90
      499
 91
      501
 93
      428
310
42109C9A59DA1D195B90C409028333333333333E3BF0000000000000FB010790141107004050150841D405064090741402480A029950
1001
ACAD
1000
AcDbSavedByObjectVersion
1070
     0
  0
ACAD_PROXY_OBJECT
  5
3A
102
{ACAD_REACTORS
330
2A
102
}
330
2A
100
AcDbProxyObject
 90
      499
 91
      501
 93
      452
310
42D0DBDB1BDC90DA185B99D95104090240C333333333333E3BF0000000000000FB0108901411070040501508421405064090741402480A0350
1001
ACAD
1000
AcDbSavedByObjectVersion
1070
     0
  0
ACAD_PROXY_OBJECT
  5
34
102
{ACAD_REACTORS
330
2A
102
}
330
2A
100
AcDbProxyObject
 90
      499
 91
      501
 93
      500
310
4290DBDB98D95C1D1D585B10940D028333333333333E3BF0000000000000FB0107902409070040501000000000000111010841D405064090740C02480A0340
1001
ACAD
1000
AcDbSavedByObjectVersion
1070
     0
  0
ACAD_PROXY_OBJECT
  5
35
102
{ACAD_REACTORS
330
2A
102
}
330
2A
100
AcDbProxyObject
 90
      499
 91
      501
 93
      412
310
40D11A5B50B409028333333333333E3BF0000000000000FB010790141107004050150841D405064090741402480A02677FFFFFD0
1001
ACAD
1000
AcDbSavedByObjectVersion
1070
     0
  0
ACAD_PROXY_OBJECT
  5
39
102
{ACAD_REACTORS
330
2A
102
}
330
2A
100
AcDbProxyObject
 90
      499
 91
      501
 93
      444
310
42D19858D95C185D1D195C9B90F409028333333333333E3BF0000000000000FB010790141107004050150841D405064090741402480A0350
1001
ACAD
1000
AcDbSavedByObjectVersion
1070
     0
  0
ACAD_PROXY_OBJECT
  5
2B
102
{ACAD_REACTORS
330
2A
102
}
330
2A
100
AcDbProxyObject
 90
      499
 91
      501
 93
      388
310
41119B185D240901404333333333333E3BF0000000000000F9010740A41107004050150841D405064090741402480A1B50
1001
ACAD
1000
AcDbSavedByObjectVersion
1070
     0
  0
ACAD_PROXY_OBJECT
  5
2C
102
{ACAD_REACTORS
330
2A
102
}
330
2A
100
AcDbProxyObject
 90
      499
 91
      501
 93
      476
310
43519B185D15DA5D1A115919D95CD0140901404333333333333E3BF0000000000000F9010740901411070040501600405405064090741402480A1B50
1001
ACAD
1000
AcDbSavedByObjectVersion
1070
     0
  0
ACAD_PROXY_OBJECT
  5
2D
102
{ACAD_REACTORS
330
2A
102
}
330
2A
100
AcDbProxyObject
 90
      499
 91
      501
 93
      412
310
41D1DBDD5C985D5910240902404333333333333E3BF0000000000000F9010740A411070040501641D405064090741402480A1B50
1001
ACAD
1000
AcDbSavedByObjectVersion
1070
     0
  0
ACAD_PROXY_OBJECT
  5
2E
102
{ACAD_REACTORS
330
2A
102
}
330
2A
100
AcDbProxyObject
 90
      499
 91
      501
 93
      500
310
4411DBDD5C985D5915DA5D1A115919D95CD0340902404333333333333E3BF0000000000000F9010740901411070040501600405405064090741402480A1B50
1001
ACAD
1000
AcDbSavedByObjectVersion
1070
     0
  0
ACAD_PROXY_OBJECT
  5
38
102
{ACAD_REACTORS
330
2A
102
}
330
2A
100
AcDbProxyObject
 90
      499
 91
      501
 93
      444
310
42D31A5B995C185D1D195C9B90E409028333333333333E3BF0000000000000FB010790141107004050750841D405064090741402483A0350
1001
ACAD
1000
AcDbSavedByObjectVersion
1070
     0
  0
ACAD_PROXY_OBJECT
  5
33
102
{ACAD_REACTORS
330
2A
102
}
330
2A
100
AcDbProxyObject
 90
      499
 91
      501
 93
      420
310
425499585B1A5CDD1A58D08409028333333333333E3BF0000000000000FB01079019070040501508421405064090741402480A1B40
1001
ACAD
1000
AcDbSavedByObjectVersion
1070
     0
  0
ACAD_PROXY_OBJECT
  5
37
102
{ACAD_REACTORS
330
2A
102
}
330
2A
100
AcDbProxyObject
 90
      499
 91
      501
 93
      412
310
41D51A1A58DAD95B90D409028333333333333E3BF0000000000000FB010790141107004050150C41D405064090741402480A0350
1001
ACAD
1000
AcDbSavedByObjectVersion
1070
     0
  0
XRECORD
  5
122
102
{ACAD_REACTORS
330
119
102
}
330
119
100
AcDbXrecord
 90
        0
  0
XRECORD
  5
138
102
{ACAD_REACTORS
330
119
102
}
330
119
100
AcDbXrecord
1000
DSTYLE
1002
{
1070
   340
340
11
1002
}
  0
XRECORD
  5
123
102
{ACAD_REACTORS
330
119
102
}
330
119
100
AcDbXrecord
  1
{1C64EFD3-F044-4A17-BE1F-30F55CB549A3}
  0
XRECORD
  5
11C
102
{ACAD_REACTORS
330
119
102
}
330
119
100
AcDbXrecord
  1

  0
XRECORD
  5
121
102
{ACAD_REACTORS
330
119
102
}
330
119
100
AcDbXrecord
 90
        4
  0
XRECORD
  5
11E
102
{ACAD_REACTORS
330
119
102
}
330
119
100
AcDbXrecord
340
1A
  0
XRECORD
  5
120
102
{ACAD_REACTORS
330
119
102
}
330
119
100
AcDbXrecord
 90
    10781
  0
XRECORD
  5
11F
102
{ACAD_REACTORS
330
119
102
}
330
119
100
AcDbXrecord
340
19
  0
XRECORD
  5
125
102
{ACAD_REACTORS
330
119
102
}
330
119
100
AcDbXrecord
 40
0.0
  0
XRECORD
  5
128
102
{ACAD_REACTORS
330
119
102
}
330
119
100
AcDbXrecord
340
0
  0
XRECORD
  5
12E
102
{ACAD_REACTORS
330
119
102
}
330
119
100
AcDbXrecord
 10
0.0
 20
0.0
 30
0.0
  0
XRECORD
  5
12A
102
{ACAD_REACTORS
330
119
102
}
330
119
100
AcDbXrecord
 10
0.0
 20
0.0
 30
0.0
  0
XRECORD
  5
12D
102
{ACAD_REACTORS
330
119
102
}
330
119
100
AcDbXrecord
 10
0.0
 20
0.0
 30
0.0
  0
XRECORD
  5
12B
102
{ACAD_REACTORS
330
119
102
}
330
119
100
AcDbXrecord
 10
0.0
 20
0.0
 30
0.0
  0
XRECORD
  5
12C
102
{ACAD_REACTORS
330
119
102
}
330
119
100
AcDbXrecord
 10
0.0
 20
0.0
 30
0.0
  0
XRECORD
  5
129
102
{ACAD_REACTORS
330
119
102
}
330
119
100
AcDbXrecord
 10
0.0
 20
0.0
 30
0.0
  0
XRECORD
  5
126
102
{ACAD_REACTORS
330
119
102
}
330
119
100
AcDbXrecord
340
0
  0
XRECORD
  5
127
102
{ACAD_REACTORS
330
119
102
}
330
119
100
AcDbXrecord
 70
     0
  0
XRECORD
  5
11D
102
{ACAD_REACTORS
330
119
102
}
330
119
100
AcDbXrecord
  1

  0
XRECORD
  5
11A
102
{ACAD_REACTORS
330
119
102
}
330
119
100
AcDbXrecord
 90
        1
  0
XRECORD
  5
11B
102
{ACAD_REACTORS
330
119
102
}
330
119
100
AcDbXrecord
 90
       70
  0
XRECORD
  5
131
102
{ACAD_REACTORS
330
119
102
}
330
119
100
AcDbXrecord
340
0
  0
XRECORD
  5
137
102
{ACAD_REACTORS
330
119
102
}
330
119
100
AcDbXrecord
 10
0.0
 20
0.0
 30
0.0
  0
XRECORD
  5
133
102
{ACAD_REACTORS
330
119
102
}
330
119
100
AcDbXrecord
 10
0.0
 20
0.0
 30
0.0
  0
XRECORD
  5
136
102
{ACAD_REACTORS
330
119
102
}
330
119
100
AcDbXrecord
 10
0.0
 20
0.0
 30
0.0
  0
XRECORD
  5
134
102
{ACAD_REACTORS
330
119
102
}
330
119
100
AcDbXrecord
 10
0.0
 20
0.0
 30
0.0
  0
XRECORD
  5
135
102
{ACAD_REACTORS
330
119
102
}
330
119
100
AcDbXrecord
 10
0.0
 20
0.0
 30
0.0
  0
XRECORD
  5
132
102
{ACAD_REACTORS
330
119
102
}
330
119
100
AcDbXrecord
 10
0.0
 20
0.0
 30
0.0
  0
XRECORD
  5
12F
102
{ACAD_REACTORS
330
119
102
}
330
119
100
AcDbXrecord
340
0
  0
XRECORD
  5
130
102
{ACAD_REACTORS
330
119
102
}
330
119
100
AcDbXrecord
 70
     0
  0
XRECORD
  5
124
102
{ACAD_REACTORS
330
119
102
}
330
119
100
AcDbXrecord
  1
{FAEB1C32-E019-11D5-929B-00C0DF256EC4}
  0
DICTIONARYVAR
  5
13C
102
{ACAD_REACTORS
330
139
102
}
330
139
100
DictionaryVariables
280
     0
  1
2
  0
DICTIONARYVAR
  5
13D
102
{ACAD_REACTORS
330
139
102
}
330
139
100
DictionaryVariables
280
     0
  1
1
  0
DICTIONARY
  5
140
330
3D
100
AcDbDictionary
280
     1
  3
ACAD_XREC_ROUNDTRIP
360
141
  0
DICTIONARY
  5
13E
330
3C
100
AcDbDictionary
280
     1
  3
ACAD_XREC_ROUNDTRIP
360
13F
  0
DICTIONARY
  5
142
330
3E
100
AcDbDictionary
280
     1
  3
ACAD_XREC_ROUNDTRIP
360
143
  0
XRECORD
  5
141
102
{ACAD_REACTORS
330
140
102
}
330
140
100
AcDbXrecord
102
MATERIAL
148
0.0
149
0.0
149
0.0
 93
        0
 94
      127
282
     0
 72
     1
 77
     1
171
     1
175
     1
179
     1
273
     0
  0
XRECORD
  5
13F
102
{ACAD_REACTORS
330
13E
102
}
330
13E
100
AcDbXrecord
102
MATERIAL
148
0.0
149
0.0
149
0.0
 93
        0
 94
      127
282
     0
 72
     1
 77
     1
171
     1
175
     1
179
     1
273
     0
  0
XRECORD
  5
143
102
{ACAD_REACTORS
330
142
102
}
330
142
100
AcDbXrecord
102
MATERIAL
148
0.0
149
0.0
149
0.0
 93
        0
 94
      127
282
     0
 72
     1
 77
     1
171
     1
175
     1
179
     1
273
     0
  0
ENDSEC
  0
EOF
