  0
SECTION
  2
HEADER
  9
$ACADVER
  1
AC1014
  9
$ACADMAINTVER
 70
     9
  9
$DWGCODEPAGE
  3
ANSI_1250
  9
$INSBASE
 10
0.0
 20
0.0
 30
0.0
  9
$EXTMIN
 10
-32.7619
 20
-35.0001
 30
0.0
  9
$EXTMAX
 10
32.5852
 20
35.1776
 30
0.0
  9
$LIMMIN
 10
0.0
 20
0.0
  9
$LIMMAX
 10
12.0
 20
9.0
  9
$ORTHOMODE
 70
     0
  9
$REGENMODE
 70
     1
  9
$FILLMODE
 70
     1
  9
$QTEXTMODE
 70
     0
  9
$MIRRTEXT
 70
     1
  9
$DRAGMODE
 70
     2
  9
$LTSCALE
 40
1.0
  9
$OSMODE
 70
    37
  9
$ATTMODE
 70
     1
  9
$TEXTSIZE
 40
0.2
  9
$TRACEWID
 40
0.05
  9
$TEXTSTYLE
  7
STANDARD
  9
$CLAYER
  8
0
  9
$CELTYPE
  6
BYLAYER
  9
$CECOLOR
 62
   256
  9
$CELTSCALE
 40
1.0
  9
$DELOBJ
 70
     1
  9
$DISPSILH
 70
     0
  9
$DIMSCALE
 40
1.0
  9
$DIMASZ
 40
0.18
  9
$DIMEXO
 40
0.0625
  9
$DIMDLI
 40
0.38
  9
$DIMRND
 40
0.0
  9
$DIMDLE
 40
0.0
  9
$DIMEXE
 40
0.18
  9
$DIMTP
 40
0.0
  9
$DIMTM
 40
0.0
  9
$DIMTXT
 40
0.18
  9
$DIMCEN
 40
0.09
  9
$DIMTSZ
 40
0.0
  9
$DIMTOL
 70
     0
  9
$DIMLIM
 70
     0
  9
$DIMTIH
 70
     1
  9
$DIMTOH
 70
     1
  9
$DIMSE1
 70
     0
  9
$DIMSE2
 70
     0
  9
$DIMTAD
 70
     0
  9
$DIMZIN
 70
     0
  9
$DIMBLK
  1

  9
$DIMASO
 70
     1
  9
$DIMSHO
 70
     1
  9
$DIMPOST
  1

  9
$DIMAPOST
  1

  9
$DIMALT
 70
     0
  9
$DIMALTD
 70
     2
  9
$DIMALTF
 40
25.4
  9
$DIMLFAC
 40
1.0
  9
$DIMTOFL
 70
     0
  9
$DIMTVP
 40
0.0
  9
$DIMTIX
 70
     0
  9
$DIMSOXD
 70
     0
  9
$DIMSAH
 70
     0
  9
$DIMBLK1
  1

  9
$DIMBLK2
  1

  9
$DIMSTYLE
  2
STANDARD
  9
$DIMCLRD
 70
     0
  9
$DIMCLRE
 70
     0
  9
$DIMCLRT
 70
     0
  9
$DIMTFAC
 40
1.0
  9
$DIMGAP
 40
0.09
  9
$DIMJUST
 70
     0
  9
$DIMSD1
 70
     0
  9
$DIMSD2
 70
     0
  9
$DIMTOLJ
 70
     1
  9
$DIMTZIN
 70
     0
  9
$DIMALTZ
 70
     0
  9
$DIMALTTZ
 70
     0
  9
$DIMFIT
 70
     3
  9
$DIMUPT
 70
     0
  9
$DIMUNIT
 70
     2
  9
$DIMDEC
 70
     4
  9
$DIMTDEC
 70
     4
  9
$DIMALTU
 70
     2
  9
$DIMALTTD
 70
     2
  9
$DIMTXSTY
  7
STANDARD
  9
$DIMAUNIT
 70
     0
  9
$LUNITS
 70
     2
  9
$LUPREC
 70
     4
  9
$SKETCHINC
 40
0.1
  9
$FILLETRAD
 40
0.5
  9
$AUNITS
 70
     0
  9
$AUPREC
 70
     0
  9
$MENU
  1
.
  9
$ELEVATION
 40
0.0
  9
$PELEVATION
 40
0.0
  9
$THICKNESS
 40
0.0
  9
$LIMCHECK
 70
     0
  9
$CHAMFERA
 40
0.5
  9
$CHAMFERB
 40
0.5
  9
$CHAMFERC
 40
1.0
  9
$CHAMFERD
 40
0.0
  9
$SKPOLY
 70
     0
  9
$TDCREATE
 40
2456225.460103136
  9
$TDUPDATE
 40
2456225.460103148
  9
$TDINDWG
 40
0.0000000116
  9
$TDUSRTIMER
 40
0.0000000116
  9
$USRTIMER
 70
     1
  9
$ANGBASE
 50
0.0
  9
$ANGDIR
 70
     0
  9
$PDMODE
 70
     0
  9
$PDSIZE
 40
0.0
  9
$PLINEWID
 40
0.0
  9
$COORDS
 70
     1
  9
$SPLFRAME
 70
     0
  9
$SPLINETYPE
 70
     6
  9
$SPLINESEGS
 70
     8
  9
$ATTDIA
 70
     0
  9
$ATTREQ
 70
     1
  9
$HANDLING
 70
     1
  9
$HANDSEED
  5
D6
  9
$SURFTAB1
 70
     6
  9
$SURFTAB2
 70
     6
  9
$SURFTYPE
 70
     6
  9
$SURFU
 70
     6
  9
$SURFV
 70
     6
  9
$UCSNAME
  2

  9
$UCSORG
 10
0.0
 20
0.0
 30
0.0
  9
$UCSXDIR
 10
1.0
 20
0.0
 30
0.0
  9
$UCSYDIR
 10
0.0
 20
1.0
 30
0.0
  9
$PUCSNAME
  2

  9
$PUCSORG
 10
0.0
 20
0.0
 30
0.0
  9
$PUCSXDIR
 10
1.0
 20
0.0
 30
0.0
  9
$PUCSYDIR
 10
0.0
 20
1.0
 30
0.0
  9
$USERI1
 70
     0
  9
$USERI2
 70
     0
  9
$USERI3
 70
     0
  9
$USERI4
 70
     0
  9
$USERI5
 70
     0
  9
$USERR1
 40
0.0
  9
$USERR2
 40
0.0
  9
$USERR3
 40
0.0
  9
$USERR4
 40
0.0
  9
$USERR5
 40
0.0
  9
$WORLDVIEW
 70
     1
  9
$SHADEDGE
 70
     3
  9
$SHADEDIF
 70
    70
  9
$TILEMODE
 70
     1
  9
$MAXACTVP
 70
    64
  9
$PINSBASE
 10
0.0
 20
0.0
 30
0.0
  9
$PLIMCHECK
 70
     0
  9
$PEXTMIN
 10
1.000000000000000E+20
 20
1.000000000000000E+20
 30
1.000000000000000E+20
  9
$PEXTMAX
 10
-1.000000000000000E+20
 20
-1.000000000000000E+20
 30
-1.000000000000000E+20
  9
$PLIMMIN
 10
0.0
 20
0.0
  9
$PLIMMAX
 10
12.0
 20
9.0
  9
$UNITMODE
 70
     0
  9
$VISRETAIN
 70
     1
  9
$PLINEGEN
 70
     0
  9
$PSLTSCALE
 70
     1
  9
$TREEDEPTH
 70
  3020
  9
$PICKSTYLE
 70
     1
  9
$CMLSTYLE
  2
STANDARD
  9
$CMLJUST
 70
     0
  9
$CMLSCALE
 40
1.0
  9
$PROXYGRAPHICS
 70
     1
  9
$MEASUREMENT
 70
     0
  0
ENDSEC
  0
SECTION
  2
CLASSES
  0
CLASS
  1
ACDBDICTIONARYWDFLT
  2
AcDbDictionaryWithDefault
  3
ObjectDBX Classes
 90
        0
280
     0
281
     0
  0
CLASS
  1
VISUALSTYLE
  2
AcDbVisualStyle
  3
ObjectDBX Classes
 90
     4095
280
     0
281
     0
  0
CLASS
  1
MATERIAL
  2
AcDbMaterial
  3
ObjectDBX Classes
 90
     1153
280
     0
281
     0
  0
CLASS
  1
DICTIONARYVAR
  2
AcDbDictionaryVar
  3
ObjectDBX Classes
 90
        0
280
     0
281
     0
  0
CLASS
  1
XRECORD
  2
AcDbXrecord
  3
AutoCAD 2000
 90
        0
280
     0
281
     0
  0
CLASS
  1
LWPOLYLINE
  2
AcDbPolyline
  3
AutoCAD 2000
 90
        0
280
     0
281
     1
  0
CLASS
  1
HATCH
  2
AcDbHatch
  3
AutoCAD 2000
 90
        0
280
     0
281
     1
  0
CLASS
  1
ACDBPLACEHOLDER
  2
AcDbPlaceHolder
  3
ObjectDBX Classes
 90
        0
280
     0
281
     0
  0
CLASS
  1
LAYOUT
  2
AcDbLayout
  3
ObjectDBX Classes
 90
        0
280
     0
281
     0
  0
ENDSEC
  0
SECTION
  2
TABLES
  0
TABLE
  2
VPORT
  5
8
330
0
100
AcDbSymbolTable
 70
     1
  0
VPORT
  5
29
330
8
100
AcDbSymbolTableRecord
100
AcDbViewportTableRecord
  2
*ACTIVE
 70
     0
 10
0.0
 20
0.0
 11
1.0
 21
1.0
 12
10.42990654205607
 22
4.5
 13
0.0
 23
0.0
 14
0.5
 24
0.5
 15
0.5
 25
0.5
 16
0.0
 26
0.0
 36
1.0
 17
0.0
 27
0.0
 37
0.0
 40
9.0
 41
1.972972972850329
 42
50.0
 43
0.0
 44
0.0
 50
0.0
 51
0.0
 71
     0
 72
   100
 73
     1
 74
     3
 75
     0
 76
     0
 77
     0
 78
     0
  0
ENDTAB
  0
TABLE
  2
LTYPE
  5
5
330
0
100
AcDbSymbolTable
 70
     4
  0
LTYPE
  5
14
330
5
100
AcDbSymbolTableRecord
100
AcDbLinetypeTableRecord
  2
BYBLOCK
 70
     0
  3

 72
    65
 73
     0
 40
0.0
  0
LTYPE
  5
15
330
5
100
AcDbSymbolTableRecord
100
AcDbLinetypeTableRecord
  2
BYLAYER
 70
     0
  3

 72
    65
 73
     0
 40
0.0
  0
LTYPE
  5
16
330
5
100
AcDbSymbolTableRecord
100
AcDbLinetypeTableRecord
  2
CONTINUOUS
 70
     0
  3
Solid line
 72
    65
 73
     0
 40
0.0
  0
LTYPE
  5
98
330
5
100
AcDbSymbolTableRecord
100
AcDbLinetypeTableRecord
  2
NEW_LINE1
 70
     0
  3

 72
    65
 73
     4
 40
1.2
 49
0.5
 74
     4
 75
     0
340
0
 46
1.0
 50
0.0
 44
0.0
 45
0.0
 49
-0.3
 74
     4
 75
     0
340
0
 46
1.0
 50
0.0
 44
0.0
 45
0.0
 49
0.1
 74
     4
 75
     0
340
0
 46
1.0
 50
0.0
 44
0.0
 45
0.0
 49
-0.3
 74
     4
 75
     0
340
0
 46
1.0
 50
0.0
 44
0.0
 45
0.0
  0
LTYPE
  5
9A
330
5
100
AcDbSymbolTableRecord
100
AcDbLinetypeTableRecord
  2
NEW_LINE2
 70
     0
  3

 72
    65
 73
     4
 40
1.2
 49
0.5
 74
     4
 75
     0
340
0
 46
1.0
 50
0.0
 44
0.0
 45
0.0
 49
-0.3
 74
     4
 75
     0
340
0
 46
1.0
 50
0.0
 44
0.0
 45
0.0
 49
0.1
 74
     4
 75
     0
340
0
 46
1.0
 50
0.0
 44
0.0
 45
0.0
 49
-0.3
 74
     4
 75
     0
340
0
 46
1.0
 50
0.0
 44
0.0
 45
0.0
  0
LTYPE
  5
9C
330
5
100
AcDbSymbolTableRecord
100
AcDbLinetypeTableRecord
  2
NEW_LINE3
 70
     0
  3

 72
    65
 73
     4
 40
1.2
 49
0.5
 74
     4
 75
     0
340
0
 46
1.0
 50
0.0
 44
0.0
 45
0.0
 49
-0.3
 74
     4
 75
     0
340
0
 46
1.0
 50
0.0
 44
0.0
 45
0.0
 49
0.1
 74
     4
 75
     0
340
0
 46
1.0
 50
0.0
 44
0.0
 45
0.0
 49
-0.3
 74
     4
 75
     0
340
0
 46
1.0
 50
0.0
 44
0.0
 45
0.0
  0
ENDTAB
  0
TABLE
  2
LAYER
  5
2
330
0
100
AcDbSymbolTable
 70
     2
  0
LAYER
  5
10
330
2
100
AcDbSymbolTableRecord
100
AcDbLayerTableRecord
  2
0
 70
     0
 62
     7
  6
CONTINUOUS
  0
LAYER
  5
40
330
2
100
AcDbSymbolTableRecord
100
AcDbLayerTableRecord
  2
VRSTVA_1
 70
     0
 62
     7
  6
CONTINUOUS
  0
ENDTAB
  0
TABLE
  2
STYLE
  5
3
330
0
100
AcDbSymbolTable
 70
     1
  0
STYLE
  5
11
330
3
100
AcDbSymbolTableRecord
100
AcDbTextStyleTableRecord
  2
STANDARD
 70
     0
 40
0.0
 41
1.0
 50
0.0
 71
     0
 42
0.2
  3
txt
  4

  0
ENDTAB
  0
TABLE
  2
VIEW
  5
6
330
0
100
AcDbSymbolTable
 70
     0
  0
ENDTAB
  0
TABLE
  2
UCS
  5
7
330
0
100
AcDbSymbolTable
 70
     0
  0
ENDTAB
  0
TABLE
  2
APPID
  5
9
330
0
100
AcDbSymbolTable
 70
     2
  0
APPID
  5
12
330
9
100
AcDbSymbolTableRecord
100
AcDbRegAppTableRecord
  2
ACAD
 70
     0
  0
APPID
  5
3F
330
9
100
AcDbSymbolTableRecord
100
AcDbRegAppTableRecord
  2
ODA
 70
     0
  0
ENDTAB
  0
TABLE
  2
DIMSTYLE
  5
A
330
0
100
AcDbSymbolTable
 70
     1
  0
DIMSTYLE
105
27
330
A
100
AcDbSymbolTableRecord
100
AcDbDimStyleTableRecord
  2
STANDARD
 70
     0
  3

  4

  5

  6

  7

 40
1.0
 41
0.18
 42
0.0625
 43
0.38
 44
0.18
 45
0.0
 46
0.0
 47
0.0
 48
0.0
140
0.18
141
0.09
142
0.0
143
25.4
144
1.0
145
0.0
146
1.0
147
0.09
 71
     0
 72
     0
 73
     1
 74
     1
 75
     0
 76
     0
 77
     0
 78
     0
170
     0
171
     2
172
     0
173
     0
174
     0
175
     0
176
     0
177
     0
178
     0
270
     2
271
     4
272
     4
273
     2
274
     2
340
11
275
     0
280
     0
281
     0
282
     0
283
     1
284
     0
285
     0
286
     0
287
     3
288
     0
  0
ENDTAB
  0
TABLE
  2
BLOCK_RECORD
  5
1
330
0
100
AcDbSymbolTable
 70
     1
  0
BLOCK_RECORD
  5
1F
330
1
100
AcDbSymbolTableRecord
100
AcDbBlockTableRecord
  2
*MODEL_SPACE
  0
BLOCK_RECORD
  5
1B
330
1
100
AcDbSymbolTableRecord
100
AcDbBlockTableRecord
  2
*PAPER_SPACE
  0
ENDTAB
  0
ENDSEC
  0
SECTION
  2
BLOCKS
  0
BLOCK
  5
20
330
1F
100
AcDbEntity
  8
0
100
AcDbBlockBegin
  2
*MODEL_SPACE
 70
     0
 10
0.0
 20
0.0
 30
0.0
  3
*MODEL_SPACE
  1

  0
ENDBLK
  5
21
330
1F
100
AcDbEntity
  8
0
100
AcDbBlockEnd
  0
BLOCK
  5
1C
330
1B
100
AcDbEntity
 67
     1
  8
0
100
AcDbBlockBegin
  2
*PAPER_SPACE
 70
     0
 10
0.0
 20
0.0
 30
0.0
  3
*PAPER_SPACE
  1

  0
ENDBLK
  5
1D
330
1B
100
AcDbEntity
 67
     1
  8
0
100
AcDbBlockEnd
  0
ENDSEC
  0
SECTION
  2
ENTITIES
  0
SPLINE
  5
41
330
1F
100
AcDbEntity
  8
VRSTVA_1
 62
   250
100
AcDbSpline
210
0.0
220
0.0
230
1.0
 70
     8
 71
     3
 72
    16
 73
    12
 74
     0
 42
0.0000000001
 43
0.0000000001
 40
0.0
 40
0.0
 40
0.0
 40
0.0
 40
0.25
 40
0.25
 40
0.25
 40
0.25
 40
0.5
 40
0.5
 40
0.5
 40
0.5
 40
1.0
 40
1.0
 40
1.0
 40
1.0
 10
3.2856
 20
16.8495
 30
0.0
 10
-4.934
 20
16.8495
 30
0.0
 10
-10.3881
 20
11.6717
 30
0.0
 10
-11.452
 20
5.4923
 30
0.0
 10
-11.452
 20
5.4923
 30
0.0
 10
-12.5679
 20
-0.9894
 30
0.0
 10
-9.8879
 20
-7.3784
 30
0.0
 10
-9.7995
 20
-7.647
 30
0.0
 10
-9.7995
 20
-7.647
 30
0.0
 10
-8.0307
 20
-13.1352
 30
0.0
 10
-2.7978
 20
-17.222
 30
0.0
 10
3.2856
 20
-17.222
 30
0.0
  0
SPLINE
  5
42
330
1F
100
AcDbEntity
  8
VRSTVA_1
 62
   250
100
AcDbSpline
210
0.0
220
0.0
230
1.0
 70
     8
 71
     3
 72
    16
 73
    12
 74
     0
 42
0.0000000001
 43
0.0000000001
 40
0.0
 40
0.0
 40
0.0
 40
0.0
 40
0.25
 40
0.25
 40
0.25
 40
0.25
 40
0.5
 40
0.5
 40
0.5
 40
0.5
 40
1.0
 40
1.0
 40
1.0
 40
1.0
 10
2.8892
 20
16.8495
 30
0.0
 10
11.1089
 20
16.8495
 30
0.0
 10
16.563
 20
11.6717
 30
0.0
 10
17.6269
 20
5.4923
 30
0.0
 10
17.6269
 20
5.4923
 30
0.0
 10
18.7428
 20
-0.9894
 30
0.0
 10
16.0628
 20
-7.3784
 30
0.0
 10
15.9744
 20
-7.647
 30
0.0
 10
15.9744
 20
-7.647
 30
0.0
 10
14.2056
 20
-13.1352
 30
0.0
 10
8.9727
 20
-17.222
 30
0.0
 10
2.8892
 20
-17.222
 30
0.0
  0
SPLINE
  5
43
330
1F
100
AcDbEntity
  8
VRSTVA_1
 62
   250
100
AcDbSpline
210
0.0
220
0.0
230
1.0
 70
     8
 71
     3
 72
    16
 73
    12
 74
     0
 42
0.0000000001
 43
0.0000000001
 40
0.0
 40
0.0
 40
0.0
 40
0.0
 40
0.25
 40
0.25
 40
0.25
 40
0.25
 40
0.5
 40
0.5
 40
0.5
 40
0.5
 40
1.0
 40
1.0
 40
1.0
 40
1.0
 10
3.2896
 20
17.1902
 30
0.0
 10
-5.0944
 20
17.1902
 30
0.0
 10
-10.6577
 20
11.9089
 30
0.0
 10
-11.7428
 20
5.6059
 30
0.0
 10
-11.7428
 20
5.6059
 30
0.0
 10
-12.881
 20
-1.0055
 30
0.0
 10
-10.1474
 20
-7.5222
 30
0.0
 10
-10.0572
 20
-7.7962
 30
0.0
 10
-10.0572
 20
-7.7962
 30
0.0
 10
-8.253
 20
-13.3942
 30
0.0
 10
-2.9155
 20
-17.5627
 30
0.0
 10
3.2896
 20
-17.5627
 30
0.0
  0
SPLINE
  5
44
330
1F
100
AcDbEntity
  8
VRSTVA_1
 62
   250
100
AcDbSpline
210
0.0
220
0.0
230
1.0
 70
     8
 71
     3
 72
    16
 73
    12
 74
     0
 42
0.0000000001
 43
0.0000000001
 40
0.0
 40
0.0
 40
0.0
 40
0.0
 40
0.25
 40
0.25
 40
0.25
 40
0.25
 40
0.5
 40
0.5
 40
0.5
 40
0.5
 40
1.0
 40
1.0
 40
1.0
 40
1.0
 10
2.8852
 20
17.1902
 30
0.0
 10
11.2693
 20
17.1902
 30
0.0
 10
16.8326
 20
11.9089
 30
0.0
 10
17.9177
 20
5.6059
 30
0.0
 10
17.9177
 20
5.6059
 30
0.0
 10
19.0559
 20
-1.0055
 30
0.0
 10
16.3223
 20
-7.5222
 30
0.0
 10
16.2321
 20
-7.7962
 30
0.0
 10
16.2321
 20
-7.7962
 30
0.0
 10
14.4279
 20
-13.3942
 30
0.0
 10
9.0904
 20
-17.5627
 30
0.0
 10
2.8852
 20
-17.5627
 30
0.0
  0
SPLINE
  5
45
330
1F
100
AcDbEntity
  8
VRSTVA_1
 62
   250
100
AcDbSpline
210
0.0
220
0.0
230
1.0
 70
     8
 71
     3
 72
    12
 73
     8
 74
     0
 42
0.0000000001
 43
0.0000000001
 40
0.0
 40
0.0
 40
0.0
 40
0.0
 40
0.3333333333333333
 40
0.3333333333333333
 40
0.3333333333333333
 40
0.3333333333333333
 40
1.0
 40
1.0
 40
1.0
 40
1.0
 10
8.628
 20
28.3378
 30
0.0
 10
8.628
 20
28.3378
 30
0.0
 10
3.1026
 20
28.3322
 30
0.0
 10
3.1026
 20
28.3322
 30
0.0
 10
3.1026
 20
28.3322
 30
0.0
 10
3.1026
 20
28.3322
 30
0.0
 10
-2.4311
 20
28.3379
 30
0.0
 10
-2.4311
 20
28.3379
 30
0.0
  0
SPLINE
  5
46
330
1F
100
AcDbEntity
  8
VRSTVA_1
 62
   250
100
AcDbSpline
210
0.0
220
0.0
230
1.0
 70
     8
 71
     3
 72
    44
 73
    40
 74
     0
 42
0.0000000001
 43
0.0000000001
 40
0.0
 40
0.0
 40
0.0
 40
0.0
 40
0.0909090909090909
 40
0.0909090909090909
 40
0.0909090909090909
 40
0.0909090909090909
 40
0.1818181818181818
 40
0.1818181818181818
 40
0.1818181818181818
 40
0.1818181818181818
 40
0.2727272727272727
 40
0.2727272727272727
 40
0.2727272727272727
 40
0.2727272727272727
 40
0.3636363636363636
 40
0.3636363636363636
 40
0.3636363636363636
 40
0.3636363636363636
 40
0.4545454545454545
 40
0.4545454545454545
 40
0.4545454545454545
 40
0.4545454545454545
 40
0.5454545454545454
 40
0.5454545454545454
 40
0.5454545454545454
 40
0.5454545454545454
 40
0.6363636363636364
 40
0.6363636363636364
 40
0.6363636363636364
 40
0.6363636363636364
 40
0.7272727272727273
 40
0.7272727272727273
 40
0.7272727272727273
 40
0.7272727272727273
 40
0.8181818181818182
 40
0.8181818181818182
 40
0.8181818181818182
 40
0.8181818181818182
 40
1.0
 40
1.0
 40
1.0
 40
1.0
 10
-8.6484
 20
28.3442
 30
0.0
 10
-8.6484
 20
28.3442
 30
0.0
 10
-10.6992
 20
28.3463
 30
0.0
 10
-10.6992
 20
28.3463
 30
0.0
 10
-10.6992
 20
28.3463
 30
0.0
 10
-11.4692
 20
28.3463
 30
0.0
 10
-12.2377
 20
28.0168
 30
0.0
 10
-12.7792
 20
27.5471
 30
0.0
 10
-12.7792
 20
27.5471
 30
0.0
 10
-17.6424
 20
23.6581
 30
0.0
 10
-20.7758
 20
18.036
 30
0.0
 10
-21.7507
 20
11.8786
 30
0.0
 10
-21.7507
 20
11.8786
 30
0.0
 10
-23.657
 20
-0.1611
 30
0.0
 10
-19.0788
 20
-12.0284
 30
0.0
 10
-18.9277
 20
-12.5274
 30
0.0
 10
-18.9277
 20
-12.5274
 30
0.0
 10
-15.906
 20
-22.7216
 30
0.0
 10
-7.3034
 20
-30.3111
 30
0.0
 10
3.0892
 20
-30.3111
 30
0.0
 10
3.0892
 20
-30.3111
 30
0.0
 10
13.4818
 20
-30.3111
 30
0.0
 10
22.1144
 20
-22.7216
 30
0.0
 10
25.1361
 20
-12.5274
 30
0.0
 10
25.1361
 20
-12.5274
 30
0.0
 10
25.2872
 20
-12.0284
 30
0.0
 10
29.8655
 20
-0.1611
 30
0.0
 10
27.9592
 20
11.8786
 30
0.0
 10
27.9592
 20
11.8786
 30
0.0
 10
26.9842
 20
18.036
 30
0.0
 10
23.8509
 20
23.6581
 30
0.0
 10
18.9876
 20
27.5471
 30
0.0
 10
18.9876
 20
27.5471
 30
0.0
 10
18.4461
 20
28.0168
 30
0.0
 10
17.6776
 20
28.3463
 30
0.0
 10
16.9077
 20
28.3463
 30
0.0
 10
16.9077
 20
28.3463
 30
0.0
 10
16.9077
 20
28.3463
 30
0.0
 10
14.8249
 20
28.3442
 30
0.0
 10
14.8249
 20
28.3442
 30
0.0
  0
SPLINE
  5
47
330
1F
100
AcDbEntity
  8
VRSTVA_1
 62
   250
100
AcDbSpline
210
0.0
220
0.0
230
1.0
 70
     8
 71
     3
 72
    12
 73
     8
 74
     0
 42
0.0000000001
 43
0.0000000001
 40
0.0
 40
0.0
 40
0.0
 40
0.0
 40
0.3333333333333333
 40
0.3333333333333333
 40
0.3333333333333333
 40
0.3333333333333333
 40
1.0
 40
1.0
 40
1.0
 40
1.0
 10
8.6444
 20
27.7516
 30
0.0
 10
8.6444
 20
27.7516
 30
0.0
 10
3.1026
 20
27.7459
 30
0.0
 10
3.1026
 20
27.7459
 30
0.0
 10
3.1026
 20
27.7459
 30
0.0
 10
3.1026
 20
27.7459
 30
0.0
 10
-2.4402
 20
27.7516
 30
0.0
 10
-2.4402
 20
27.7516
 30
0.0
  0
SPLINE
  5
48
330
1F
100
AcDbEntity
  8
VRSTVA_1
 62
   250
100
AcDbSpline
210
0.0
220
0.0
230
1.0
 70
     8
 71
     3
 72
    44
 73
    40
 74
     0
 42
0.0000000001
 43
0.0000000001
 40
0.0
 40
0.0
 40
0.0
 40
0.0
 40
0.0909090909090909
 40
0.0909090909090909
 40
0.0909090909090909
 40
0.0909090909090909
 40
0.1818181818181818
 40
0.1818181818181818
 40
0.1818181818181818
 40
0.1818181818181818
 40
0.2727272727272727
 40
0.2727272727272727
 40
0.2727272727272727
 40
0.2727272727272727
 40
0.3636363636363636
 40
0.3636363636363636
 40
0.3636363636363636
 40
0.3636363636363636
 40
0.4545454545454545
 40
0.4545454545454545
 40
0.4545454545454545
 40
0.4545454545454545
 40
0.5454545454545454
 40
0.5454545454545454
 40
0.5454545454545454
 40
0.5454545454545454
 40
0.6363636363636364
 40
0.6363636363636364
 40
0.6363636363636364
 40
0.6363636363636364
 40
0.7272727272727273
 40
0.7272727272727273
 40
0.7272727272727273
 40
0.7272727272727273
 40
0.8181818181818182
 40
0.8181818181818182
 40
0.8181818181818182
 40
0.8181818181818182
 40
1.0
 40
1.0
 40
1.0
 40
1.0
 10
-8.6414
 20
27.7579
 30
0.0
 10
-8.6414
 20
27.7579
 30
0.0
 10
-10.4231
 20
27.7597
 30
0.0
 10
-10.4231
 20
27.7597
 30
0.0
 10
-10.4231
 20
27.7597
 30
0.0
 10
-11.1777
 20
27.7597
 30
0.0
 10
-11.9308
 20
27.4368
 30
0.0
 10
-12.4615
 20
26.9765
 30
0.0
 10
-12.4615
 20
26.9765
 30
0.0
 10
-17.2275
 20
23.1653
 30
0.0
 10
-20.2982
 20
17.6556
 30
0.0
 10
-21.2537
 20
11.6214
 30
0.0
 10
-21.2537
 20
11.6214
 30
0.0
 10
-23.1218
 20
-0.1775
 30
0.0
 10
-18.6351
 20
-11.8075
 30
0.0
 10
-18.4871
 20
-12.2965
 30
0.0
 10
-18.4871
 20
-12.2965
 30
0.0
 10
-15.5258
 20
-22.2868
 30
0.0
 10
-7.0952
 20
-29.7245
 30
0.0
 10
3.0895
 20
-29.7245
 30
0.0
 10
3.0895
 20
-29.7245
 30
0.0
 10
13.2742
 20
-29.7245
 30
0.0
 10
21.7342
 20
-22.2868
 30
0.0
 10
24.6955
 20
-12.2965
 30
0.0
 10
24.6955
 20
-12.2965
 30
0.0
 10
24.8436
 20
-11.8075
 30
0.0
 10
29.3302
 20
-0.1775
 30
0.0
 10
27.4621
 20
11.6214
 30
0.0
 10
27.4621
 20
11.6214
 30
0.0
 10
26.5067
 20
17.6556
 30
0.0
 10
23.4359
 20
23.1653
 30
0.0
 10
18.67
 20
26.9765
 30
0.0
 10
18.67
 20
26.9765
 30
0.0
 10
18.1393
 20
27.4368
 30
0.0
 10
17.3862
 20
27.7597
 30
0.0
 10
16.6316
 20
27.7597
 30
0.0
 10
16.6316
 20
27.7597
 30
0.0
 10
16.6316
 20
27.7597
 30
0.0
 10
14.854
 20
27.7579
 30
0.0
 10
14.854
 20
27.7579
 30
0.0
  0
SPLINE
  5
49
330
1F
100
AcDbEntity
  8
VRSTVA_1
 62
   250
100
AcDbSpline
210
0.0
220
0.0
230
1.0
 70
     8
 71
     3
 72
    52
 73
    48
 74
     0
 42
0.0000000001
 43
0.0000000001
 40
0.0
 40
0.0
 40
0.0
 40
0.0
 40
0.0769230769230769
 40
0.0769230769230769
 40
0.0769230769230769
 40
0.0769230769230769
 40
0.1538461538461539
 40
0.1538461538461539
 40
0.1538461538461539
 40
0.1538461538461539
 40
0.2307692307692308
 40
0.2307692307692308
 40
0.2307692307692308
 40
0.2307692307692308
 40
0.3076923076923077
 40
0.3076923076923077
 40
0.3076923076923077
 40
0.3076923076923077
 40
0.3846153846153846
 40
0.3846153846153846
 40
0.3846153846153846
 40
0.3846153846153846
 40
0.4615384615384616
 40
0.4615384615384616
 40
0.4615384615384616
 40
0.4615384615384616
 40
0.5384615384615384
 40
0.5384615384615384
 40
0.5384615384615384
 40
0.5384615384615384
 40
0.6153846153846154
 40
0.6153846153846154
 40
0.6153846153846154
 40
0.6153846153846154
 40
0.6923076923076923
 40
0.6923076923076923
 40
0.6923076923076923
 40
0.6923076923076923
 40
0.7692307692307693
 40
0.7692307692307693
 40
0.7692307692307693
 40
0.7692307692307693
 40
0.8461538461538461
 40
0.8461538461538461
 40
0.8461538461538461
 40
0.8461538461538461
 40
1.0
 40
1.0
 40
1.0
 40
1.0
 10
12.3237
 20
24.6052
 30
0.0
 10
12.3237
 20
24.6052
 30
0.0
 10
12.3276
 20
23.3702
 30
0.0
 10
12.3276
 20
23.3702
 30
0.0
 10
12.3276
 20
23.3702
 30
0.0
 10
12.3276
 20
23.3702
 30
0.0
 10
19.4751
 20
23.4016
 30
0.0
 10
19.4751
 20
23.4016
 30
0.0
 10
19.4751
 20
23.4016
 30
0.0
 10
20.431
 20
23.4016
 30
0.0
 10
21.3149
 20
22.9546
 30
0.0
 10
21.8816
 20
22.268
 30
0.0
 10
21.8816
 20
22.268
 30
0.0
 10
24.3131
 20
19.11
 30
0.0
 10
25.9593
 20
15.3168
 30
0.0
 10
26.5933
 20
11.3126
 30
0.0
 10
26.5933
 20
11.3126
 30
0.0
 10
28.3973
 20
-0.081
 30
0.0
 10
24.0648
 20
-11.3116
 30
0.0
 10
23.9218
 20
-11.7838
 30
0.0
 10
23.9218
 20
-11.7838
 30
0.0
 10
21.0622
 20
-21.431
 30
0.0
 10
12.9232
 20
-28.6209
 30
0.0
 10
3.0883
 20
-28.6209
 30
0.0
 10
3.0883
 20
-28.6209
 30
0.0
 10
-6.7466
 20
-28.6209
 30
0.0
 10
-14.8868
 20
-21.431
 30
0.0
 10
-17.7464
 20
-11.7838
 30
0.0
 10
-17.7464
 20
-11.7838
 30
0.0
 10
-17.8894
 20
-11.3116
 30
0.0
 10
-22.222
 20
-0.081
 30
0.0
 10
-20.418
 20
11.3126
 30
0.0
 10
-20.418
 20
11.3126
 30
0.0
 10
-19.784
 20
15.3168
 30
0.0
 10
-18.1378
 20
19.11
 30
0.0
 10
-15.7063
 20
22.268
 30
0.0
 10
-15.7063
 20
22.268
 30
0.0
 10
-15.1396
 20
22.9546
 30
0.0
 10
-14.2556
 20
23.4016
 30
0.0
 10
-13.2998
 20
23.4016
 30
0.0
 10
-13.2998
 20
23.4016
 30
0.0
 10
-13.2998
 20
23.4016
 30
0.0
 10
-6.1681
 20
23.3849
 30
0.0
 10
-6.1681
 20
23.3849
 30
0.0
 10
-6.1681
 20
23.3849
 30
0.0
 10
-6.1681
 20
23.3849
 30
0.0
 10
-6.1751
 20
24.6112
 30
0.0
 10
-6.1751
 20
24.6112
 30
0.0
  0
SPLINE
  5
4A
330
1F
100
AcDbEntity
  8
VRSTVA_1
 62
   250
100
AcDbSpline
210
0.0
220
0.0
230
1.0
 70
     8
 71
     3
 72
    28
 73
    24
 74
     0
 42
0.0000000001
 43
0.0000000001
 40
0.0
 40
0.0
 40
0.0
 40
0.0
 40
0.1428571428571428
 40
0.1428571428571428
 40
0.1428571428571428
 40
0.1428571428571428
 40
0.2857142857142857
 40
0.2857142857142857
 40
0.2857142857142857
 40
0.2857142857142857
 40
0.4285714285714285
 40
0.4285714285714285
 40
0.4285714285714285
 40
0.4285714285714285
 40
0.5714285714285714
 40
0.5714285714285714
 40
0.5714285714285714
 40
0.5714285714285714
 40
0.7142857142857143
 40
0.7142857142857143
 40
0.7142857142857143
 40
0.7142857142857143
 40
1.0
 40
1.0
 40
1.0
 40
1.0
 10
-20.1218
 20
12.8053
 30
0.0
 10
-20.1218
 20
12.8053
 30
0.0
 10
-19.9479
 20
11.5691
 30
0.0
 10
-19.9479
 20
11.5691
 30
0.0
 10
-19.9479
 20
11.5691
 30
0.0
 10
-21.7158
 20
0.353
 30
0.0
 10
-17.4699
 20
-10.7025
 30
0.0
 10
-17.3298
 20
-11.1674
 30
0.0
 10
-17.3298
 20
-11.1674
 30
0.0
 10
-14.5273
 20
-20.6643
 30
0.0
 10
-6.55
 20
-27.7421
 30
0.0
 10
3.0883
 20
-27.7421
 30
0.0
 10
3.0883
 20
-27.7421
 30
0.0
 10
12.7265
 20
-27.7421
 30
0.0
 10
20.7027
 20
-20.6643
 30
0.0
 10
23.5051
 20
-11.1674
 30
0.0
 10
23.5051
 20
-11.1674
 30
0.0
 10
23.6452
 20
-10.7025
 30
0.0
 10
27.8911
 20
0.353
 30
0.0
 10
26.1232
 20
11.5691
 30
0.0
 10
26.1232
 20
11.5691
 30
0.0
 10
26.1232
 20
11.5691
 30
0.0
 10
26.2593
 20
12.8787
 30
0.0
 10
26.2593
 20
12.8787
 30
0.0
  0
SPLINE
  5
4B
330
1F
100
AcDbEntity
  8
VRSTVA_1
 62
   250
100
AcDbSpline
210
0.0
220
0.0
230
1.0
 70
    24
 71
     3
 72
     8
 73
     4
 74
     0
 42
0.0000000001
 43
0.0000000001
 40
0.0
 40
0.0
 40
0.0
 40
0.0
 40
1.0
 40
1.0
 40
1.0
 40
1.0
 10
-2.4568
 20
24.6157
 30
0.0
 10
-2.4568
 20
24.6157
 30
0.0
 10
-2.4568
 20
29.7979
 30
0.0
 10
-2.4568
 20
29.7979
 30
0.0
  0
SPLINE
  5
4C
330
1F
100
AcDbEntity
  8
VRSTVA_1
 62
   250
100
AcDbSpline
210
0.0
220
0.0
230
1.0
 70
     8
 71
     3
 72
    24
 73
    20
 74
     0
 42
0.0000000001
 43
0.0000000001
 40
0.0
 40
0.0
 40
0.0
 40
0.0
 40
0.1666666666666667
 40
0.1666666666666667
 40
0.1666666666666667
 40
0.1666666666666667
 40
0.3333333333333333
 40
0.3333333333333333
 40
0.3333333333333333
 40
0.3333333333333333
 40
0.5
 40
0.5
 40
0.5
 40
0.5
 40
0.6666666666666666
 40
0.6666666666666666
 40
0.6666666666666666
 40
0.6666666666666666
 40
1.0
 40
1.0
 40
1.0
 40
1.0
 10
-2.4584
 20
29.7963
 30
0.0
 10
-2.4584
 20
29.7963
 30
0.0
 10
-7.7363
 20
29.7963
 30
0.0
 10
-7.7363
 20
29.7963
 30
0.0
 10
-7.7363
 20
29.7963
 30
0.0
 10
-8.2285
 20
29.7963
 30
0.0
 10
-8.6312
 20
29.1547
 30
0.0
 10
-8.6312
 20
28.3706
 30
0.0
 10
-8.6312
 20
28.3706
 30
0.0
 10
-8.6312
 20
28.3706
 30
0.0
 10
-8.6312
 20
26.0354
 30
0.0
 10
-8.6312
 20
26.0354
 30
0.0
 10
-8.6312
 20
26.0354
 30
0.0
 10
-8.6312
 20
25.2513
 30
0.0
 10
-8.2285
 20
24.6098
 30
0.0
 10
-7.7363
 20
24.6098
 30
0.0
 10
-7.7363
 20
24.6098
 30
0.0
 10
-7.7363
 20
24.6098
 30
0.0
 10
-2.4719
 20
24.6098
 30
0.0
 10
-2.4719
 20
24.6098
 30
0.0
  0
SPLINE
  5
4D
330
1F
100
AcDbEntity
  8
VRSTVA_1
 62
   250
100
AcDbSpline
210
0.0
220
0.0
230
1.0
 70
     8
 71
     3
 72
    24
 73
    20
 74
     0
 42
0.0000000001
 43
0.0000000001
 40
0.0
 40
0.0
 40
0.0
 40
0.0
 40
0.1666666666666667
 40
0.1666666666666667
 40
0.1666666666666667
 40
0.1666666666666667
 40
0.3333333333333333
 40
0.3333333333333333
 40
0.3333333333333333
 40
0.3333333333333333
 40
0.5
 40
0.5
 40
0.5
 40
0.5
 40
0.6666666666666666
 40
0.6666666666666666
 40
0.6666666666666666
 40
0.6666666666666666
 40
1.0
 40
1.0
 40
1.0
 40
1.0
 10
-2.472
 20
29.7185
 30
0.0
 10
-2.472
 20
29.7185
 30
0.0
 10
-7.6705
 20
29.7185
 30
0.0
 10
-7.6705
 20
29.7185
 30
0.0
 10
-7.6705
 20
29.7185
 30
0.0
 10
-8.148
 20
29.7185
 30
0.0
 10
-8.5386
 20
29.0962
 30
0.0
 10
-8.5386
 20
28.3356
 30
0.0
 10
-8.5386
 20
28.3356
 30
0.0
 10
-8.5386
 20
28.3356
 30
0.0
 10
-8.5386
 20
26.0705
 30
0.0
 10
-8.5386
 20
26.0705
 30
0.0
 10
-8.5386
 20
26.0705
 30
0.0
 10
-8.5386
 20
25.3099
 30
0.0
 10
-8.148
 20
24.6876
 30
0.0
 10
-7.6705
 20
24.6876
 30
0.0
 10
-7.6705
 20
24.6876
 30
0.0
 10
-7.6705
 20
24.6876
 30
0.0
 10
-2.4704
 20
24.6876
 30
0.0
 10
-2.4704
 20
24.6876
 30
0.0
  0
SPLINE
  5
4E
330
1F
100
AcDbEntity
  8
VRSTVA_1
 62
   250
100
AcDbSpline
210
0.0
220
0.0
230
1.0
 70
     8
 71
     3
 72
    16
 73
    12
 74
     0
 42
0.0000000001
 43
0.0000000001
 40
0.0
 40
0.0
 40
0.0
 40
0.0
 40
0.25
 40
0.25
 40
0.25
 40
0.25
 40
0.5
 40
0.5
 40
0.5
 40
0.5
 40
1.0
 40
1.0
 40
1.0
 40
1.0
 10
-5.7521
 20
28.5622
 30
0.0
 10
-5.7521
 20
28.5622
 30
0.0
 10
-7.414
 20
28.5622
 30
0.0
 10
-7.414
 20
28.5622
 30
0.0
 10
-7.414
 20
28.5622
 30
0.0
 10
-7.414
 20
28.5622
 30
0.0
 10
-7.414
 20
25.8454
 30
0.0
 10
-7.414
 20
25.8454
 30
0.0
 10
-7.414
 20
25.8454
 30
0.0
 10
-7.414
 20
25.8454
 30
0.0
 10
-2.4744
 20
25.8454
 30
0.0
 10
-2.4744
 20
25.8454
 30
0.0
  0
SPLINE
  5
4F
330
1F
100
AcDbEntity
  8
VRSTVA_1
 62
   250
100
AcDbSpline
210
0.0
220
0.0
230
1.0
 70
    24
 71
     3
 72
     8
 73
     4
 74
     0
 42
0.0000000001
 43
0.0000000001
 40
0.0
 40
0.0
 40
0.0
 40
0.0
 40
1.0
 40
1.0
 40
1.0
 40
1.0
 10
-2.4744
 20
28.5622
 30
0.0
 10
-2.4744
 20
28.5622
 30
0.0
 10
-2.8925
 20
28.5622
 30
0.0
 10
-2.8925
 20
28.5622
 30
0.0
  0
SPLINE
  5
50
330
1F
100
AcDbEntity
  8
VRSTVA_1
 62
   250
100
AcDbSpline
210
0.0
220
0.0
230
1.0
 70
     8
 71
     3
 72
    16
 73
    12
 74
     0
 42
0.0000000001
 43
0.0000000001
 40
0.0
 40
0.0
 40
0.0
 40
0.0
 40
0.25
 40
0.25
 40
0.25
 40
0.25
 40
0.5
 40
0.5
 40
0.5
 40
0.5
 40
1.0
 40
1.0
 40
1.0
 40
1.0
 10
-4.9413
 20
26.5057
 30
0.0
 10
-4.9413
 20
26.5057
 30
0.0
 10
-4.9413
 20
25.8454
 30
0.0
 10
-4.9413
 20
25.8454
 30
0.0
 10
-4.9413
 20
25.8454
 30
0.0
 10
-4.9413
 20
25.8454
 30
0.0
 10
-3.7064
 20
25.8454
 30
0.0
 10
-3.7064
 20
25.8454
 30
0.0
 10
-3.7064
 20
25.8454
 30
0.0
 10
-3.7064
 20
25.8454
 30
0.0
 10
-3.7064
 20
26.5057
 30
0.0
 10
-3.7064
 20
26.5057
 30
0.0
  0
SPLINE
  5
51
330
1F
100
AcDbEntity
  8
VRSTVA_1
 62
   250
100
AcDbSpline
210
0.0
220
0.0
230
1.0
 70
    11
 71
     3
 72
    20
 73
    16
 74
     0
 42
0.0000000001
 43
0.0000000001
 40
0.0
 40
0.0
 40
0.0
 40
0.0
 40
0.2
 40
0.2
 40
0.2
 40
0.2
 40
0.4
 40
0.4
 40
0.4
 40
0.4
 40
0.6
 40
0.6
 40
0.6
 40
0.6
 40
1.0
 40
1.0
 40
1.0
 40
1.0
 10
-4.3238
 20
28.5357
 30
0.0
 10
-4.6648
 20
28.5357
 30
0.0
 10
-4.9413
 20
28.2593
 30
0.0
 10
-4.9413
 20
27.9183
 30
0.0
 10
-4.9413
 20
27.9183
 30
0.0
 10
-4.9413
 20
27.5773
 30
0.0
 10
-4.6648
 20
27.3009
 30
0.0
 10
-4.3238
 20
27.3009
 30
0.0
 10
-4.3238
 20
27.3009
 30
0.0
 10
-3.9828
 20
27.3009
 30
0.0
 10
-3.7064
 20
27.5773
 30
0.0
 10
-3.7064
 20
27.9183
 30
0.0
 10
-3.7064
 20
27.9183
 30
0.0
 10
-3.7064
 20
28.2593
 30
0.0
 10
-3.9828
 20
28.5357
 30
0.0
 10
-4.3238
 20
28.5357
 30
0.0
  0
SPLINE
  5
52
330
1F
100
AcDbEntity
  8
VRSTVA_1
 62
   250
100
AcDbSpline
210
0.0
220
0.0
230
1.0
 70
    11
 71
     3
 72
    20
 73
    16
 74
     0
 42
0.0000000001
 43
0.0000000001
 40
0.0
 40
0.0
 40
0.0
 40
0.0
 40
0.2
 40
0.2
 40
0.2
 40
0.2
 40
0.4
 40
0.4
 40
0.4
 40
0.4
 40
0.6
 40
0.6
 40
0.6
 40
0.6
 40
1.0
 40
1.0
 40
1.0
 40
1.0
 10
-4.3238
 20
29.4619
 30
0.0
 10
-5.1763
 20
29.4619
 30
0.0
 10
-5.8675
 20
28.7708
 30
0.0
 10
-5.8675
 20
27.9183
 30
0.0
 10
-5.8675
 20
27.9183
 30
0.0
 10
-5.8675
 20
27.0658
 30
0.0
 10
-5.1763
 20
26.3747
 30
0.0
 10
-4.3238
 20
26.3747
 30
0.0
 10
-4.3238
 20
26.3747
 30
0.0
 10
-3.4713
 20
26.3747
 30
0.0
 10
-2.7802
 20
27.0658
 30
0.0
 10
-2.7802
 20
27.9183
 30
0.0
 10
-2.7802
 20
27.9183
 30
0.0
 10
-2.7802
 20
28.7708
 30
0.0
 10
-3.4713
 20
29.4619
 30
0.0
 10
-4.3238
 20
29.4619
 30
0.0
  0
SPLINE
  5
53
330
1F
100
AcDbEntity
  8
VRSTVA_1
 62
   250
100
AcDbSpline
210
0.0
220
0.0
230
1.0
 70
    11
 71
     3
 72
    20
 73
    16
 74
     0
 42
0.0000000001
 43
0.0000000001
 40
0.0
 40
0.0
 40
0.0
 40
0.0
 40
0.2
 40
0.2
 40
0.2
 40
0.2
 40
0.4
 40
0.4
 40
0.4
 40
0.4
 40
0.6
 40
0.6
 40
0.6
 40
0.6
 40
1.0
 40
1.0
 40
1.0
 40
1.0
 10
-4.3238
 20
28.9062
 30
0.0
 10
-4.8694
 20
28.9062
 30
0.0
 10
-5.3118
 20
28.4639
 30
0.0
 10
-5.3118
 20
27.9183
 30
0.0
 10
-5.3118
 20
27.9183
 30
0.0
 10
-5.3118
 20
27.3727
 30
0.0
 10
-4.8694
 20
26.9304
 30
0.0
 10
-4.3238
 20
26.9304
 30
0.0
 10
-4.3238
 20
26.9304
 30
0.0
 10
-3.7782
 20
26.9304
 30
0.0
 10
-3.3359
 20
27.3727
 30
0.0
 10
-3.3359
 20
27.9183
 30
0.0
 10
-3.3359
 20
27.9183
 30
0.0
 10
-3.3359
 20
28.4639
 30
0.0
 10
-3.7782
 20
28.9062
 30
0.0
 10
-4.3238
 20
28.9062
 30
0.0
  0
SPLINE
  5
54
330
1F
100
AcDbEntity
  8
VRSTVA_1
 62
   250
100
AcDbSpline
210
0.0
220
0.0
230
1.0
 70
     8
 71
     3
 72
    16
 73
    12
 74
     0
 42
0.0000000001
 43
0.0000000001
 40
0.0
 40
0.0
 40
0.0
 40
0.0
 40
0.25
 40
0.25
 40
0.25
 40
0.25
 40
0.5
 40
0.5
 40
0.5
 40
0.5
 40
1.0
 40
1.0
 40
1.0
 40
1.0
 10
-4.6105
 20
28.864
 30
0.0
 10
-4.6105
 20
29.0282
 30
0.0
 10
-4.4716
 20
29.1626
 30
0.0
 10
-4.3018
 20
29.1626
 30
0.0
 10
-4.3018
 20
29.1626
 30
0.0
 10
-4.3018
 20
29.1626
 30
0.0
 10
-4.3018
 20
29.1626
 30
0.0
 10
-4.3018
 20
29.1626
 30
0.0
 10
-4.3018
 20
29.1626
 30
0.0
 10
-4.132
 20
29.1626
 30
0.0
 10
-3.9931
 20
29.0282
 30
0.0
 10
-3.9931
 20
28.864
 30
0.0
  0
SPLINE
  5
55
330
1F
100
AcDbEntity
  8
VRSTVA_1
 62
   250
100
AcDbSpline
210
0.0
220
0.0
230
1.0
 70
     8
 71
     3
 72
    16
 73
    12
 74
     0
 42
0.0000000001
 43
0.0000000001
 40
0.0
 40
0.0
 40
0.0
 40
0.0
 40
0.25
 40
0.25
 40
0.25
 40
0.25
 40
0.5
 40
0.5
 40
0.5
 40
0.5
 40
1.0
 40
1.0
 40
1.0
 40
1.0
 10
-5.2628
 20
27.5878
 30
0.0
 10
-5.4271
 20
27.5878
 30
0.0
 10
-5.5615
 20
27.7267
 30
0.0
 10
-5.5615
 20
27.8966
 30
0.0
 10
-5.5615
 20
27.8966
 30
0.0
 10
-5.5615
 20
27.8966
 30
0.0
 10
-5.5615
 20
27.8966
 30
0.0
 10
-5.5615
 20
27.8966
 30
0.0
 10
-5.5615
 20
27.8966
 30
0.0
 10
-5.5615
 20
28.0664
 30
0.0
 10
-5.4271
 20
28.2053
 30
0.0
 10
-5.2628
 20
28.2053
 30
0.0
  0
SPLINE
  5
56
330
1F
100
AcDbEntity
  8
VRSTVA_1
 62
   250
100
AcDbSpline
210
0.0
220
0.0
230
1.0
 70
     8
 71
     3
 72
    16
 73
    12
 74
     0
 42
0.0000000001
 43
0.0000000001
 40
0.0
 40
0.0
 40
0.0
 40
0.0
 40
0.25
 40
0.25
 40
0.25
 40
0.25
 40
0.5
 40
0.5
 40
0.5
 40
0.5
 40
1.0
 40
1.0
 40
1.0
 40
1.0
 10
-4.0389
 20
26.9832
 30
0.0
 10
-4.0389
 20
26.8189
 30
0.0
 10
-4.1778
 20
26.6845
 30
0.0
 10
-4.3476
 20
26.6845
 30
0.0
 10
-4.3476
 20
26.6845
 30
0.0
 10
-4.3476
 20
26.6845
 30
0.0
 10
-4.3476
 20
26.6845
 30
0.0
 10
-4.3476
 20
26.6845
 30
0.0
 10
-4.3476
 20
26.6845
 30
0.0
 10
-4.5174
 20
26.6845
 30
0.0
 10
-4.6564
 20
26.8189
 30
0.0
 10
-4.6564
 20
26.9832
 30
0.0
  0
SPLINE
  5
57
330
1F
100
AcDbEntity
  8
VRSTVA_1
 62
   250
100
AcDbSpline
210
0.0
220
0.0
230
1.0
 70
     8
 71
     3
 72
    16
 73
    12
 74
     0
 42
0.0000000001
 43
0.0000000001
 40
0.0
 40
0.0
 40
0.0
 40
0.0
 40
0.25
 40
0.25
 40
0.25
 40
0.25
 40
0.5
 40
0.5
 40
0.5
 40
0.5
 40
1.0
 40
1.0
 40
1.0
 40
1.0
 10
-3.3658
 20
28.2053
 30
0.0
 10
-3.2016
 20
28.2053
 30
0.0
 10
-3.0672
 20
28.0664
 30
0.0
 10
-3.0672
 20
27.8966
 30
0.0
 10
-3.0672
 20
27.8966
 30
0.0
 10
-3.0672
 20
27.8966
 30
0.0
 10
-3.0672
 20
27.8966
 30
0.0
 10
-3.0672
 20
27.8966
 30
0.0
 10
-3.0672
 20
27.8966
 30
0.0
 10
-3.0672
 20
27.7267
 30
0.0
 10
-3.2016
 20
27.5878
 30
0.0
 10
-3.3658
 20
27.5878
 30
0.0
  0
SPLINE
  5
58
330
1F
100
AcDbEntity
  8
VRSTVA_1
 62
   250
100
AcDbSpline
210
0.0
220
0.0
230
1.0
 70
    24
 71
     3
 72
     8
 73
     4
 74
     0
 42
0.0000000001
 43
0.0000000001
 40
0.0
 40
0.0
 40
0.0
 40
0.0
 40
1.0
 40
1.0
 40
1.0
 40
1.0
 10
8.6236
 20
24.6157
 30
0.0
 10
8.6236
 20
24.6157
 30
0.0
 10
8.6236
 20
29.7979
 30
0.0
 10
8.6236
 20
29.7979
 30
0.0
  0
SPLINE
  5
59
330
1F
100
AcDbEntity
  8
VRSTVA_1
 62
   250
100
AcDbSpline
210
0.0
220
0.0
230
1.0
 70
     8
 71
     3
 72
    24
 73
    20
 74
     0
 42
0.0000000001
 43
0.0000000001
 40
0.0
 40
0.0
 40
0.0
 40
0.0
 40
0.1666666666666667
 40
0.1666666666666667
 40
0.1666666666666667
 40
0.1666666666666667
 40
0.3333333333333333
 40
0.3333333333333333
 40
0.3333333333333333
 40
0.3333333333333333
 40
0.5
 40
0.5
 40
0.5
 40
0.5
 40
0.6666666666666666
 40
0.6666666666666666
 40
0.6666666666666666
 40
0.6666666666666666
 40
1.0
 40
1.0
 40
1.0
 40
1.0
 10
8.6252
 20
29.7963
 30
0.0
 10
8.6252
 20
29.7963
 30
0.0
 10
13.9031
 20
29.7963
 30
0.0
 10
13.9031
 20
29.7963
 30
0.0
 10
13.9031
 20
29.7963
 30
0.0
 10
14.3953
 20
29.7963
 30
0.0
 10
14.798
 20
29.1547
 30
0.0
 10
14.798
 20
28.3706
 30
0.0
 10
14.798
 20
28.3706
 30
0.0
 10
14.798
 20
28.3706
 30
0.0
 10
14.798
 20
26.0354
 30
0.0
 10
14.798
 20
26.0354
 30
0.0
 10
14.798
 20
26.0354
 30
0.0
 10
14.798
 20
25.2513
 30
0.0
 10
14.3953
 20
24.6098
 30
0.0
 10
13.9031
 20
24.6098
 30
0.0
 10
13.9031
 20
24.6098
 30
0.0
 10
13.9031
 20
24.6098
 30
0.0
 10
8.6387
 20
24.6098
 30
0.0
 10
8.6387
 20
24.6098
 30
0.0
  0
SPLINE
  5
5A
330
1F
100
AcDbEntity
  8
VRSTVA_1
 62
   250
100
AcDbSpline
210
0.0
220
0.0
230
1.0
 70
     8
 71
     3
 72
    24
 73
    20
 74
     0
 42
0.0000000001
 43
0.0000000001
 40
0.0
 40
0.0
 40
0.0
 40
0.0
 40
0.1666666666666667
 40
0.1666666666666667
 40
0.1666666666666667
 40
0.1666666666666667
 40
0.3333333333333333
 40
0.3333333333333333
 40
0.3333333333333333
 40
0.3333333333333333
 40
0.5
 40
0.5
 40
0.5
 40
0.5
 40
0.6666666666666666
 40
0.6666666666666666
 40
0.6666666666666666
 40
0.6666666666666666
 40
1.0
 40
1.0
 40
1.0
 40
1.0
 10
8.6388
 20
29.7185
 30
0.0
 10
8.6388
 20
29.7185
 30
0.0
 10
13.8374
 20
29.7185
 30
0.0
 10
13.8374
 20
29.7185
 30
0.0
 10
13.8374
 20
29.7185
 30
0.0
 10
14.3148
 20
29.7185
 30
0.0
 10
14.7054
 20
29.0962
 30
0.0
 10
14.7054
 20
28.3356
 30
0.0
 10
14.7054
 20
28.3356
 30
0.0
 10
14.7054
 20
28.3356
 30
0.0
 10
14.7054
 20
26.0705
 30
0.0
 10
14.7054
 20
26.0705
 30
0.0
 10
14.7054
 20
26.0705
 30
0.0
 10
14.7054
 20
25.3099
 30
0.0
 10
14.3148
 20
24.6876
 30
0.0
 10
13.8374
 20
24.6876
 30
0.0
 10
13.8374
 20
24.6876
 30
0.0
 10
13.8374
 20
24.6876
 30
0.0
 10
8.6373
 20
24.6876
 30
0.0
 10
8.6373
 20
24.6876
 30
0.0
  0
SPLINE
  5
5B
330
1F
100
AcDbEntity
  8
VRSTVA_1
 62
   250
100
AcDbSpline
210
0.0
220
0.0
230
1.0
 70
     8
 71
     3
 72
    16
 73
    12
 74
     0
 42
0.0000000001
 43
0.0000000001
 40
0.0
 40
0.0
 40
0.0
 40
0.0
 40
0.25
 40
0.25
 40
0.25
 40
0.25
 40
0.5
 40
0.5
 40
0.5
 40
0.5
 40
1.0
 40
1.0
 40
1.0
 40
1.0
 10
11.919
 20
28.5622
 30
0.0
 10
11.919
 20
28.5622
 30
0.0
 10
13.5808
 20
28.5622
 30
0.0
 10
13.5808
 20
28.5622
 30
0.0
 10
13.5808
 20
28.5622
 30
0.0
 10
13.5808
 20
28.5622
 30
0.0
 10
13.5808
 20
25.8454
 30
0.0
 10
13.5808
 20
25.8454
 30
0.0
 10
13.5808
 20
25.8454
 30
0.0
 10
13.5808
 20
25.8454
 30
0.0
 10
8.6413
 20
25.8454
 30
0.0
 10
8.6413
 20
25.8454
 30
0.0
  0
SPLINE
  5
5C
330
1F
100
AcDbEntity
  8
VRSTVA_1
 62
   250
100
AcDbSpline
210
0.0
220
0.0
230
1.0
 70
    24
 71
     3
 72
     8
 73
     4
 74
     0
 42
0.0000000001
 43
0.0000000001
 40
0.0
 40
0.0
 40
0.0
 40
0.0
 40
1.0
 40
1.0
 40
1.0
 40
1.0
 10
8.6413
 20
28.5622
 30
0.0
 10
8.6413
 20
28.5622
 30
0.0
 10
9.0593
 20
28.5622
 30
0.0
 10
9.0593
 20
28.5622
 30
0.0
  0
SPLINE
  5
5D
330
1F
100
AcDbEntity
  8
VRSTVA_1
 62
   250
100
AcDbSpline
210
0.0
220
0.0
230
1.0
 70
     8
 71
     3
 72
    16
 73
    12
 74
     0
 42
0.0000000001
 43
0.0000000001
 40
0.0
 40
0.0
 40
0.0
 40
0.0
 40
0.25
 40
0.25
 40
0.25
 40
0.25
 40
0.5
 40
0.5
 40
0.5
 40
0.5
 40
1.0
 40
1.0
 40
1.0
 40
1.0
 10
11.1081
 20
26.5057
 30
0.0
 10
11.1081
 20
26.5057
 30
0.0
 10
11.1081
 20
25.8454
 30
0.0
 10
11.1081
 20
25.8454
 30
0.0
 10
11.1081
 20
25.8454
 30
0.0
 10
11.1081
 20
25.8454
 30
0.0
 10
9.8732
 20
25.8454
 30
0.0
 10
9.8732
 20
25.8454
 30
0.0
 10
9.8732
 20
25.8454
 30
0.0
 10
9.8732
 20
25.8454
 30
0.0
 10
9.8732
 20
26.5057
 30
0.0
 10
9.8732
 20
26.5057
 30
0.0
  0
SPLINE
  5
5E
330
1F
100
AcDbEntity
  8
VRSTVA_1
 62
   250
100
AcDbSpline
210
0.0
220
0.0
230
1.0
 70
    11
 71
     3
 72
    20
 73
    16
 74
     0
 42
0.0000000001
 43
0.0000000001
 40
0.0
 40
0.0
 40
0.0
 40
0.0
 40
0.2
 40
0.2
 40
0.2
 40
0.2
 40
0.4
 40
0.4
 40
0.4
 40
0.4
 40
0.6
 40
0.6
 40
0.6
 40
0.6
 40
1.0
 40
1.0
 40
1.0
 40
1.0
 10
10.4907
 20
28.5357
 30
0.0
 10
10.8317
 20
28.5357
 30
0.0
 10
11.1081
 20
28.2593
 30
0.0
 10
11.1081
 20
27.9183
 30
0.0
 10
11.1081
 20
27.9183
 30
0.0
 10
11.1081
 20
27.5773
 30
0.0
 10
10.8317
 20
27.3009
 30
0.0
 10
10.4907
 20
27.3009
 30
0.0
 10
10.4907
 20
27.3009
 30
0.0
 10
10.1497
 20
27.3009
 30
0.0
 10
9.8732
 20
27.5773
 30
0.0
 10
9.8732
 20
27.9183
 30
0.0
 10
9.8732
 20
27.9183
 30
0.0
 10
9.8732
 20
28.2593
 30
0.0
 10
10.1497
 20
28.5357
 30
0.0
 10
10.4907
 20
28.5357
 30
0.0
  0
SPLINE
  5
5F
330
1F
100
AcDbEntity
  8
VRSTVA_1
 62
   250
100
AcDbSpline
210
0.0
220
0.0
230
1.0
 70
    11
 71
     3
 72
    20
 73
    16
 74
     0
 42
0.0000000001
 43
0.0000000001
 40
0.0
 40
0.0
 40
0.0
 40
0.0
 40
0.2
 40
0.2
 40
0.2
 40
0.2
 40
0.4
 40
0.4
 40
0.4
 40
0.4
 40
0.6
 40
0.6
 40
0.6
 40
0.6
 40
1.0
 40
1.0
 40
1.0
 40
1.0
 10
10.4907
 20
29.4619
 30
0.0
 10
11.3432
 20
29.4619
 30
0.0
 10
12.0343
 20
28.7708
 30
0.0
 10
12.0343
 20
27.9183
 30
0.0
 10
12.0343
 20
27.9183
 30
0.0
 10
12.0343
 20
27.0658
 30
0.0
 10
11.3432
 20
26.3747
 30
0.0
 10
10.4907
 20
26.3747
 30
0.0
 10
10.4907
 20
26.3747
 30
0.0
 10
9.6382
 20
26.3747
 30
0.0
 10
8.9471
 20
27.0658
 30
0.0
 10
8.9471
 20
27.9183
 30
0.0
 10
8.9471
 20
27.9183
 30
0.0
 10
8.9471
 20
28.7708
 30
0.0
 10
9.6382
 20
29.4619
 30
0.0
 10
10.4907
 20
29.4619
 30
0.0
  0
SPLINE
  5
60
330
1F
100
AcDbEntity
  8
VRSTVA_1
 62
   250
100
AcDbSpline
210
0.0
220
0.0
230
1.0
 70
    11
 71
     3
 72
    20
 73
    16
 74
     0
 42
0.0000000001
 43
0.0000000001
 40
0.0
 40
0.0
 40
0.0
 40
0.0
 40
0.2
 40
0.2
 40
0.2
 40
0.2
 40
0.4
 40
0.4
 40
0.4
 40
0.4
 40
0.6
 40
0.6
 40
0.6
 40
0.6
 40
1.0
 40
1.0
 40
1.0
 40
1.0
 10
10.4907
 20
28.9062
 30
0.0
 10
11.0363
 20
28.9062
 30
0.0
 10
11.4786
 20
28.4639
 30
0.0
 10
11.4786
 20
27.9183
 30
0.0
 10
11.4786
 20
27.9183
 30
0.0
 10
11.4786
 20
27.3727
 30
0.0
 10
11.0363
 20
26.9304
 30
0.0
 10
10.4907
 20
26.9304
 30
0.0
 10
10.4907
 20
26.9304
 30
0.0
 10
9.9451
 20
26.9304
 30
0.0
 10
9.5028
 20
27.3727
 30
0.0
 10
9.5028
 20
27.9183
 30
0.0
 10
9.5028
 20
27.9183
 30
0.0
 10
9.5028
 20
28.4639
 30
0.0
 10
9.9451
 20
28.9062
 30
0.0
 10
10.4907
 20
28.9062
 30
0.0
  0
SPLINE
  5
61
330
1F
100
AcDbEntity
  8
VRSTVA_1
 62
   250
100
AcDbSpline
210
0.0
220
0.0
230
1.0
 70
     8
 71
     3
 72
    16
 73
    12
 74
     0
 42
0.0000000001
 43
0.0000000001
 40
0.0
 40
0.0
 40
0.0
 40
0.0
 40
0.25
 40
0.25
 40
0.25
 40
0.25
 40
0.5
 40
0.5
 40
0.5
 40
0.5
 40
1.0
 40
1.0
 40
1.0
 40
1.0
 10
10.7774
 20
28.864
 30
0.0
 10
10.7774
 20
29.0282
 30
0.0
 10
10.6385
 20
29.1626
 30
0.0
 10
10.4687
 20
29.1626
 30
0.0
 10
10.4687
 20
29.1626
 30
0.0
 10
10.4687
 20
29.1626
 30
0.0
 10
10.4687
 20
29.1626
 30
0.0
 10
10.4687
 20
29.1626
 30
0.0
 10
10.4687
 20
29.1626
 30
0.0
 10
10.2988
 20
29.1626
 30
0.0
 10
10.1599
 20
29.0282
 30
0.0
 10
10.1599
 20
28.864
 30
0.0
  0
SPLINE
  5
62
330
1F
100
AcDbEntity
  8
VRSTVA_1
 62
   250
100
AcDbSpline
210
0.0
220
0.0
230
1.0
 70
     8
 71
     3
 72
    16
 73
    12
 74
     0
 42
0.0000000001
 43
0.0000000001
 40
0.0
 40
0.0
 40
0.0
 40
0.0
 40
0.25
 40
0.25
 40
0.25
 40
0.25
 40
0.5
 40
0.5
 40
0.5
 40
0.5
 40
1.0
 40
1.0
 40
1.0
 40
1.0
 10
11.4297
 20
27.5878
 30
0.0
 10
11.5939
 20
27.5878
 30
0.0
 10
11.7283
 20
27.7267
 30
0.0
 10
11.7283
 20
27.8966
 30
0.0
 10
11.7283
 20
27.8966
 30
0.0
 10
11.7283
 20
27.8966
 30
0.0
 10
11.7283
 20
27.8966
 30
0.0
 10
11.7283
 20
27.8966
 30
0.0
 10
11.7283
 20
27.8966
 30
0.0
 10
11.7283
 20
28.0664
 30
0.0
 10
11.5939
 20
28.2053
 30
0.0
 10
11.4297
 20
28.2053
 30
0.0
  0
SPLINE
  5
63
330
1F
100
AcDbEntity
  8
VRSTVA_1
 62
   250
100
AcDbSpline
210
0.0
220
0.0
230
1.0
 70
     8
 71
     3
 72
    16
 73
    12
 74
     0
 42
0.0000000001
 43
0.0000000001
 40
0.0
 40
0.0
 40
0.0
 40
0.0
 40
0.25
 40
0.25
 40
0.25
 40
0.25
 40
0.5
 40
0.5
 40
0.5
 40
0.5
 40
1.0
 40
1.0
 40
1.0
 40
1.0
 10
10.2057
 20
26.9832
 30
0.0
 10
10.2057
 20
26.8189
 30
0.0
 10
10.3447
 20
26.6845
 30
0.0
 10
10.5145
 20
26.6845
 30
0.0
 10
10.5145
 20
26.6845
 30
0.0
 10
10.5145
 20
26.6845
 30
0.0
 10
10.5145
 20
26.6845
 30
0.0
 10
10.5145
 20
26.6845
 30
0.0
 10
10.5145
 20
26.6845
 30
0.0
 10
10.6843
 20
26.6845
 30
0.0
 10
10.8232
 20
26.8189
 30
0.0
 10
10.8232
 20
26.9832
 30
0.0
  0
SPLINE
  5
64
330
1F
100
AcDbEntity
  8
VRSTVA_1
 62
   250
100
AcDbSpline
210
0.0
220
0.0
230
1.0
 70
     8
 71
     3
 72
    16
 73
    12
 74
     0
 42
0.0000000001
 43
0.0000000001
 40
0.0
 40
0.0
 40
0.0
 40
0.0
 40
0.25
 40
0.25
 40
0.25
 40
0.25
 40
0.5
 40
0.5
 40
0.5
 40
0.5
 40
1.0
 40
1.0
 40
1.0
 40
1.0
 10
9.5327
 20
28.2053
 30
0.0
 10
9.3684
 20
28.2053
 30
0.0
 10
9.234
 20
28.0664
 30
0.0
 10
9.234
 20
27.8966
 30
0.0
 10
9.234
 20
27.8966
 30
0.0
 10
9.234
 20
27.8966
 30
0.0
 10
9.234
 20
27.8966
 30
0.0
 10
9.234
 20
27.8966
 30
0.0
 10
9.234
 20
27.8966
 30
0.0
 10
9.234
 20
27.7267
 30
0.0
 10
9.3684
 20
27.5878
 30
0.0
 10
9.5327
 20
27.5878
 30
0.0
  0
SPLINE
  5
65
330
1F
100
AcDbEntity
  8
VRSTVA_1
 62
   250
100
AcDbSpline
210
0.0
220
0.0
230
1.0
 70
    11
 71
     3
 72
    48
 73
    44
 74
     0
 42
0.0000000001
 43
0.0000000001
 40
0.0
 40
0.0
 40
0.0
 40
0.0
 40
0.0833333333333333
 40
0.0833333333333333
 40
0.0833333333333333
 40
0.0833333333333333
 40
0.1666666666666667
 40
0.1666666666666667
 40
0.1666666666666667
 40
0.1666666666666667
 40
0.25
 40
0.25
 40
0.25
 40
0.25
 40
0.3333333333333333
 40
0.3333333333333333
 40
0.3333333333333333
 40
0.3333333333333333
 40
0.4166666666666667
 40
0.4166666666666667
 40
0.4166666666666667
 40
0.4166666666666667
 40
0.5
 40
0.5
 40
0.5
 40
0.5
 40
0.5833333333333334
 40
0.5833333333333334
 40
0.5833333333333334
 40
0.5833333333333334
 40
0.6666666666666666
 40
0.6666666666666666
 40
0.6666666666666666
 40
0.6666666666666666
 40
0.75
 40
0.75
 40
0.75
 40
0.75
 40
0.8333333333333334
 40
0.8333333333333334
 40
0.8333333333333334
 40
0.8333333333333334
 40
1.0
 40
1.0
 40
1.0
 40
1.0
 10
-30.7417
 20
2.436
 30
0.0
 10
-30.7417
 20
2.436
 30
0.0
 10
-31.2252
 20
2.436
 30
0.0
 10
-31.2252
 20
2.436
 30
0.0
 10
-31.2252
 20
2.436
 30
0.0
 10
-31.2252
 20
2.436
 30
0.0
 10
-31.2252
 20
1.5597
 30
0.0
 10
-31.2252
 20
1.5597
 30
0.0
 10
-31.2252
 20
1.5597
 30
0.0
 10
-31.2252
 20
1.5597
 30
0.0
 10
-31.4529
 20
1.5597
 30
0.0
 10
-31.4529
 20
1.5597
 30
0.0
 10
-31.4529
 20
1.5597
 30
0.0
 10
-31.4529
 20
1.5597
 30
0.0
 10
-32.7619
 20
2.4817
 30
0.0
 10
-32.7619
 20
2.4817
 30
0.0
 10
-32.7619
 20
2.4817
 30
0.0
 10
-32.7619
 20
2.4817
 30
0.0
 10
-32.7619
 20
2.6844
 30
0.0
 10
-32.7619
 20
2.6844
 30
0.0
 10
-32.7619
 20
2.6844
 30
0.0
 10
-32.7619
 20
2.6844
 30
0.0
 10
-31.4529
 20
2.6844
 30
0.0
 10
-31.4529
 20
2.6844
 30
0.0
 10
-31.4529
 20
2.6844
 30
0.0
 10
-31.4529
 20
2.6844
 30
0.0
 10
-31.4529
 20
2.9572
 30
0.0
 10
-31.4529
 20
2.9572
 30
0.0
 10
-31.4529
 20
2.9572
 30
0.0
 10
-31.4529
 20
2.9572
 30
0.0
 10
-31.2252
 20
2.9572
 30
0.0
 10
-31.2252
 20
2.9572
 30
0.0
 10
-31.2252
 20
2.9572
 30
0.0
 10
-31.2252
 20
2.9572
 30
0.0
 10
-31.2252
 20
2.6844
 30
0.0
 10
-31.2252
 20
2.6844
 30
0.0
 10
-31.2252
 20
2.6844
 30
0.0
 10
-31.2252
 20
2.6844
 30
0.0
 10
-30.7417
 20
2.6844
 30
0.0
 10
-30.7417
 20
2.6844
 30
0.0
 10
-30.7417
 20
2.6844
 30
0.0
 10
-30.7417
 20
2.6844
 30
0.0
 10
-30.7417
 20
2.436
 30
0.0
 10
-30.7417
 20
2.436
 30
0.0
  0
SPLINE
  5
66
330
1F
100
AcDbEntity
  8
VRSTVA_1
 62
   250
100
AcDbSpline
210
0.0
220
0.0
230
1.0
 70
    11
 71
     3
 72
    16
 73
    12
 74
     0
 42
0.0000000001
 43
0.0000000001
 40
0.0
 40
0.0
 40
0.0
 40
0.0
 40
0.25
 40
0.25
 40
0.25
 40
0.25
 40
0.5
 40
0.5
 40
0.5
 40
0.5
 40
1.0
 40
1.0
 40
1.0
 40
1.0
 10
-31.4529
 20
2.436
 30
0.0
 10
-31.4529
 20
2.436
 30
0.0
 10
-32.3635
 20
2.436
 30
0.0
 10
-32.3635
 20
2.436
 30
0.0
 10
-32.3635
 20
2.436
 30
0.0
 10
-32.3635
 20
2.436
 30
0.0
 10
-31.4529
 20
1.8039
 30
0.0
 10
-31.4529
 20
1.8039
 30
0.0
 10
-31.4529
 20
1.8039
 30
0.0
 10
-31.4529
 20
1.8039
 30
0.0
 10
-31.4529
 20
2.436
 30
0.0
 10
-31.4529
 20
2.436
 30
0.0
  0
SPLINE
  5
67
330
1F
100
AcDbEntity
  8
VRSTVA_1
 62
   250
100
AcDbSpline
210
0.0
220
0.0
230
1.0
 70
    11
 71
     3
 72
    48
 73
    44
 74
     0
 42
0.0000000001
 43
0.0000000001
 40
0.0
 40
0.0
 40
0.0
 40
0.0
 40
0.0833333333333333
 40
0.0833333333333333
 40
0.0833333333333333
 40
0.0833333333333333
 40
0.1666666666666667
 40
0.1666666666666667
 40
0.1666666666666667
 40
0.1666666666666667
 40
0.25
 40
0.25
 40
0.25
 40
0.25
 40
0.3333333333333333
 40
0.3333333333333333
 40
0.3333333333333333
 40
0.3333333333333333
 40
0.4166666666666667
 40
0.4166666666666667
 40
0.4166666666666667
 40
0.4166666666666667
 40
0.5
 40
0.5
 40
0.5
 40
0.5
 40
0.5833333333333334
 40
0.5833333333333334
 40
0.5833333333333334
 40
0.5833333333333334
 40
0.6666666666666666
 40
0.6666666666666666
 40
0.6666666666666666
 40
0.6666666666666666
 40
0.75
 40
0.75
 40
0.75
 40
0.75
 40
0.8333333333333334
 40
0.8333333333333334
 40
0.8333333333333334
 40
0.8333333333333334
 40
1.0
 40
1.0
 40
1.0
 40
1.0
 10
-32.4971
 20
3.2272
 30
0.0
 10
-32.4971
 20
3.2272
 30
0.0
 10
-32.7356
 20
3.2272
 30
0.0
 10
-32.7356
 20
3.2272
 30
0.0
 10
-32.7356
 20
3.2272
 30
0.0
 10
-32.7356
 20
3.2272
 30
0.0
 10
-32.7356
 20
4.5348
 30
0.0
 10
-32.7356
 20
4.5348
 30
0.0
 10
-32.7356
 20
4.5348
 30
0.0
 10
-32.7356
 20
4.5348
 30
0.0
 10
-32.5427
 20
4.5348
 30
0.0
 10
-32.5427
 20
4.5348
 30
0.0
 10
-32.5427
 20
4.5348
 30
0.0
 10
-32.4059
 20
4.4064
 30
0.0
 10
-32.2238
 20
4.2789
 30
0.0
 10
-31.9971
 20
4.1524
 30
0.0
 10
-31.9971
 20
4.1524
 30
0.0
 10
-31.7704
 20
4.0263
 30
0.0
 10
-31.5366
 20
3.9285
 30
0.0
 10
-31.2972
 20
3.8598
 30
0.0
 10
-31.2972
 20
3.8598
 30
0.0
 10
-31.1279
 20
3.81
 30
0.0
 10
-30.943
 20
3.7785
 30
0.0
 10
-30.7417
 20
3.7648
 30
0.0
 10
-30.7417
 20
3.7648
 30
0.0
 10
-30.7417
 20
3.7648
 30
0.0
 10
-30.7417
 20
3.5099
 30
0.0
 10
-30.7417
 20
3.5099
 30
0.0
 10
-30.7417
 20
3.5099
 30
0.0
 10
-30.9007
 20
3.5127
 30
0.0
 10
-31.0926
 20
3.5437
 30
0.0
 10
-31.3179
 20
3.6035
 30
0.0
 10
-31.3179
 20
3.6035
 30
0.0
 10
-31.5427
 20
3.6632
 30
0.0
 10
-31.76
 20
3.7488
 30
0.0
 10
-31.9689
 20
3.8603
 30
0.0
 10
-31.9689
 20
3.8603
 30
0.0
 10
-32.1777
 20
3.9722
 30
0.0
 10
-32.3541
 20
4.0908
 30
0.0
 10
-32.4971
 20
4.2168
 30
0.0
 10
-32.4971
 20
4.2168
 30
0.0
 10
-32.4971
 20
4.2168
 30
0.0
 10
-32.4971
 20
3.2272
 30
0.0
 10
-32.4971
 20
3.2272
 30
0.0
  0
SPLINE
  5
68
330
1F
100
AcDbEntity
  8
VRSTVA_1
 62
   250
100
AcDbSpline
210
0.0
220
0.0
230
1.0
 70
    11
 71
     3
 72
    92
 73
    88
 74
     0
 42
0.0000000001
 43
0.0000000001
 40
0.0
 40
0.0
 40
0.0
 40
0.0
 40
0.0434782608695652
 40
0.0434782608695652
 40
0.0434782608695652
 40
0.0434782608695652
 40
0.0869565217391304
 40
0.0869565217391304
 40
0.0869565217391304
 40
0.0869565217391304
 40
0.1304347826086956
 40
0.1304347826086956
 40
0.1304347826086956
 40
0.1304347826086956
 40
0.1739130434782609
 40
0.1739130434782609
 40
0.1739130434782609
 40
0.1739130434782609
 40
0.2173913043478261
 40
0.2173913043478261
 40
0.2173913043478261
 40
0.2173913043478261
 40
0.2608695652173913
 40
0.2608695652173913
 40
0.2608695652173913
 40
0.2608695652173913
 40
0.3043478260869565
 40
0.3043478260869565
 40
0.3043478260869565
 40
0.3043478260869565
 40
0.3478260869565217
 40
0.3478260869565217
 40
0.3478260869565217
 40
0.3478260869565217
 40
0.391304347826087
 40
0.391304347826087
 40
0.391304347826087
 40
0.391304347826087
 40
0.4347826086956522
 40
0.4347826086956522
 40
0.4347826086956522
 40
0.4347826086956522
 40
0.4782608695652174
 40
0.4782608695652174
 40
0.4782608695652174
 40
0.4782608695652174
 40
0.5217391304347826
 40
0.5217391304347826
 40
0.5217391304347826
 40
0.5217391304347826
 40
0.5652173913043478
 40
0.5652173913043478
 40
0.5652173913043478
 40
0.5652173913043478
 40
0.6086956521739131
 40
0.6086956521739131
 40
0.6086956521739131
 40
0.6086956521739131
 40
0.6521739130434783
 40
0.6521739130434783
 40
0.6521739130434783
 40
0.6521739130434783
 40
0.6956521739130435
 40
0.6956521739130435
 40
0.6956521739130435
 40
0.6956521739130435
 40
0.7391304347826086
 40
0.7391304347826086
 40
0.7391304347826086
 40
0.7391304347826086
 40
0.782608695652174
 40
0.782608695652174
 40
0.782608695652174
 40
0.782608695652174
 40
0.8260869565217391
 40
0.8260869565217391
 40
0.8260869565217391
 40
0.8260869565217391
 40
0.8695652173913043
 40
0.8695652173913043
 40
0.8695652173913043
 40
0.8695652173913043
 40
0.9130434782608695
 40
0.9130434782608695
 40
0.9130434782608695
 40
0.9130434782608695
 40
1.0
 40
1.0
 40
1.0
 40
1.0
 10
-31.2709
 20
4.7803
 30
0.0
 10
-31.2709
 20
4.7803
 30
0.0
 10
-31.293
 20
5.0409
 30
0.0
 10
-31.293
 20
5.0409
 30
0.0
 10
-31.293
 20
5.0409
 30
0.0
 10
-31.166
 20
5.0602
 30
0.0
 10
-31.071
 20
5.1049
 30
0.0
 10
-31.007
 20
5.175
 30
0.0
 10
-31.007
 20
5.175
 30
0.0
 10
-30.943
 20
5.2455
 30
0.0
 10
-30.911
 20
5.3302
 30
0.0
 10
-30.911
 20
5.4294
 30
0.0
 10
-30.911
 20
5.4294
 30
0.0
 10
-30.911
 20
5.5489
 30
0.0
 10
-30.9562
 20
5.65
 30
0.0
 10
-31.046
 20
5.7323
 30
0.0
 10
-31.046
 20
5.7323
 30
0.0
 10
-31.1363
 20
5.8151
 30
0.0
 10
-31.2558
 20
5.8565
 30
0.0
 10
-31.4044
 20
5.8565
 30
0.0
 10
-31.4044
 20
5.8565
 30
0.0
 10
-31.546
 20
5.8565
 30
0.0
 10
-31.6575
 20
5.817
 30
0.0
 10
-31.7393
 20
5.7375
 30
0.0
 10
-31.7393
 20
5.7375
 30
0.0
 10
-31.8212
 20
5.658
 30
0.0
 10
-31.8621
 20
5.5541
 30
0.0
 10
-31.8621
 20
5.4252
 30
0.0
 10
-31.8621
 20
5.4252
 30
0.0
 10
-31.8621
 20
5.3452
 30
0.0
 10
-31.8438
 20
5.2733
 30
0.0
 10
-31.8076
 20
5.2088
 30
0.0
 10
-31.8076
 20
5.2088
 30
0.0
 10
-31.7713
 20
5.1444
 30
0.0
 10
-31.7243
 20
5.0941
 30
0.0
 10
-31.6664
 20
5.0574
 30
0.0
 10
-31.6664
 20
5.0574
 30
0.0
 10
-31.6664
 20
5.0574
 30
0.0
 10
-31.6965
 20
4.8245
 30
0.0
 10
-31.6965
 20
4.8245
 30
0.0
 10
-31.6965
 20
4.8245
 30
0.0
 10
-31.6965
 20
4.8245
 30
0.0
 10
-32.7342
 20
5.0202
 30
0.0
 10
-32.7342
 20
5.0202
 30
0.0
 10
-32.7342
 20
5.0202
 30
0.0
 10
-32.7342
 20
5.0202
 30
0.0
 10
-32.7342
 20
6.0249
 30
0.0
 10
-32.7342
 20
6.0249
 30
0.0
 10
-32.7342
 20
6.0249
 30
0.0
 10
-32.7342
 20
6.0249
 30
0.0
 10
-32.4971
 20
6.0249
 30
0.0
 10
-32.4971
 20
6.0249
 30
0.0
 10
-32.4971
 20
6.0249
 30
0.0
 10
-32.4971
 20
6.0249
 30
0.0
 10
-32.4971
 20
5.2187
 30
0.0
 10
-32.4971
 20
5.2187
 30
0.0
 10
-32.4971
 20
5.2187
 30
0.0
 10
-32.4971
 20
5.2187
 30
0.0
 10
-31.9543
 20
5.1096
 30
0.0
 10
-31.9543
 20
5.1096
 30
0.0
 10
-31.9543
 20
5.1096
 30
0.0
 10
-32.039
 20
5.2309
 30
0.0
 10
-32.0813
 20
5.3584
 30
0.0
 10
-32.0813
 20
5.4915
 30
0.0
 10
-32.0813
 20
5.4915
 30
0.0
 10
-32.0813
 20
5.6679
 30
0.0
 10
-32.0202
 20
5.8165
 30
0.0
 10
-31.8979
 20
5.9379
 30
0.0
 10
-31.8979
 20
5.9379
 30
0.0
 10
-31.7756
 20
6.0592
 30
0.0
 10
-31.6185
 20
6.1199
 30
0.0
 10
-31.4266
 20
6.1199
 30
0.0
 10
-31.4266
 20
6.1199
 30
0.0
 10
-31.2436
 20
6.1199
 30
0.0
 10
-31.0855
 20
6.0663
 30
0.0
 10
-30.9524
 20
5.96
 30
0.0
 10
-30.9524
 20
5.96
 30
0.0
 10
-30.7892
 20
5.8302
 30
0.0
 10
-30.7074
 20
5.6533
 30
0.0
 10
-30.7074
 20
5.4294
 30
0.0
 10
-30.7074
 20
5.4294
 30
0.0
 10
-30.7074
 20
5.2455
 30
0.0
 10
-30.7586
 20
5.0955
 30
0.0
 10
-30.8616
 20
4.9793
 30
0.0
 10
-30.8616
 20
4.9793
 30
0.0
 10
-30.9647
 20
4.8631
 30
0.0
 10
-31.1011
 20
4.7968
 30
0.0
 10
-31.2709
 20
4.7803
 30
0.0
  0
SPLINE
  5
69
330
1F
100
AcDbEntity
  8
VRSTVA_1
 62
   250
100
AcDbSpline
210
0.0
220
0.0
230
1.0
 70
    11
 71
     3
 72
    20
 73
    16
 74
     0
 42
0.0000000001
 43
0.0000000001
 40
0.0
 40
0.0
 40
0.0
 40
0.0
 40
0.2
 40
0.2
 40
0.2
 40
0.2
 40
0.4
 40
0.4
 40
0.4
 40
0.4
 40
0.6
 40
0.6
 40
0.6
 40
0.6
 40
1.0
 40
1.0
 40
1.0
 40
1.0
 10
-30.1144
 20
-30.2339
 30
0.0
 10
-30.1144
 20
-30.2339
 30
0.0
 10
-29.7948
 20
-28.0454
 30
0.0
 10
-29.7948
 20
-28.0454
 30
0.0
 10
-29.7948
 20
-28.0454
 30
0.0
 10
-29.7948
 20
-28.0454
 30
0.0
 10
-30.5002
 20
-28.0454
 30
0.0
 10
-30.5002
 20
-28.0454
 30
0.0
 10
-30.5002
 20
-28.0454
 30
0.0
 10
-30.5002
 20
-28.0454
 30
0.0
 10
-30.1153
 20
-30.2339
 30
0.0
 10
-30.1153
 20
-30.2339
 30
0.0
 10
-30.1153
 20
-30.2339
 30
0.0
 10
-30.1153
 20
-30.2339
 30
0.0
 10
-30.1144
 20
-30.2339
 30
0.0
 10
-30.1144
 20
-30.2339
 30
0.0
  0
SPLINE
  5
6A
330
1F
100
AcDbEntity
  8
VRSTVA_1
 62
   250
100
AcDbSpline
210
0.0
220
0.0
230
1.0
 70
    11
 71
     3
 72
    20
 73
    16
 74
     0
 42
0.0000000001
 43
0.0000000001
 40
0.0
 40
0.0
 40
0.0
 40
0.0
 40
0.2
 40
0.2
 40
0.2
 40
0.2
 40
0.4
 40
0.4
 40
0.4
 40
0.4
 40
0.6
 40
0.6
 40
0.6
 40
0.6
 40
1.0
 40
1.0
 40
1.0
 40
1.0
 10
-30.1306
 20
28.4461
 30
0.0
 10
-30.1306
 20
28.4461
 30
0.0
 10
-30.4501
 20
26.2576
 30
0.0
 10
-30.4501
 20
26.2576
 30
0.0
 10
-30.4501
 20
26.2576
 30
0.0
 10
-30.4501
 20
26.2576
 30
0.0
 10
-29.7447
 20
26.2576
 30
0.0
 10
-29.7447
 20
26.2576
 30
0.0
 10
-29.7447
 20
26.2576
 30
0.0
 10
-29.7447
 20
26.2576
 30
0.0
 10
-30.1296
 20
28.4461
 30
0.0
 10
-30.1296
 20
28.4461
 30
0.0
 10
-30.1296
 20
28.4461
 30
0.0
 10
-30.1296
 20
28.4461
 30
0.0
 10
-30.1306
 20
28.4461
 30
0.0
 10
-30.1306
 20
28.4461
 30
0.0
  0
SPLINE
  5
6B
330
1F
100
AcDbEntity
  8
VRSTVA_1
 62
   250
100
AcDbSpline
210
0.0
220
0.0
230
1.0
 70
    24
 71
     3
 72
     8
 73
     4
 74
     0
 42
0.0000000001
 43
0.0000000001
 40
0.0
 40
0.0
 40
0.0
 40
0.0
 40
1.0
 40
1.0
 40
1.0
 40
1.0
 10
-30.1207
 20
27.7275
 30
0.0
 10
-30.1207
 20
27.7275
 30
0.0
 10
-30.1207
 20
-29.6649
 30
0.0
 10
-30.1207
 20
-29.6649
 30
0.0
  0
SPLINE
  5
6C
330
1F
100
AcDbEntity
  8
VRSTVA_1
 62
   250
100
AcDbSpline
210
0.0
220
0.0
230
1.0
 70
    24
 71
     3
 72
     8
 73
     4
 74
     0
 42
0.0000000001
 43
0.0000000001
 40
0.0
 40
0.0
 40
0.0
 40
0.0
 40
1.0
 40
1.0
 40
1.0
 40
1.0
 10
-5.0798
 20
-30.3319
 30
0.0
 10
-5.0798
 20
-30.3319
 30
0.0
 10
-30.5406
 20
-30.3319
 30
0.0
 10
-30.5406
 20
-30.3319
 30
0.0
  0
SPLINE
  5
6D
330
1F
100
AcDbEntity
  8
VRSTVA_1
 62
   250
100
AcDbSpline
210
0.0
220
0.0
230
1.0
 70
    24
 71
     3
 72
     8
 73
     4
 74
     0
 42
0.0000000001
 43
0.0000000001
 40
0.0
 40
0.0
 40
0.0
 40
0.0
 40
1.0
 40
1.0
 40
1.0
 40
1.0
 10
-14.5323
 20
28.5187
 30
0.0
 10
-14.5323
 20
28.5187
 30
0.0
 10
-30.6071
 20
28.5187
 30
0.0
 10
-30.6071
 20
28.5187
 30
0.0
  0
SPLINE
  5
6E
330
1F
100
AcDbEntity
  8
VRSTVA_1
 62
   250
100
AcDbSpline
210
0.0
220
0.0
230
1.0
 70
    11
 71
     3
 72
    20
 73
    16
 74
     0
 42
0.0000000001
 43
0.0000000001
 40
0.0
 40
0.0
 40
0.0
 40
0.0
 40
0.2
 40
0.2
 40
0.2
 40
0.2
 40
0.4
 40
0.4
 40
0.4
 40
0.4
 40
0.6
 40
0.6
 40
0.6
 40
0.6
 40
1.0
 40
1.0
 40
1.0
 40
1.0
 10
-24.9241
 20
-17.8772
 30
0.0
 10
-24.9241
 20
-17.8772
 30
0.0
 10
-24.6045
 20
-15.6886
 30
0.0
 10
-24.6045
 20
-15.6886
 30
0.0
 10
-24.6045
 20
-15.6886
 30
0.0
 10
-24.6045
 20
-15.6886
 30
0.0
 10
-25.3099
 20
-15.6886
 30
0.0
 10
-25.3099
 20
-15.6886
 30
0.0
 10
-25.3099
 20
-15.6886
 30
0.0
 10
-25.3099
 20
-15.6886
 30
0.0
 10
-24.9251
 20
-17.8772
 30
0.0
 10
-24.9251
 20
-17.8772
 30
0.0
 10
-24.9251
 20
-17.8772
 30
0.0
 10
-24.9251
 20
-17.8772
 30
0.0
 10
-24.9241
 20
-17.8772
 30
0.0
 10
-24.9241
 20
-17.8772
 30
0.0
  0
SPLINE
  5
6F
330
1F
100
AcDbEntity
  8
VRSTVA_1
 62
   250
100
AcDbSpline
210
0.0
220
0.0
230
1.0
 70
    11
 71
     3
 72
    20
 73
    16
 74
     0
 42
0.0000000001
 43
0.0000000001
 40
0.0
 40
0.0
 40
0.0
 40
0.0
 40
0.2
 40
0.2
 40
0.2
 40
0.2
 40
0.4
 40
0.4
 40
0.4
 40
0.4
 40
0.6
 40
0.6
 40
0.6
 40
0.6
 40
1.0
 40
1.0
 40
1.0
 40
1.0
 10
-24.9092
 20
17.268
 30
0.0
 10
-24.9092
 20
17.268
 30
0.0
 10
-25.2288
 20
15.0794
 30
0.0
 10
-25.2288
 20
15.0794
 30
0.0
 10
-25.2288
 20
15.0794
 30
0.0
 10
-25.2288
 20
15.0794
 30
0.0
 10
-24.5234
 20
15.0794
 30
0.0
 10
-24.5234
 20
15.0794
 30
0.0
 10
-24.5234
 20
15.0794
 30
0.0
 10
-24.5234
 20
15.0794
 30
0.0
 10
-24.9082
 20
17.268
 30
0.0
 10
-24.9082
 20
17.268
 30
0.0
 10
-24.9082
 20
17.268
 30
0.0
 10
-24.9082
 20
17.268
 30
0.0
 10
-24.9092
 20
17.268
 30
0.0
 10
-24.9092
 20
17.268
 30
0.0
  0
SPLINE
  5
70
330
1F
100
AcDbEntity
  8
VRSTVA_1
 62
   250
100
AcDbSpline
210
0.0
220
0.0
230
1.0
 70
    24
 71
     3
 72
     8
 73
     4
 74
     0
 42
0.0000000001
 43
0.0000000001
 40
0.0
 40
0.0
 40
0.0
 40
0.0
 40
1.0
 40
1.0
 40
1.0
 40
1.0
 10
-24.9189
 20
16.6686
 30
0.0
 10
-24.9189
 20
16.6686
 30
0.0
 10
-24.9189
 20
-17.3605
 30
0.0
 10
-24.9189
 20
-17.3605
 30
0.0
  0
SPLINE
  5
71
330
1F
100
AcDbEntity
  8
VRSTVA_1
 62
   250
100
AcDbSpline
210
0.0
220
0.0
230
1.0
 70
    24
 71
     3
 72
     8
 73
     4
 74
     0
 42
0.0000000001
 43
0.0000000001
 40
0.0
 40
0.0
 40
0.0
 40
0.0
 40
1.0
 40
1.0
 40
1.0
 40
1.0
 10
0.5907
 20
-17.8619
 30
0.0
 10
0.5907
 20
-17.8619
 30
0.0
 10
-25.449
 20
-17.8619
 30
0.0
 10
-25.449
 20
-17.8619
 30
0.0
  0
SPLINE
  5
72
330
1F
100
AcDbEntity
  8
VRSTVA_1
 62
   250
100
AcDbSpline
210
0.0
220
0.0
230
1.0
 70
    24
 71
     3
 72
     8
 73
     4
 74
     0
 42
0.0000000001
 43
0.0000000001
 40
0.0
 40
0.0
 40
0.0
 40
0.0
 40
1.0
 40
1.0
 40
1.0
 40
1.0
 10
-0.3233
 20
17.3311
 30
0.0
 10
-0.3233
 20
17.3311
 30
0.0
 10
-25.6045
 20
17.3311
 30
0.0
 10
-25.6045
 20
17.3311
 30
0.0
  0
SPLINE
  5
73
330
1F
100
AcDbEntity
  8
VRSTVA_1
 62
   250
100
AcDbSpline
210
0.0
220
0.0
230
1.0
 70
    11
 71
     3
 72
   124
 73
   120
 74
     0
 42
0.0000000001
 43
0.0000000001
 40
0.0
 40
0.0
 40
0.0
 40
0.0
 40
0.032258064516129
 40
0.032258064516129
 40
0.032258064516129
 40
0.032258064516129
 40
0.0645161290322581
 40
0.0645161290322581
 40
0.0645161290322581
 40
0.0645161290322581
 40
0.0967741935483871
 40
0.0967741935483871
 40
0.0967741935483871
 40
0.0967741935483871
 40
0.1290322580645161
 40
0.1290322580645161
 40
0.1290322580645161
 40
0.1290322580645161
 40
0.1612903225806452
 40
0.1612903225806452
 40
0.1612903225806452
 40
0.1612903225806452
 40
0.1935483870967742
 40
0.1935483870967742
 40
0.1935483870967742
 40
0.1935483870967742
 40
0.2258064516129032
 40
0.2258064516129032
 40
0.2258064516129032
 40
0.2258064516129032
 40
0.2580645161290323
 40
0.2580645161290323
 40
0.2580645161290323
 40
0.2580645161290323
 40
0.2903225806451613
 40
0.2903225806451613
 40
0.2903225806451613
 40
0.2903225806451613
 40
0.3225806451612903
 40
0.3225806451612903
 40
0.3225806451612903
 40
0.3225806451612903
 40
0.3548387096774194
 40
0.3548387096774194
 40
0.3548387096774194
 40
0.3548387096774194
 40
0.3870967741935484
 40
0.3870967741935484
 40
0.3870967741935484
 40
0.3870967741935484
 40
0.4193548387096774
 40
0.4193548387096774
 40
0.4193548387096774
 40
0.4193548387096774
 40
0.4516129032258064
 40
0.4516129032258064
 40
0.4516129032258064
 40
0.4516129032258064
 40
0.4838709677419355
 40
0.4838709677419355
 40
0.4838709677419355
 40
0.4838709677419355
 40
0.5161290322580645
 40
0.5161290322580645
 40
0.5161290322580645
 40
0.5161290322580645
 40
0.5483870967741935
 40
0.5483870967741935
 40
0.5483870967741935
 40
0.5483870967741935
 40
0.5806451612903226
 40
0.5806451612903226
 40
0.5806451612903226
 40
0.5806451612903226
 40
0.6129032258064516
 40
0.6129032258064516
 40
0.6129032258064516
 40
0.6129032258064516
 40
0.6451612903225806
 40
0.6451612903225806
 40
0.6451612903225806
 40
0.6451612903225806
 40
0.6774193548387096
 40
0.6774193548387096
 40
0.6774193548387096
 40
0.6774193548387096
 40
0.7096774193548387
 40
0.7096774193548387
 40
0.7096774193548387
 40
0.7096774193548387
 40
0.7419354838709677
 40
0.7419354838709677
 40
0.7419354838709677
 40
0.7419354838709677
 40
0.7741935483870968
 40
0.7741935483870968
 40
0.7741935483870968
 40
0.7741935483870968
 40
0.8064516129032258
 40
0.8064516129032258
 40
0.8064516129032258
 40
0.8064516129032258
 40
0.8387096774193549
 40
0.8387096774193549
 40
0.8387096774193549
 40
0.8387096774193549
 40
0.8709677419354839
 40
0.8709677419354839
 40
0.8709677419354839
 40
0.8709677419354839
 40
0.9032258064516129
 40
0.9032258064516129
 40
0.9032258064516129
 40
0.9032258064516129
 40
0.9354838709677419
 40
0.9354838709677419
 40
0.9354838709677419
 40
0.9354838709677419
 40
1.0
 40
1.0
 40
1.0
 40
1.0
 10
-25.8584
 20
-1.5553
 30
0.0
 10
-25.8584
 20
-1.5553
 30
0.0
 10
-25.8913
 20
-1.3074
 30
0.0
 10
-25.8913
 20
-1.3074
 30
0.0
 10
-25.8913
 20
-1.3074
 30
0.0
 10
-25.7507
 20
-1.2787
 30
0.0
 10
-25.6496
 20
-1.2302
 30
0.0
 10
-25.5875
 20
-1.162
 30
0.0
 10
-25.5875
 20
-1.162
 30
0.0
 10
-25.5254
 20
-1.0934
 30
0.0
 10
-25.4943
 20
-1.0101
 30
0.0
 10
-25.4943
 20
-0.9118
 30
0.0
 10
-25.4943
 20
-0.9118
 30
0.0
 10
-25.4943
 20
-0.7952
 30
0.0
 10
-25.5348
 20
-0.6964
 30
0.0
 10
-25.6157
 20
-0.6159
 30
0.0
 10
-25.6157
 20
-0.6159
 30
0.0
 10
-25.6966
 20
-0.536
 30
0.0
 10
-25.7968
 20
-0.4955
 30
0.0
 10
-25.9163
 20
-0.4955
 30
0.0
 10
-25.9163
 20
-0.4955
 30
0.0
 10
-26.0301
 20
-0.4955
 30
0.0
 10
-26.1242
 20
-0.5327
 30
0.0
 10
-26.198
 20
-0.607
 30
0.0
 10
-26.198
 20
-0.607
 30
0.0
 10
-26.2718
 20
-0.6818
 30
0.0
 10
-26.309
 20
-0.7763
 30
0.0
 10
-26.309
 20
-0.8911
 30
0.0
 10
-26.309
 20
-0.8911
 30
0.0
 10
-26.309
 20
-0.9381
 30
0.0
 10
-26.2996
 20
-0.9965
 30
0.0
 10
-26.2813
 20
-1.0661
 30
0.0
 10
-26.2813
 20
-1.0661
 30
0.0
 10
-26.2813
 20
-1.0661
 30
0.0
 10
-26.499
 20
-1.0383
 30
0.0
 10
-26.499
 20
-1.0383
 30
0.0
 10
-26.499
 20
-1.0383
 30
0.0
 10
-26.4972
 20
-1.0219
 30
0.0
 10
-26.4962
 20
-1.0087
 30
0.0
 10
-26.4962
 20
-0.9984
 30
0.0
 10
-26.4962
 20
-0.9984
 30
0.0
 10
-26.4962
 20
-0.893
 30
0.0
 10
-26.524
 20
-0.798
 30
0.0
 10
-26.579
 20
-0.7133
 30
0.0
 10
-26.579
 20
-0.7133
 30
0.0
 10
-26.634
 20
-0.6286
 30
0.0
 10
-26.7192
 20
-0.5863
 30
0.0
 10
-26.8339
 20
-0.5863
 30
0.0
 10
-26.8339
 20
-0.5863
 30
0.0
 10
-26.9247
 20
-0.5863
 30
0.0
 10
-27.0004
 20
-0.6174
 30
0.0
 10
-27.0597
 20
-0.679
 30
0.0
 10
-27.0597
 20
-0.679
 30
0.0
 10
-27.1194
 20
-0.7406
 30
0.0
 10
-27.1496
 20
-0.8201
 30
0.0
 10
-27.1496
 20
-0.9175
 30
0.0
 10
-27.1496
 20
-0.9175
 30
0.0
 10
-27.1496
 20
-1.0139
 30
0.0
 10
-27.119
 20
-1.0943
 30
0.0
 10
-27.0588
 20
-1.1583
 30
0.0
 10
-27.0588
 20
-1.1583
 30
0.0
 10
-26.9981
 20
-1.2227
 30
0.0
 10
-26.9068
 20
-1.2641
 30
0.0
 10
-26.7855
 20
-1.2825
 30
0.0
 10
-26.7855
 20
-1.2825
 30
0.0
 10
-26.7855
 20
-1.2825
 30
0.0
 10
-26.8297
 20
-1.5303
 30
0.0
 10
-26.8297
 20
-1.5303
 30
0.0
 10
-26.8297
 20
-1.5303
 30
0.0
 10
-26.9962
 20
-1.5002
 30
0.0
 10
-27.1251
 20
-1.4311
 30
0.0
 10
-27.2163
 20
-1.3238
 30
0.0
 10
-27.2163
 20
-1.3238
 30
0.0
 10
-27.3076
 20
-1.2161
 30
0.0
 10
-27.3537
 20
-1.0825
 30
0.0
 10
-27.3537
 20
-0.9226
 30
0.0
 10
-27.3537
 20
-0.9226
 30
0.0
 10
-27.3537
 20
-0.8126
 30
0.0
 10
-27.3297
 20
-0.711
 30
0.0
 10
-27.2827
 20
-0.6183
 30
0.0
 10
-27.2827
 20
-0.6183
 30
0.0
 10
-27.2352
 20
-0.5256
 30
0.0
 10
-27.1707
 20
-0.4546
 30
0.0
 10
-27.0889
 20
-0.4052
 30
0.0
 10
-27.0889
 20
-0.4052
 30
0.0
 10
-27.007
 20
-0.3563
 30
0.0
 10
-26.9205
 20
-0.3314
 30
0.0
 10
-26.8283
 20
-0.3314
 30
0.0
 10
-26.8283
 20
-0.3314
 30
0.0
 10
-26.7413
 20
-0.3314
 30
0.0
 10
-26.6618
 20
-0.3549
 30
0.0
 10
-26.5898
 20
-0.4019
 30
0.0
 10
-26.5898
 20
-0.4019
 30
0.0
 10
-26.5183
 20
-0.449
 30
0.0
 10
-26.4614
 20
-0.5181
 30
0.0
 10
-26.4191
 20
-0.6098
 30
0.0
 10
-26.4191
 20
-0.6098
 30
0.0
 10
-26.3918
 20
-0.4904
 30
0.0
 10
-26.3344
 20
-0.3977
 30
0.0
 10
-26.2474
 20
-0.3314
 30
0.0
 10
-26.2474
 20
-0.3314
 30
0.0
 10
-26.1608
 20
-0.2655
 30
0.0
 10
-26.0522
 20
-0.2326
 30
0.0
 10
-25.9219
 20
-0.2326
 30
0.0
 10
-25.9219
 20
-0.2326
 30
0.0
 10
-25.7455
 20
-0.2326
 30
0.0
 10
-25.5959
 20
-0.2966
 30
0.0
 10
-25.4732
 20
-0.4254
 30
0.0
 10
-25.4732
 20
-0.4254
 30
0.0
 10
-25.3504
 20
-0.5539
 30
0.0
 10
-25.2893
 20
-0.7166
 30
0.0
 10
-25.2893
 20
-0.9132
 30
0.0
 10
-25.2893
 20
-0.9132
 30
0.0
 10
-25.2893
 20
-1.0905
 30
0.0
 10
-25.3419
 20
-1.2378
 30
0.0
 10
-25.4478
 20
-1.3549
 30
0.0
 10
-25.4478
 20
-1.3549
 30
0.0
 10
-25.5531
 20
-1.472
 30
0.0
 10
-25.69
 20
-1.5388
 30
0.0
 10
-25.8584
 20
-1.5553
 30
0.0
  0
SPLINE
  5
74
330
1F
100
AcDbEntity
  8
VRSTVA_1
 62
   250
100
AcDbSpline
210
0.0
220
0.0
230
1.0
 70
    11
 71
     3
 72
    52
 73
    48
 74
     0
 42
0.0000000001
 43
0.0000000001
 40
0.0
 40
0.0
 40
0.0
 40
0.0
 40
0.0769230769230769
 40
0.0769230769230769
 40
0.0769230769230769
 40
0.0769230769230769
 40
0.1538461538461539
 40
0.1538461538461539
 40
0.1538461538461539
 40
0.1538461538461539
 40
0.2307692307692308
 40
0.2307692307692308
 40
0.2307692307692308
 40
0.2307692307692308
 40
0.3076923076923077
 40
0.3076923076923077
 40
0.3076923076923077
 40
0.3076923076923077
 40
0.3846153846153846
 40
0.3846153846153846
 40
0.3846153846153846
 40
0.3846153846153846
 40
0.4615384615384616
 40
0.4615384615384616
 40
0.4615384615384616
 40
0.4615384615384616
 40
0.5384615384615384
 40
0.5384615384615384
 40
0.5384615384615384
 40
0.5384615384615384
 40
0.6153846153846154
 40
0.6153846153846154
 40
0.6153846153846154
 40
0.6153846153846154
 40
0.6923076923076923
 40
0.6923076923076923
 40
0.6923076923076923
 40
0.6923076923076923
 40
0.7692307692307693
 40
0.7692307692307693
 40
0.7692307692307693
 40
0.7692307692307693
 40
0.8461538461538461
 40
0.8461538461538461
 40
0.8461538461538461
 40
0.8461538461538461
 40
1.0
 40
1.0
 40
1.0
 40
1.0
 10
-26.3212
 20
0.0129
 30
0.0
 10
-26.5602
 20
0.0129
 30
0.0
 10
-26.7526
 20
0.0374
 30
0.0
 10
-26.8979
 20
0.0868
 30
0.0
 10
-26.8979
 20
0.0868
 30
0.0
 10
-27.0437
 20
0.1357
 30
0.0
 10
-27.1561
 20
0.2091
 30
0.0
 10
-27.2352
 20
0.306
 30
0.0
 10
-27.2352
 20
0.306
 30
0.0
 10
-27.3142
 20
0.4029
 30
0.0
 10
-27.3537
 20
0.5247
 30
0.0
 10
-27.3537
 20
0.6714
 30
0.0
 10
-27.3537
 20
0.6714
 30
0.0
 10
-27.3537
 20
0.7801
 30
0.0
 10
-27.3316
 20
0.8751
 30
0.0
 10
-27.2878
 20
0.9569
 30
0.0
 10
-27.2878
 20
0.9569
 30
0.0
 10
-27.2446
 20
1.0388
 30
0.0
 10
-27.1815
 20
1.1061
 30
0.0
 10
-27.0992
 20
1.1597
 30
0.0
 10
-27.0992
 20
1.1597
 30
0.0
 10
-27.0169
 20
1.2128
 30
0.0
 10
-26.9167
 20
1.2547
 30
0.0
 10
-26.7987
 20
1.2848
 30
0.0
 10
-26.7987
 20
1.2848
 30
0.0
 10
-26.6806
 20
1.3154
 30
0.0
 10
-26.5216
 20
1.3304
 30
0.0
 10
-26.3212
 20
1.3304
 30
0.0
 10
-26.3212
 20
1.3304
 30
0.0
 10
-26.0842
 20
1.3304
 30
0.0
 10
-25.8932
 20
1.306
 30
0.0
 10
-25.7474
 20
1.2575
 30
0.0
 10
-25.7474
 20
1.2575
 30
0.0
 10
-25.6016
 20
1.2086
 30
0.0
 10
-25.4892
 20
1.1357
 30
0.0
 10
-25.4097
 20
1.0388
 30
0.0
 10
-25.4097
 20
1.0388
 30
0.0
 10
-25.3302
 20
0.9419
 30
0.0
 10
-25.2907
 20
0.8196
 30
0.0
 10
-25.2907
 20
0.6714
 30
0.0
 10
-25.2907
 20
0.6714
 30
0.0
 10
-25.2907
 20
0.4767
 30
0.0
 10
-25.3603
 20
0.3238
 30
0.0
 10
-25.5
 20
0.2128
 30
0.0
 10
-25.5
 20
0.2128
 30
0.0
 10
-25.6679
 20
0.0797
 30
0.0
 10
-25.9421
 20
0.0129
 30
0.0
 10
-26.3212
 20
0.0129
 30
0.0
  0
SPLINE
  5
75
330
1F
100
AcDbEntity
  8
VRSTVA_1
 62
   250
100
AcDbSpline
210
0.0
220
0.0
230
1.0
 70
    11
 71
     3
 72
    36
 73
    32
 74
     0
 42
0.0000000001
 43
0.0000000001
 40
0.0
 40
0.0
 40
0.0
 40
0.0
 40
0.1111111111111111
 40
0.1111111111111111
 40
0.1111111111111111
 40
0.1111111111111111
 40
0.2222222222222222
 40
0.2222222222222222
 40
0.2222222222222222
 40
0.2222222222222222
 40
0.3333333333333333
 40
0.3333333333333333
 40
0.3333333333333333
 40
0.3333333333333333
 40
0.4444444444444444
 40
0.4444444444444444
 40
0.4444444444444444
 40
0.4444444444444444
 40
0.5555555555555556
 40
0.5555555555555556
 40
0.5555555555555556
 40
0.5555555555555556
 40
0.6666666666666666
 40
0.6666666666666666
 40
0.6666666666666666
 40
0.6666666666666666
 40
0.7777777777777778
 40
0.7777777777777778
 40
0.7777777777777778
 40
0.7777777777777778
 40
1.0
 40
1.0
 40
1.0
 40
1.0
 10
-26.3212
 20
0.2679
 30
0.0
 10
-25.9896
 20
0.2679
 30
0.0
 10
-25.769
 20
0.3069
 30
0.0
 10
-25.659
 20
0.3845
 30
0.0
 10
-25.659
 20
0.3845
 30
0.0
 10
-25.5494
 20
0.4621
 30
0.0
 10
-25.4943
 20
0.5576
 30
0.0
 10
-25.4943
 20
0.6714
 30
0.0
 10
-25.4943
 20
0.6714
 30
0.0
 10
-25.4943
 20
0.7857
 30
0.0
 10
-25.5498
 20
0.8812
 30
0.0
 10
-25.6599
 20
0.9588
 30
0.0
 10
-25.6599
 20
0.9588
 30
0.0
 10
-25.77
 20
1.0364
 30
0.0
 10
-25.9906
 20
1.0755
 30
0.0
 10
-26.3212
 20
1.0755
 30
0.0
 10
-26.3212
 20
1.0755
 30
0.0
 10
-26.6538
 20
1.0755
 30
0.0
 10
-26.8749
 20
1.0364
 30
0.0
 10
-26.984
 20
0.9588
 30
0.0
 10
-26.984
 20
0.9588
 30
0.0
 10
-27.0936
 20
0.8812
 30
0.0
 10
-27.1481
 20
0.7848
 30
0.0
 10
-27.1481
 20
0.6691
 30
0.0
 10
-27.1481
 20
0.6691
 30
0.0
 10
-27.1481
 20
0.5548
 30
0.0
 10
-27.0997
 20
0.464
 30
0.0
 10
-27.0033
 20
0.3958
 30
0.0
 10
-27.0033
 20
0.3958
 30
0.0
 10
-26.8805
 20
0.3107
 30
0.0
 10
-26.6528
 20
0.2679
 30
0.0
 10
-26.3212
 20
0.2679
 30
0.0
  0
SPLINE
  5
76
330
1F
100
AcDbEntity
  8
VRSTVA_1
 62
   250
100
AcDbSpline
210
0.0
220
0.0
230
1.0
 70
    11
 71
     3
 72
    52
 73
    48
 74
     0
 42
0.0000000001
 43
0.0000000001
 40
0.0
 40
0.0
 40
0.0
 40
0.0
 40
0.0769230769230769
 40
0.0769230769230769
 40
0.0769230769230769
 40
0.0769230769230769
 40
0.1538461538461539
 40
0.1538461538461539
 40
0.1538461538461539
 40
0.1538461538461539
 40
0.2307692307692308
 40
0.2307692307692308
 40
0.2307692307692308
 40
0.2307692307692308
 40
0.3076923076923077
 40
0.3076923076923077
 40
0.3076923076923077
 40
0.3076923076923077
 40
0.3846153846153846
 40
0.3846153846153846
 40
0.3846153846153846
 40
0.3846153846153846
 40
0.4615384615384616
 40
0.4615384615384616
 40
0.4615384615384616
 40
0.4615384615384616
 40
0.5384615384615384
 40
0.5384615384615384
 40
0.5384615384615384
 40
0.5384615384615384
 40
0.6153846153846154
 40
0.6153846153846154
 40
0.6153846153846154
 40
0.6153846153846154
 40
0.6923076923076923
 40
0.6923076923076923
 40
0.6923076923076923
 40
0.6923076923076923
 40
0.7692307692307693
 40
0.7692307692307693
 40
0.7692307692307693
 40
0.7692307692307693
 40
0.8461538461538461
 40
0.8461538461538461
 40
0.8461538461538461
 40
0.8461538461538461
 40
1.0
 40
1.0
 40
1.0
 40
1.0
 10
-26.3212
 20
1.5825
 30
0.0
 10
-26.5602
 20
1.5825
 30
0.0
 10
-26.7526
 20
1.607
 30
0.0
 10
-26.8979
 20
1.6564
 30
0.0
 10
-26.8979
 20
1.6564
 30
0.0
 10
-27.0437
 20
1.7053
 30
0.0
 10
-27.1561
 20
1.7787
 30
0.0
 10
-27.2352
 20
1.8756
 30
0.0
 10
-27.2352
 20
1.8756
 30
0.0
 10
-27.3142
 20
1.9725
 30
0.0
 10
-27.3537
 20
2.0943
 30
0.0
 10
-27.3537
 20
2.241
 30
0.0
 10
-27.3537
 20
2.241
 30
0.0
 10
-27.3537
 20
2.3497
 30
0.0
 10
-27.3316
 20
2.4447
 30
0.0
 10
-27.2878
 20
2.5265
 30
0.0
 10
-27.2878
 20
2.5265
 30
0.0
 10
-27.2446
 20
2.6084
 30
0.0
 10
-27.1815
 20
2.6757
 30
0.0
 10
-27.0992
 20
2.7293
 30
0.0
 10
-27.0992
 20
2.7293
 30
0.0
 10
-27.0169
 20
2.7824
 30
0.0
 10
-26.9167
 20
2.8243
 30
0.0
 10
-26.7987
 20
2.8544
 30
0.0
 10
-26.7987
 20
2.8544
 30
0.0
 10
-26.6806
 20
2.885
 30
0.0
 10
-26.5216
 20
2.9
 30
0.0
 10
-26.3212
 20
2.9
 30
0.0
 10
-26.3212
 20
2.9
 30
0.0
 10
-26.0842
 20
2.9
 30
0.0
 10
-25.8932
 20
2.8756
 30
0.0
 10
-25.7474
 20
2.8271
 30
0.0
 10
-25.7474
 20
2.8271
 30
0.0
 10
-25.6016
 20
2.7782
 30
0.0
 10
-25.4892
 20
2.7053
 30
0.0
 10
-25.4097
 20
2.6084
 30
0.0
 10
-25.4097
 20
2.6084
 30
0.0
 10
-25.3302
 20
2.5115
 30
0.0
 10
-25.2907
 20
2.3892
 30
0.0
 10
-25.2907
 20
2.241
 30
0.0
 10
-25.2907
 20
2.241
 30
0.0
 10
-25.2907
 20
2.0463
 30
0.0
 10
-25.3603
 20
1.8934
 30
0.0
 10
-25.5
 20
1.7824
 30
0.0
 10
-25.5
 20
1.7824
 30
0.0
 10
-25.6679
 20
1.6493
 30
0.0
 10
-25.9421
 20
1.5825
 30
0.0
 10
-26.3212
 20
1.5825
 30
0.0
  0
SPLINE
  5
77
330
1F
100
AcDbEntity
  8
VRSTVA_1
 62
   250
100
AcDbSpline
210
0.0
220
0.0
230
1.0
 70
    11
 71
     3
 72
    36
 73
    32
 74
     0
 42
0.0000000001
 43
0.0000000001
 40
0.0
 40
0.0
 40
0.0
 40
0.0
 40
0.1111111111111111
 40
0.1111111111111111
 40
0.1111111111111111
 40
0.1111111111111111
 40
0.2222222222222222
 40
0.2222222222222222
 40
0.2222222222222222
 40
0.2222222222222222
 40
0.3333333333333333
 40
0.3333333333333333
 40
0.3333333333333333
 40
0.3333333333333333
 40
0.4444444444444444
 40
0.4444444444444444
 40
0.4444444444444444
 40
0.4444444444444444
 40
0.5555555555555556
 40
0.5555555555555556
 40
0.5555555555555556
 40
0.5555555555555556
 40
0.6666666666666666
 40
0.6666666666666666
 40
0.6666666666666666
 40
0.6666666666666666
 40
0.7777777777777778
 40
0.7777777777777778
 40
0.7777777777777778
 40
0.7777777777777778
 40
1.0
 40
1.0
 40
1.0
 40
1.0
 10
-26.3212
 20
1.8375
 30
0.0
 10
-25.9896
 20
1.8375
 30
0.0
 10
-25.769
 20
1.8765
 30
0.0
 10
-25.659
 20
1.9541
 30
0.0
 10
-25.659
 20
1.9541
 30
0.0
 10
-25.5494
 20
2.0317
 30
0.0
 10
-25.4943
 20
2.1272
 30
0.0
 10
-25.4943
 20
2.241
 30
0.0
 10
-25.4943
 20
2.241
 30
0.0
 10
-25.4943
 20
2.3553
 30
0.0
 10
-25.5498
 20
2.4508
 30
0.0
 10
-25.6599
 20
2.5284
 30
0.0
 10
-25.6599
 20
2.5284
 30
0.0
 10
-25.77
 20
2.606
 30
0.0
 10
-25.9906
 20
2.6451
 30
0.0
 10
-26.3212
 20
2.6451
 30
0.0
 10
-26.3212
 20
2.6451
 30
0.0
 10
-26.6538
 20
2.6451
 30
0.0
 10
-26.8749
 20
2.606
 30
0.0
 10
-26.984
 20
2.5284
 30
0.0
 10
-26.984
 20
2.5284
 30
0.0
 10
-27.0936
 20
2.4508
 30
0.0
 10
-27.1481
 20
2.3544
 30
0.0
 10
-27.1481
 20
2.2387
 30
0.0
 10
-27.1481
 20
2.2387
 30
0.0
 10
-27.1481
 20
2.1244
 30
0.0
 10
-27.0997
 20
2.0336
 30
0.0
 10
-27.0033
 20
1.9654
 30
0.0
 10
-27.0033
 20
1.9654
 30
0.0
 10
-26.8805
 20
1.8803
 30
0.0
 10
-26.6528
 20
1.8375
 30
0.0
 10
-26.3212
 20
1.8375
 30
0.0
  0
SPLINE
  5
78
330
1F
100
AcDbEntity
  8
VRSTVA_1
 62
   250
100
AcDbSpline
210
0.0
220
0.0
230
1.0
 70
    11
 71
     3
 72
    92
 73
    88
 74
     0
 42
0.0000000001
 43
0.0000000001
 40
0.0
 40
0.0
 40
0.0
 40
0.0
 40
0.0434782608695652
 40
0.0434782608695652
 40
0.0434782608695652
 40
0.0434782608695652
 40
0.0869565217391304
 40
0.0869565217391304
 40
0.0869565217391304
 40
0.0869565217391304
 40
0.1304347826086956
 40
0.1304347826086956
 40
0.1304347826086956
 40
0.1304347826086956
 40
0.1739130434782609
 40
0.1739130434782609
 40
0.1739130434782609
 40
0.1739130434782609
 40
0.2173913043478261
 40
0.2173913043478261
 40
0.2173913043478261
 40
0.2173913043478261
 40
0.2608695652173913
 40
0.2608695652173913
 40
0.2608695652173913
 40
0.2608695652173913
 40
0.3043478260869565
 40
0.3043478260869565
 40
0.3043478260869565
 40
0.3043478260869565
 40
0.3478260869565217
 40
0.3478260869565217
 40
0.3478260869565217
 40
0.3478260869565217
 40
0.391304347826087
 40
0.391304347826087
 40
0.391304347826087
 40
0.391304347826087
 40
0.4347826086956522
 40
0.4347826086956522
 40
0.4347826086956522
 40
0.4347826086956522
 40
0.4782608695652174
 40
0.4782608695652174
 40
0.4782608695652174
 40
0.4782608695652174
 40
0.5217391304347826
 40
0.5217391304347826
 40
0.5217391304347826
 40
0.5217391304347826
 40
0.5652173913043478
 40
0.5652173913043478
 40
0.5652173913043478
 40
0.5652173913043478
 40
0.6086956521739131
 40
0.6086956521739131
 40
0.6086956521739131
 40
0.6086956521739131
 40
0.6521739130434783
 40
0.6521739130434783
 40
0.6521739130434783
 40
0.6521739130434783
 40
0.6956521739130435
 40
0.6956521739130435
 40
0.6956521739130435
 40
0.6956521739130435
 40
0.7391304347826086
 40
0.7391304347826086
 40
0.7391304347826086
 40
0.7391304347826086
 40
0.782608695652174
 40
0.782608695652174
 40
0.782608695652174
 40
0.782608695652174
 40
0.8260869565217391
 40
0.8260869565217391
 40
0.8260869565217391
 40
0.8260869565217391
 40
0.8695652173913043
 40
0.8695652173913043
 40
0.8695652173913043
 40
0.8695652173913043
 40
0.9130434782608695
 40
0.9130434782608695
 40
0.9130434782608695
 40
0.9130434782608695
 40
1.0
 40
1.0
 40
1.0
 40
1.0
 10
1.9246
 20
2.8569
 30
0.0
 10
1.9246
 20
2.8569
 30
0.0
 10
1.9246
 20
2.6184
 30
0.0
 10
1.9246
 20
2.6184
 30
0.0
 10
1.9246
 20
2.6184
 30
0.0
 10
1.9246
 20
2.6184
 30
0.0
 10
0.5892
 20
2.6184
 30
0.0
 10
0.5892
 20
2.6184
 30
0.0
 10
0.5892
 20
2.6184
 30
0.0
 10
0.5873
 20
2.6781
 30
0.0
 10
0.5967
 20
2.7355
 30
0.0
 10
0.6179
 20
2.7906
 30
0.0
 10
0.6179
 20
2.7906
 30
0.0
 10
0.6518
 20
2.8818
 30
0.0
 10
0.7063
 20
2.9712
 30
0.0
 10
0.7811
 20
3.0596
 30
0.0
 10
0.7811
 20
3.0596
 30
0.0
 10
0.8564
 20
3.1476
 30
0.0
 10
0.9646
 20
3.2496
 30
0.0
 10
1.1057
 20
3.3653
 30
0.0
 10
1.1057
 20
3.3653
 30
0.0
 10
1.3253
 20
3.5455
 30
0.0
 10
1.474
 20
3.688
 30
0.0
 10
1.5511
 20
3.7934
 30
0.0
 10
1.5511
 20
3.7934
 30
0.0
 10
1.6282
 20
3.8983
 30
0.0
 10
1.6668
 20
3.998
 30
0.0
 10
1.6668
 20
4.0916
 30
0.0
 10
1.6668
 20
4.0916
 30
0.0
 10
1.6668
 20
4.1899
 30
0.0
 10
1.6315
 20
4.2727
 30
0.0
 10
1.5615
 20
4.3404
 30
0.0
 10
1.5615
 20
4.3404
 30
0.0
 10
1.4909
 20
4.4077
 30
0.0
 10
1.3992
 20
4.4415
 30
0.0
 10
1.2863
 20
4.4415
 30
0.0
 10
1.2863
 20
4.4415
 30
0.0
 10
1.1668
 20
4.4415
 30
0.0
 10
1.0713
 20
4.4058
 30
0.0
 10
0.9998
 20
4.3338
 30
0.0
 10
0.9998
 20
4.3338
 30
0.0
 10
0.9279
 20
4.2623
 30
0.0
 10
0.8917
 20
4.1631
 30
0.0
 10
0.8907
 20
4.0366
 30
0.0
 10
0.8907
 20
4.0366
 30
0.0
 10
0.8907
 20
4.0366
 30
0.0
 10
0.6358
 20
4.0624
 30
0.0
 10
0.6358
 20
4.0624
 30
0.0
 10
0.6358
 20
4.0624
 30
0.0
 10
0.6532
 20
4.2529
 30
0.0
 10
0.719
 20
4.3978
 30
0.0
 10
0.8329
 20
4.4975
 30
0.0
 10
0.8329
 20
4.4975
 30
0.0
 10
0.9467
 20
4.5972
 30
0.0
 10
1.1
 20
4.6471
 30
0.0
 10
1.2919
 20
4.6471
 30
0.0
 10
1.2919
 20
4.6471
 30
0.0
 10
1.4857
 20
4.6471
 30
0.0
 10
1.6391
 20
4.593
 30
0.0
 10
1.752
 20
4.4858
 30
0.0
 10
1.752
 20
4.4858
 30
0.0
 10
1.8653
 20
4.378
 30
0.0
 10
1.9218
 20
4.2449
 30
0.0
 10
1.9218
 20
4.0859
 30
0.0
 10
1.9218
 20
4.0859
 30
0.0
 10
1.9218
 20
4.005
 30
0.0
 10
1.9053
 20
3.9255
 30
0.0
 10
1.8719
 20
3.8475
 30
0.0
 10
1.8719
 20
3.8475
 30
0.0
 10
1.839
 20
3.7694
 30
0.0
 10
1.7839
 20
3.6871
 30
0.0
 10
1.7073
 20
3.601
 30
0.0
 10
1.7073
 20
3.601
 30
0.0
 10
1.6306
 20
3.5144
 30
0.0
 10
1.5031
 20
3.3959
 30
0.0
 10
1.3249
 20
3.2454
 30
0.0
 10
1.3249
 20
3.2454
 30
0.0
 10
1.1762
 20
3.1203
 30
0.0
 10
1.0807
 20
3.0356
 30
0.0
 10
1.0384
 20
2.9909
 30
0.0
 10
1.0384
 20
2.9909
 30
0.0
 10
0.9961
 20
2.9467
 30
0.0
 10
0.9613
 20
2.902
 30
0.0
 10
0.9335
 20
2.8569
 30
0.0
 10
0.9335
 20
2.8569
 30
0.0
 10
0.9335
 20
2.8569
 30
0.0
 10
1.9246
 20
2.8569
 30
0.0
 10
1.9246
 20
2.8569
 30
0.0
  0
SPLINE
  5
79
330
1F
100
AcDbEntity
  8
VRSTVA_1
 62
   250
100
AcDbSpline
210
0.0
220
0.0
230
1.0
 70
    11
 71
     3
 72
    48
 73
    44
 74
     0
 42
0.0000000001
 43
0.0000000001
 40
0.0
 40
0.0
 40
0.0
 40
0.0
 40
0.0833333333333333
 40
0.0833333333333333
 40
0.0833333333333333
 40
0.0833333333333333
 40
0.1666666666666667
 40
0.1666666666666667
 40
0.1666666666666667
 40
0.1666666666666667
 40
0.25
 40
0.25
 40
0.25
 40
0.25
 40
0.3333333333333333
 40
0.3333333333333333
 40
0.3333333333333333
 40
0.3333333333333333
 40
0.4166666666666667
 40
0.4166666666666667
 40
0.4166666666666667
 40
0.4166666666666667
 40
0.5
 40
0.5
 40
0.5
 40
0.5
 40
0.5833333333333334
 40
0.5833333333333334
 40
0.5833333333333334
 40
0.5833333333333334
 40
0.6666666666666666
 40
0.6666666666666666
 40
0.6666666666666666
 40
0.6666666666666666
 40
0.75
 40
0.75
 40
0.75
 40
0.75
 40
0.8333333333333334
 40
0.8333333333333334
 40
0.8333333333333334
 40
0.8333333333333334
 40
1.0
 40
1.0
 40
1.0
 40
1.0
 10
2.9852
 20
2.6184
 30
0.0
 10
2.9852
 20
2.6184
 30
0.0
 10
2.9852
 20
3.1019
 30
0.0
 10
2.9852
 20
3.1019
 30
0.0
 10
2.9852
 20
3.1019
 30
0.0
 10
2.9852
 20
3.1019
 30
0.0
 10
2.1089
 20
3.1019
 30
0.0
 10
2.1089
 20
3.1019
 30
0.0
 10
2.1089
 20
3.1019
 30
0.0
 10
2.1089
 20
3.1019
 30
0.0
 10
2.1089
 20
3.3296
 30
0.0
 10
2.1089
 20
3.3296
 30
0.0
 10
2.1089
 20
3.3296
 30
0.0
 10
2.1089
 20
3.3296
 30
0.0
 10
3.0309
 20
4.6386
 30
0.0
 10
3.0309
 20
4.6386
 30
0.0
 10
3.0309
 20
4.6386
 30
0.0
 10
3.0309
 20
4.6386
 30
0.0
 10
3.2336
 20
4.6386
 30
0.0
 10
3.2336
 20
4.6386
 30
0.0
 10
3.2336
 20
4.6386
 30
0.0
 10
3.2336
 20
4.6386
 30
0.0
 10
3.2336
 20
3.3296
 30
0.0
 10
3.2336
 20
3.3296
 30
0.0
 10
3.2336
 20
3.3296
 30
0.0
 10
3.2336
 20
3.3296
 30
0.0
 10
3.5064
 20
3.3296
 30
0.0
 10
3.5064
 20
3.3296
 30
0.0
 10
3.5064
 20
3.3296
 30
0.0
 10
3.5064
 20
3.3296
 30
0.0
 10
3.5064
 20
3.1019
 30
0.0
 10
3.5064
 20
3.1019
 30
0.0
 10
3.5064
 20
3.1019
 30
0.0
 10
3.5064
 20
3.1019
 30
0.0
 10
3.2336
 20
3.1019
 30
0.0
 10
3.2336
 20
3.1019
 30
0.0
 10
3.2336
 20
3.1019
 30
0.0
 10
3.2336
 20
3.1019
 30
0.0
 10
3.2336
 20
2.6184
 30
0.0
 10
3.2336
 20
2.6184
 30
0.0
 10
3.2336
 20
2.6184
 30
0.0
 10
3.2336
 20
2.6184
 30
0.0
 10
2.9852
 20
2.6184
 30
0.0
 10
2.9852
 20
2.6184
 30
0.0
  0
SPLINE
  5
7A
330
1F
100
AcDbEntity
  8
VRSTVA_1
 62
   250
100
AcDbSpline
210
0.0
220
0.0
230
1.0
 70
    11
 71
     3
 72
    16
 73
    12
 74
     0
 42
0.0000000001
 43
0.0000000001
 40
0.0
 40
0.0
 40
0.0
 40
0.0
 40
0.25
 40
0.25
 40
0.25
 40
0.25
 40
0.5
 40
0.5
 40
0.5
 40
0.5
 40
1.0
 40
1.0
 40
1.0
 40
1.0
 10
2.9852
 20
3.3296
 30
0.0
 10
2.9852
 20
3.3296
 30
0.0
 10
2.9852
 20
4.2402
 30
0.0
 10
2.9852
 20
4.2402
 30
0.0
 10
2.9852
 20
4.2402
 30
0.0
 10
2.9852
 20
4.2402
 30
0.0
 10
2.3531
 20
3.3296
 30
0.0
 10
2.3531
 20
3.3296
 30
0.0
 10
2.3531
 20
3.3296
 30
0.0
 10
2.3531
 20
3.3296
 30
0.0
 10
2.9852
 20
3.3296
 30
0.0
 10
2.9852
 20
3.3296
 30
0.0
  0
SPLINE
  5
7B
330
1F
100
AcDbEntity
  8
VRSTVA_1
 62
   250
100
AcDbSpline
210
0.0
220
0.0
230
1.0
 70
    11
 71
     3
 72
    52
 73
    48
 74
     0
 42
0.0000000001
 43
0.0000000001
 40
0.0
 40
0.0
 40
0.0
 40
0.0
 40
0.0769230769230769
 40
0.0769230769230769
 40
0.0769230769230769
 40
0.0769230769230769
 40
0.1538461538461539
 40
0.1538461538461539
 40
0.1538461538461539
 40
0.1538461538461539
 40
0.2307692307692308
 40
0.2307692307692308
 40
0.2307692307692308
 40
0.2307692307692308
 40
0.3076923076923077
 40
0.3076923076923077
 40
0.3076923076923077
 40
0.3076923076923077
 40
0.3846153846153846
 40
0.3846153846153846
 40
0.3846153846153846
 40
0.3846153846153846
 40
0.4615384615384616
 40
0.4615384615384616
 40
0.4615384615384616
 40
0.4615384615384616
 40
0.5384615384615384
 40
0.5384615384615384
 40
0.5384615384615384
 40
0.5384615384615384
 40
0.6153846153846154
 40
0.6153846153846154
 40
0.6153846153846154
 40
0.6153846153846154
 40
0.6923076923076923
 40
0.6923076923076923
 40
0.6923076923076923
 40
0.6923076923076923
 40
0.7692307692307693
 40
0.7692307692307693
 40
0.7692307692307693
 40
0.7692307692307693
 40
0.8461538461538461
 40
0.8461538461538461
 40
0.8461538461538461
 40
0.8461538461538461
 40
1.0
 40
1.0
 40
1.0
 40
1.0
 10
3.7599
 20
3.6146
 30
0.0
 10
3.7599
 20
3.8536
 30
0.0
 10
3.7844
 20
4.046
 30
0.0
 10
3.8338
 20
4.1913
 30
0.0
 10
3.8338
 20
4.1913
 30
0.0
 10
3.8827
 20
4.3371
 30
0.0
 10
3.9561
 20
4.4495
 30
0.0
 10
4.053
 20
4.5286
 30
0.0
 10
4.053
 20
4.5286
 30
0.0
 10
4.1499
 20
4.6076
 30
0.0
 10
4.2717
 20
4.6471
 30
0.0
 10
4.4184
 20
4.6471
 30
0.0
 10
4.4184
 20
4.6471
 30
0.0
 10
4.5271
 20
4.6471
 30
0.0
 10
4.6221
 20
4.625
 30
0.0
 10
4.7039
 20
4.5812
 30
0.0
 10
4.7039
 20
4.5812
 30
0.0
 10
4.7858
 20
4.538
 30
0.0
 10
4.8531
 20
4.4749
 30
0.0
 10
4.9067
 20
4.3926
 30
0.0
 10
4.9067
 20
4.3926
 30
0.0
 10
4.9598
 20
4.3103
 30
0.0
 10
5.0017
 20
4.2101
 30
0.0
 10
5.0318
 20
4.0921
 30
0.0
 10
5.0318
 20
4.0921
 30
0.0
 10
5.0624
 20
3.974
 30
0.0
 10
5.0774
 20
3.815
 30
0.0
 10
5.0774
 20
3.6146
 30
0.0
 10
5.0774
 20
3.6146
 30
0.0
 10
5.0774
 20
3.3776
 30
0.0
 10
5.053
 20
3.1866
 30
0.0
 10
5.0045
 20
3.0408
 30
0.0
 10
5.0045
 20
3.0408
 30
0.0
 10
4.9556
 20
2.895
 30
0.0
 10
4.8827
 20
2.7826
 30
0.0
 10
4.7858
 20
2.7031
 30
0.0
 10
4.7858
 20
2.7031
 30
0.0
 10
4.6889
 20
2.6236
 30
0.0
 10
4.5666
 20
2.5841
 30
0.0
 10
4.4184
 20
2.5841
 30
0.0
 10
4.4184
 20
2.5841
 30
0.0
 10
4.2237
 20
2.5841
 30
0.0
 10
4.0708
 20
2.6537
 30
0.0
 10
3.9598
 20
2.7934
 30
0.0
 10
3.9598
 20
2.7934
 30
0.0
 10
3.8267
 20
2.9613
 30
0.0
 10
3.7599
 20
3.2355
 30
0.0
 10
3.7599
 20
3.6146
 30
0.0
  0
SPLINE
  5
7C
330
1F
100
AcDbEntity
  8
VRSTVA_1
 62
   250
100
AcDbSpline
210
0.0
220
0.0
230
1.0
 70
    11
 71
     3
 72
    36
 73
    32
 74
     0
 42
0.0000000001
 43
0.0000000001
 40
0.0
 40
0.0
 40
0.0
 40
0.0
 40
0.1111111111111111
 40
0.1111111111111111
 40
0.1111111111111111
 40
0.1111111111111111
 40
0.2222222222222222
 40
0.2222222222222222
 40
0.2222222222222222
 40
0.2222222222222222
 40
0.3333333333333333
 40
0.3333333333333333
 40
0.3333333333333333
 40
0.3333333333333333
 40
0.4444444444444444
 40
0.4444444444444444
 40
0.4444444444444444
 40
0.4444444444444444
 40
0.5555555555555556
 40
0.5555555555555556
 40
0.5555555555555556
 40
0.5555555555555556
 40
0.6666666666666666
 40
0.6666666666666666
 40
0.6666666666666666
 40
0.6666666666666666
 40
0.7777777777777778
 40
0.7777777777777778
 40
0.7777777777777778
 40
0.7777777777777778
 40
1.0
 40
1.0
 40
1.0
 40
1.0
 10
4.0149
 20
3.6146
 30
0.0
 10
4.0149
 20
3.283
 30
0.0
 10
4.0539
 20
3.0624
 30
0.0
 10
4.1315
 20
2.9524
 30
0.0
 10
4.1315
 20
2.9524
 30
0.0
 10
4.2091
 20
2.8428
 30
0.0
 10
4.3046
 20
2.7877
 30
0.0
 10
4.4184
 20
2.7877
 30
0.0
 10
4.4184
 20
2.7877
 30
0.0
 10
4.5327
 20
2.7877
 30
0.0
 10
4.6282
 20
2.8432
 30
0.0
 10
4.7058
 20
2.9533
 30
0.0
 10
4.7058
 20
2.9533
 30
0.0
 10
4.7834
 20
3.0634
 30
0.0
 10
4.8225
 20
3.284
 30
0.0
 10
4.8225
 20
3.6146
 30
0.0
 10
4.8225
 20
3.6146
 30
0.0
 10
4.8225
 20
3.9472
 30
0.0
 10
4.7834
 20
4.1683
 30
0.0
 10
4.7058
 20
4.2774
 30
0.0
 10
4.7058
 20
4.2774
 30
0.0
 10
4.6282
 20
4.387
 30
0.0
 10
4.5318
 20
4.4415
 30
0.0
 10
4.4161
 20
4.4415
 30
0.0
 10
4.4161
 20
4.4415
 30
0.0
 10
4.3018
 20
4.4415
 30
0.0
 10
4.211
 20
4.3931
 30
0.0
 10
4.1428
 20
4.2967
 30
0.0
 10
4.1428
 20
4.2967
 30
0.0
 10
4.0577
 20
4.1739
 30
0.0
 10
4.0149
 20
3.9462
 30
0.0
 10
4.0149
 20
3.6146
 30
0.0
  0
SPLINE
  5
7D
330
1F
100
AcDbEntity
  8
VRSTVA_1
 62
   250
100
AcDbSpline
210
0.0
220
0.0
230
1.0
 70
    11
 71
     3
 72
    20
 73
    16
 74
     0
 42
0.0000000001
 43
0.0000000001
 40
0.0
 40
0.0
 40
0.0
 40
0.0
 40
0.2
 40
0.2
 40
0.2
 40
0.2
 40
0.4
 40
0.4
 40
0.4
 40
0.4
 40
0.6
 40
0.6
 40
0.6
 40
0.6
 40
1.0
 40
1.0
 40
1.0
 40
1.0
 10
-12.0285
 20
2.2402
 30
0.0
 10
-12.0285
 20
2.2402
 30
0.0
 10
-9.84
 20
1.9207
 30
0.0
 10
-9.84
 20
1.9207
 30
0.0
 10
-9.84
 20
1.9207
 30
0.0
 10
-9.84
 20
1.9207
 30
0.0
 10
-9.84
 20
2.6261
 30
0.0
 10
-9.84
 20
2.6261
 30
0.0
 10
-9.84
 20
2.6261
 30
0.0
 10
-9.84
 20
2.6261
 30
0.0
 10
-12.0285
 20
2.2412
 30
0.0
 10
-12.0285
 20
2.2412
 30
0.0
 10
-12.0285
 20
2.2412
 30
0.0
 10
-12.0285
 20
2.2412
 30
0.0
 10
-12.0285
 20
2.2402
 30
0.0
 10
-12.0285
 20
2.2402
 30
0.0
  0
SPLINE
  5
7E
330
1F
100
AcDbEntity
  8
VRSTVA_1
 62
   250
100
AcDbSpline
210
0.0
220
0.0
230
1.0
 70
    11
 71
     3
 72
    20
 73
    16
 74
     0
 42
0.0000000001
 43
0.0000000001
 40
0.0
 40
0.0
 40
0.0
 40
0.0
 40
0.2
 40
0.2
 40
0.2
 40
0.2
 40
0.4
 40
0.4
 40
0.4
 40
0.4
 40
0.6
 40
0.6
 40
0.6
 40
0.6
 40
1.0
 40
1.0
 40
1.0
 40
1.0
 10
17.9363
 20
2.2643
 30
0.0
 10
17.9363
 20
2.2643
 30
0.0
 10
15.7477
 20
2.5839
 30
0.0
 10
15.7477
 20
2.5839
 30
0.0
 10
15.7477
 20
2.5839
 30
0.0
 10
15.7477
 20
2.5839
 30
0.0
 10
15.7477
 20
1.8784
 30
0.0
 10
15.7477
 20
1.8784
 30
0.0
 10
15.7477
 20
1.8784
 30
0.0
 10
15.7477
 20
1.8784
 30
0.0
 10
17.9363
 20
2.2633
 30
0.0
 10
17.9363
 20
2.2633
 30
0.0
 10
17.9363
 20
2.2633
 30
0.0
 10
17.9363
 20
2.2633
 30
0.0
 10
17.9363
 20
2.2643
 30
0.0
 10
17.9363
 20
2.2643
 30
0.0
  0
SPLINE
  5
7F
330
1F
100
AcDbEntity
  8
VRSTVA_1
 62
   250
100
AcDbSpline
210
0.0
220
0.0
230
1.0
 70
    24
 71
     3
 72
     8
 73
     4
 74
     0
 42
0.0000000001
 43
0.0000000001
 40
0.0
 40
0.0
 40
0.0
 40
0.0
 40
1.0
 40
1.0
 40
1.0
 40
1.0
 10
17.8215
 20
2.2256
 30
0.0
 10
17.8215
 20
2.2256
 30
0.0
 10
-11.2591
 20
2.2256
 30
0.0
 10
-11.2591
 20
2.2256
 30
0.0
  0
SPLINE
  5
80
330
1F
100
AcDbEntity
  8
VRSTVA_1
 62
   250
100
AcDbSpline
210
0.0
220
0.0
230
1.0
 70
    11
 71
     3
 72
    48
 73
    44
 74
     0
 42
0.0000000001
 43
0.0000000001
 40
0.0
 40
0.0
 40
0.0
 40
0.0
 40
0.0833333333333333
 40
0.0833333333333333
 40
0.0833333333333333
 40
0.0833333333333333
 40
0.1666666666666667
 40
0.1666666666666667
 40
0.1666666666666667
 40
0.1666666666666667
 40
0.25
 40
0.25
 40
0.25
 40
0.25
 40
0.3333333333333333
 40
0.3333333333333333
 40
0.3333333333333333
 40
0.3333333333333333
 40
0.4166666666666667
 40
0.4166666666666667
 40
0.4166666666666667
 40
0.4166666666666667
 40
0.5
 40
0.5
 40
0.5
 40
0.5
 40
0.5833333333333334
 40
0.5833333333333334
 40
0.5833333333333334
 40
0.5833333333333334
 40
0.6666666666666666
 40
0.6666666666666666
 40
0.6666666666666666
 40
0.6666666666666666
 40
0.75
 40
0.75
 40
0.75
 40
0.75
 40
0.8333333333333334
 40
0.8333333333333334
 40
0.8333333333333334
 40
0.8333333333333334
 40
1.0
 40
1.0
 40
1.0
 40
1.0
 10
1.6071
 20
-34.0391
 30
0.0
 10
1.6071
 20
-34.0391
 30
0.0
 10
1.6071
 20
-33.5556
 30
0.0
 10
1.6071
 20
-33.5556
 30
0.0
 10
1.6071
 20
-33.5556
 30
0.0
 10
1.6071
 20
-33.5556
 30
0.0
 10
0.7308
 20
-33.5556
 30
0.0
 10
0.7308
 20
-33.5556
 30
0.0
 10
0.7308
 20
-33.5556
 30
0.0
 10
0.7308
 20
-33.5556
 30
0.0
 10
0.7308
 20
-33.3279
 30
0.0
 10
0.7308
 20
-33.3279
 30
0.0
 10
0.7308
 20
-33.3279
 30
0.0
 10
0.7308
 20
-33.3279
 30
0.0
 10
1.6528
 20
-32.0189
 30
0.0
 10
1.6528
 20
-32.0189
 30
0.0
 10
1.6528
 20
-32.0189
 30
0.0
 10
1.6528
 20
-32.0189
 30
0.0
 10
1.8555
 20
-32.0189
 30
0.0
 10
1.8555
 20
-32.0189
 30
0.0
 10
1.8555
 20
-32.0189
 30
0.0
 10
1.8555
 20
-32.0189
 30
0.0
 10
1.8555
 20
-33.3279
 30
0.0
 10
1.8555
 20
-33.3279
 30
0.0
 10
1.8555
 20
-33.3279
 30
0.0
 10
1.8555
 20
-33.3279
 30
0.0
 10
2.1283
 20
-33.3279
 30
0.0
 10
2.1283
 20
-33.3279
 30
0.0
 10
2.1283
 20
-33.3279
 30
0.0
 10
2.1283
 20
-33.3279
 30
0.0
 10
2.1283
 20
-33.5556
 30
0.0
 10
2.1283
 20
-33.5556
 30
0.0
 10
2.1283
 20
-33.5556
 30
0.0
 10
2.1283
 20
-33.5556
 30
0.0
 10
1.8555
 20
-33.5556
 30
0.0
 10
1.8555
 20
-33.5556
 30
0.0
 10
1.8555
 20
-33.5556
 30
0.0
 10
1.8555
 20
-33.5556
 30
0.0
 10
1.8555
 20
-34.0391
 30
0.0
 10
1.8555
 20
-34.0391
 30
0.0
 10
1.8555
 20
-34.0391
 30
0.0
 10
1.8555
 20
-34.0391
 30
0.0
 10
1.6071
 20
-34.0391
 30
0.0
 10
1.6071
 20
-34.0391
 30
0.0
  0
SPLINE
  5
81
330
1F
100
AcDbEntity
  8
VRSTVA_1
 62
   250
100
AcDbSpline
210
0.0
220
0.0
230
1.0
 70
    11
 71
     3
 72
    16
 73
    12
 74
     0
 42
0.0000000001
 43
0.0000000001
 40
0.0
 40
0.0
 40
0.0
 40
0.0
 40
0.25
 40
0.25
 40
0.25
 40
0.25
 40
0.5
 40
0.5
 40
0.5
 40
0.5
 40
1.0
 40
1.0
 40
1.0
 40
1.0
 10
1.6071
 20
-33.3279
 30
0.0
 10
1.6071
 20
-33.3279
 30
0.0
 10
1.6071
 20
-32.4173
 30
0.0
 10
1.6071
 20
-32.4173
 30
0.0
 10
1.6071
 20
-32.4173
 30
0.0
 10
1.6071
 20
-32.4173
 30
0.0
 10
0.975
 20
-33.3279
 30
0.0
 10
0.975
 20
-33.3279
 30
0.0
 10
0.975
 20
-33.3279
 30
0.0
 10
0.975
 20
-33.3279
 30
0.0
 10
1.6071
 20
-33.3279
 30
0.0
 10
1.6071
 20
-33.3279
 30
0.0
  0
SPLINE
  5
82
330
1F
100
AcDbEntity
  8
VRSTVA_1
 62
   250
100
AcDbSpline
210
0.0
220
0.0
230
1.0
 70
    11
 71
     3
 72
    40
 73
    36
 74
     0
 42
0.0000000001
 43
0.0000000001
 40
0.0
 40
0.0
 40
0.0
 40
0.0
 40
0.1
 40
0.1
 40
0.1
 40
0.1
 40
0.2
 40
0.2
 40
0.2
 40
0.2
 40
0.3
 40
0.3
 40
0.3
 40
0.3
 40
0.4
 40
0.4
 40
0.4
 40
0.4
 40
0.5
 40
0.5
 40
0.5
 40
0.5
 40
0.6
 40
0.6
 40
0.6
 40
0.6
 40
0.7
 40
0.7
 40
0.7
 40
0.7
 40
0.8
 40
0.8
 40
0.8
 40
0.8
 40
1.0
 40
1.0
 40
1.0
 40
1.0
 10
3.316
 20
-34.0391
 30
0.0
 10
3.316
 20
-34.0391
 30
0.0
 10
3.0681
 20
-34.0391
 30
0.0
 10
3.0681
 20
-34.0391
 30
0.0
 10
3.0681
 20
-34.0391
 30
0.0
 10
3.0681
 20
-34.0391
 30
0.0
 10
3.0681
 20
-32.4587
 30
0.0
 10
3.0681
 20
-32.4587
 30
0.0
 10
3.0681
 20
-32.4587
 30
0.0
 10
3.0083
 20
-32.5156
 30
0.0
 10
2.9303
 20
-32.5725
 30
0.0
 10
2.8334
 20
-32.6294
 30
0.0
 10
2.8334
 20
-32.6294
 30
0.0
 10
2.736
 20
-32.6863
 30
0.0
 10
2.649
 20
-32.7291
 30
0.0
 10
2.5718
 20
-32.7574
 30
0.0
 10
2.5718
 20
-32.7574
 30
0.0
 10
2.5718
 20
-32.7574
 30
0.0
 10
2.5718
 20
-32.5179
 30
0.0
 10
2.5718
 20
-32.5179
 30
0.0
 10
2.5718
 20
-32.5179
 30
0.0
 10
2.7106
 20
-32.4526
 30
0.0
 10
2.832
 20
-32.3735
 30
0.0
 10
2.9359
 20
-32.2809
 30
0.0
 10
2.9359
 20
-32.2809
 30
0.0
 10
3.0394
 20
-32.1877
 30
0.0
 10
3.1132
 20
-32.0979
 30
0.0
 10
3.1565
 20
-32.0104
 30
0.0
 10
3.1565
 20
-32.0104
 30
0.0
 10
3.1565
 20
-32.0104
 30
0.0
 10
3.316
 20
-32.0104
 30
0.0
 10
3.316
 20
-32.0104
 30
0.0
 10
3.316
 20
-32.0104
 30
0.0
 10
3.316
 20
-32.0104
 30
0.0
 10
3.316
 20
-34.0391
 30
0.0
 10
3.316
 20
-34.0391
 30
0.0
  0
SPLINE
  5
83
330
1F
100
AcDbEntity
  8
VRSTVA_1
 62
   250
100
AcDbSpline
210
0.0
220
0.0
230
1.0
 70
    11
 71
     3
 72
    52
 73
    48
 74
     0
 42
0.0000000001
 43
0.0000000001
 40
0.0
 40
0.0
 40
0.0
 40
0.0
 40
0.0769230769230769
 40
0.0769230769230769
 40
0.0769230769230769
 40
0.0769230769230769
 40
0.1538461538461539
 40
0.1538461538461539
 40
0.1538461538461539
 40
0.1538461538461539
 40
0.2307692307692308
 40
0.2307692307692308
 40
0.2307692307692308
 40
0.2307692307692308
 40
0.3076923076923077
 40
0.3076923076923077
 40
0.3076923076923077
 40
0.3076923076923077
 40
0.3846153846153846
 40
0.3846153846153846
 40
0.3846153846153846
 40
0.3846153846153846
 40
0.4615384615384616
 40
0.4615384615384616
 40
0.4615384615384616
 40
0.4615384615384616
 40
0.5384615384615384
 40
0.5384615384615384
 40
0.5384615384615384
 40
0.5384615384615384
 40
0.6153846153846154
 40
0.6153846153846154
 40
0.6153846153846154
 40
0.6153846153846154
 40
0.6923076923076923
 40
0.6923076923076923
 40
0.6923076923076923
 40
0.6923076923076923
 40
0.7692307692307693
 40
0.7692307692307693
 40
0.7692307692307693
 40
0.7692307692307693
 40
0.8461538461538461
 40
0.8461538461538461
 40
0.8461538461538461
 40
0.8461538461538461
 40
1.0
 40
1.0
 40
1.0
 40
1.0
 10
3.9514
 20
-33.0429
 30
0.0
 10
3.9514
 20
-32.8039
 30
0.0
 10
3.9759
 20
-32.6115
 30
0.0
 10
4.0253
 20
-32.4662
 30
0.0
 10
4.0253
 20
-32.4662
 30
0.0
 10
4.0742
 20
-32.3204
 30
0.0
 10
4.1476
 20
-32.208
 30
0.0
 10
4.2445
 20
-32.1289
 30
0.0
 10
4.2445
 20
-32.1289
 30
0.0
 10
4.3414
 20
-32.0499
 30
0.0
 10
4.4632
 20
-32.0104
 30
0.0
 10
4.6099
 20
-32.0104
 30
0.0
 10
4.6099
 20
-32.0104
 30
0.0
 10
4.7186
 20
-32.0104
 30
0.0
 10
4.8136
 20
-32.0325
 30
0.0
 10
4.8954
 20
-32.0763
 30
0.0
 10
4.8954
 20
-32.0763
 30
0.0
 10
4.9773
 20
-32.1195
 30
0.0
 10
5.0446
 20
-32.1826
 30
0.0
 10
5.0982
 20
-32.2649
 30
0.0
 10
5.0982
 20
-32.2649
 30
0.0
 10
5.1513
 20
-32.3472
 30
0.0
 10
5.1932
 20
-32.4474
 30
0.0
 10
5.2233
 20
-32.5654
 30
0.0
 10
5.2233
 20
-32.5654
 30
0.0
 10
5.2539
 20
-32.6835
 30
0.0
 10
5.2689
 20
-32.8425
 30
0.0
 10
5.2689
 20
-33.0429
 30
0.0
 10
5.2689
 20
-33.0429
 30
0.0
 10
5.2689
 20
-33.2799
 30
0.0
 10
5.2445
 20
-33.4709
 30
0.0
 10
5.196
 20
-33.6167
 30
0.0
 10
5.196
 20
-33.6167
 30
0.0
 10
5.1471
 20
-33.7625
 30
0.0
 10
5.0742
 20
-33.8749
 30
0.0
 10
4.9773
 20
-33.9544
 30
0.0
 10
4.9773
 20
-33.9544
 30
0.0
 10
4.8804
 20
-34.0339
 30
0.0
 10
4.7581
 20
-34.0734
 30
0.0
 10
4.6099
 20
-34.0734
 30
0.0
 10
4.6099
 20
-34.0734
 30
0.0
 10
4.4152
 20
-34.0734
 30
0.0
 10
4.2623
 20
-34.0038
 30
0.0
 10
4.1513
 20
-33.8641
 30
0.0
 10
4.1513
 20
-33.8641
 30
0.0
 10
4.0182
 20
-33.6962
 30
0.0
 10
3.9514
 20
-33.422
 30
0.0
 10
3.9514
 20
-33.0429
 30
0.0
  0
SPLINE
  5
84
330
1F
100
AcDbEntity
  8
VRSTVA_1
 62
   250
100
AcDbSpline
210
0.0
220
0.0
230
1.0
 70
    11
 71
     3
 72
    36
 73
    32
 74
     0
 42
0.0000000001
 43
0.0000000001
 40
0.0
 40
0.0
 40
0.0
 40
0.0
 40
0.1111111111111111
 40
0.1111111111111111
 40
0.1111111111111111
 40
0.1111111111111111
 40
0.2222222222222222
 40
0.2222222222222222
 40
0.2222222222222222
 40
0.2222222222222222
 40
0.3333333333333333
 40
0.3333333333333333
 40
0.3333333333333333
 40
0.3333333333333333
 40
0.4444444444444444
 40
0.4444444444444444
 40
0.4444444444444444
 40
0.4444444444444444
 40
0.5555555555555556
 40
0.5555555555555556
 40
0.5555555555555556
 40
0.5555555555555556
 40
0.6666666666666666
 40
0.6666666666666666
 40
0.6666666666666666
 40
0.6666666666666666
 40
0.7777777777777778
 40
0.7777777777777778
 40
0.7777777777777778
 40
0.7777777777777778
 40
1.0
 40
1.0
 40
1.0
 40
1.0
 10
4.2064
 20
-33.0429
 30
0.0
 10
4.2064
 20
-33.3745
 30
0.0
 10
4.2454
 20
-33.5951
 30
0.0
 10
4.323
 20
-33.7051
 30
0.0
 10
4.323
 20
-33.7051
 30
0.0
 10
4.4006
 20
-33.8147
 30
0.0
 10
4.4961
 20
-33.8698
 30
0.0
 10
4.6099
 20
-33.8698
 30
0.0
 10
4.6099
 20
-33.8698
 30
0.0
 10
4.7242
 20
-33.8698
 30
0.0
 10
4.8197
 20
-33.8143
 30
0.0
 10
4.8973
 20
-33.7042
 30
0.0
 10
4.8973
 20
-33.7042
 30
0.0
 10
4.9749
 20
-33.5941
 30
0.0
 10
5.014
 20
-33.3735
 30
0.0
 10
5.014
 20
-33.0429
 30
0.0
 10
5.014
 20
-33.0429
 30
0.0
 10
5.014
 20
-32.7103
 30
0.0
 10
4.9749
 20
-32.4892
 30
0.0
 10
4.8973
 20
-32.3801
 30
0.0
 10
4.8973
 20
-32.3801
 30
0.0
 10
4.8197
 20
-32.2705
 30
0.0
 10
4.7233
 20
-32.216
 30
0.0
 10
4.6076
 20
-32.216
 30
0.0
 10
4.6076
 20
-32.216
 30
0.0
 10
4.4933
 20
-32.216
 30
0.0
 10
4.4025
 20
-32.2644
 30
0.0
 10
4.3343
 20
-32.3608
 30
0.0
 10
4.3343
 20
-32.3608
 30
0.0
 10
4.2492
 20
-32.4836
 30
0.0
 10
4.2064
 20
-32.7113
 30
0.0
 10
4.2064
 20
-33.0429
 30
0.0
  0
SPLINE
  5
85
330
1F
100
AcDbEntity
  8
VRSTVA_1
 62
   250
100
AcDbSpline
210
0.0
220
0.0
230
1.0
 70
    11
 71
     3
 72
    20
 73
    16
 74
     0
 42
0.0000000001
 43
0.0000000001
 40
0.0
 40
0.0
 40
0.0
 40
0.0
 40
0.2
 40
0.2
 40
0.2
 40
0.2
 40
0.4
 40
0.4
 40
0.4
 40
0.4
 40
0.6
 40
0.6
 40
0.6
 40
0.6
 40
1.0
 40
1.0
 40
1.0
 40
1.0
 10
-22.1555
 20
-34.5263
 30
0.0
 10
-22.1555
 20
-34.5263
 30
0.0
 10
-19.9669
 20
-34.8458
 30
0.0
 10
-19.9669
 20
-34.8458
 30
0.0
 10
-19.9669
 20
-34.8458
 30
0.0
 10
-19.9669
 20
-34.8458
 30
0.0
 10
-19.9669
 20
-34.1404
 30
0.0
 10
-19.9669
 20
-34.1404
 30
0.0
 10
-19.9669
 20
-34.1404
 30
0.0
 10
-19.9669
 20
-34.1404
 30
0.0
 10
-22.1555
 20
-34.5253
 30
0.0
 10
-22.1555
 20
-34.5253
 30
0.0
 10
-22.1555
 20
-34.5253
 30
0.0
 10
-22.1555
 20
-34.5253
 30
0.0
 10
-22.1555
 20
-34.5263
 30
0.0
 10
-22.1555
 20
-34.5263
 30
0.0
  0
SPLINE
  5
86
330
1F
100
AcDbEntity
  8
VRSTVA_1
 62
   250
100
AcDbSpline
210
0.0
220
0.0
230
1.0
 70
    11
 71
     3
 72
    20
 73
    16
 74
     0
 42
0.0000000001
 43
0.0000000001
 40
0.0
 40
0.0
 40
0.0
 40
0.0
 40
0.2
 40
0.2
 40
0.2
 40
0.2
 40
0.4
 40
0.4
 40
0.4
 40
0.4
 40
0.6
 40
0.6
 40
0.6
 40
0.6
 40
1.0
 40
1.0
 40
1.0
 40
1.0
 10
28.3764
 20
-34.5101
 30
0.0
 10
28.3764
 20
-34.5101
 30
0.0
 10
26.1878
 20
-34.1905
 30
0.0
 10
26.1878
 20
-34.1905
 30
0.0
 10
26.1878
 20
-34.1905
 30
0.0
 10
26.1878
 20
-34.1905
 30
0.0
 10
26.1878
 20
-34.896
 30
0.0
 10
26.1878
 20
-34.896
 30
0.0
 10
26.1878
 20
-34.896
 30
0.0
 10
26.1878
 20
-34.896
 30
0.0
 10
28.3764
 20
-34.5111
 30
0.0
 10
28.3764
 20
-34.5111
 30
0.0
 10
28.3764
 20
-34.5111
 30
0.0
 10
28.3764
 20
-34.5111
 30
0.0
 10
28.3764
 20
-34.5101
 30
0.0
 10
28.3764
 20
-34.5101
 30
0.0
  0
SPLINE
  5
87
330
1F
100
AcDbEntity
  8
VRSTVA_1
 62
   250
100
AcDbSpline
210
0.0
220
0.0
230
1.0
 70
    24
 71
     3
 72
     8
 73
     4
 74
     0
 42
0.0000000001
 43
0.0000000001
 40
0.0
 40
0.0
 40
0.0
 40
0.0
 40
1.0
 40
1.0
 40
1.0
 40
1.0
 10
27.5446
 20
-34.5202
 30
0.0
 10
27.5446
 20
-34.5202
 30
0.0
 10
-22.1392
 20
-34.5202
 30
0.0
 10
-22.1392
 20
-34.5202
 30
0.0
  0
SPLINE
  5
88
330
1F
100
AcDbEntity
  8
VRSTVA_1
 62
   250
100
AcDbSpline
210
0.0
220
0.0
230
1.0
 70
    24
 71
     3
 72
     8
 73
     4
 74
     0
 42
0.0000000001
 43
0.0000000001
 40
0.0
 40
0.0
 40
0.0
 40
0.0
 40
1.0
 40
1.0
 40
1.0
 40
1.0
 10
-22.2533
 20
-34.8722
 30
0.0
 10
-22.2533
 20
-34.8722
 30
0.0
 10
-22.2533
 20
-1.6865
 30
0.0
 10
-22.2533
 20
-1.6865
 30
0.0
  0
SPLINE
  5
89
330
1F
100
AcDbEntity
  8
VRSTVA_1
 62
   250
100
AcDbSpline
210
0.0
220
0.0
230
1.0
 70
    24
 71
     3
 72
     8
 73
     4
 74
     0
 42
0.0000000001
 43
0.0000000001
 40
0.0
 40
0.0
 40
0.0
 40
0.0
 40
1.0
 40
1.0
 40
1.0
 40
1.0
 10
28.449
 20
-35.0001
 30
0.0
 10
28.449
 20
-35.0001
 30
0.0
 10
28.449
 20
-2.9087
 30
0.0
 10
28.449
 20
-2.9087
 30
0.0
  0
SPLINE
  5
8A
330
1F
100
AcDbEntity
  8
VRSTVA_1
 62
   250
100
AcDbSpline
210
0.0
220
0.0
230
1.0
 70
    24
 71
     3
 72
     8
 73
     4
 74
     0
 42
0.0000000001
 43
0.0000000001
 40
0.0
 40
0.0
 40
0.0
 40
0.0
 40
1.0
 40
1.0
 40
1.0
 40
1.0
 10
32.5417
 20
17.2551
 30
0.0
 10
32.5417
 20
17.2551
 30
0.0
 10
6.6345
 20
17.2551
 30
0.0
 10
6.6345
 20
17.2551
 30
0.0
  0
SPLINE
  5
8B
330
1F
100
AcDbEntity
  8
VRSTVA_1
 62
   250
100
AcDbSpline
210
0.0
220
0.0
230
1.0
 70
    24
 71
     3
 72
     8
 73
     4
 74
     0
 42
0.0000000001
 43
0.0000000001
 40
0.0
 40
0.0
 40
0.0
 40
0.0
 40
1.0
 40
1.0
 40
1.0
 40
1.0
 10
12.9895
 20
27.8562
 30
0.0
 10
12.9895
 20
27.8562
 30
0.0
 10
32.5852
 20
27.8562
 30
0.0
 10
32.5852
 20
27.8562
 30
0.0
  0
SPLINE
  5
8C
330
1F
100
AcDbEntity
  8
VRSTVA_1
 62
   250
100
AcDbSpline
210
0.0
220
0.0
230
1.0
 70
    11
 71
     3
 72
    48
 73
    44
 74
     0
 42
0.0000000001
 43
0.0000000001
 40
0.0
 40
0.0
 40
0.0
 40
0.0
 40
0.0833333333333333
 40
0.0833333333333333
 40
0.0833333333333333
 40
0.0833333333333333
 40
0.1666666666666667
 40
0.1666666666666667
 40
0.1666666666666667
 40
0.1666666666666667
 40
0.25
 40
0.25
 40
0.25
 40
0.25
 40
0.3333333333333333
 40
0.3333333333333333
 40
0.3333333333333333
 40
0.3333333333333333
 40
0.4166666666666667
 40
0.4166666666666667
 40
0.4166666666666667
 40
0.4166666666666667
 40
0.5
 40
0.5
 40
0.5
 40
0.5
 40
0.5833333333333334
 40
0.5833333333333334
 40
0.5833333333333334
 40
0.5833333333333334
 40
0.6666666666666666
 40
0.6666666666666666
 40
0.6666666666666666
 40
0.6666666666666666
 40
0.75
 40
0.75
 40
0.75
 40
0.75
 40
0.8333333333333334
 40
0.8333333333333334
 40
0.8333333333333334
 40
0.8333333333333334
 40
1.0
 40
1.0
 40
1.0
 40
1.0
 10
29.2768
 20
18.3498
 30
0.0
 10
29.2768
 20
18.3498
 30
0.0
 10
29.0383
 20
18.3498
 30
0.0
 10
29.0383
 20
18.3498
 30
0.0
 10
29.0383
 20
18.3498
 30
0.0
 10
29.0383
 20
18.3498
 30
0.0
 10
29.0383
 20
19.6574
 30
0.0
 10
29.0383
 20
19.6574
 30
0.0
 10
29.0383
 20
19.6574
 30
0.0
 10
29.0383
 20
19.6574
 30
0.0
 10
29.2312
 20
19.6574
 30
0.0
 10
29.2312
 20
19.6574
 30
0.0
 10
29.2312
 20
19.6574
 30
0.0
 10
29.368
 20
19.529
 30
0.0
 10
29.5501
 20
19.4015
 30
0.0
 10
29.7768
 20
19.275
 30
0.0
 10
29.7768
 20
19.275
 30
0.0
 10
30.0035
 20
19.1489
 30
0.0
 10
30.2373
 20
19.0511
 30
0.0
 10
30.4767
 20
18.9824
 30
0.0
 10
30.4767
 20
18.9824
 30
0.0
 10
30.646
 20
18.9326
 30
0.0
 10
30.8309
 20
18.9011
 30
0.0
 10
31.0322
 20
18.8874
 30
0.0
 10
31.0322
 20
18.8874
 30
0.0
 10
31.0322
 20
18.8874
 30
0.0
 10
31.0322
 20
18.6325
 30
0.0
 10
31.0322
 20
18.6325
 30
0.0
 10
31.0322
 20
18.6325
 30
0.0
 10
30.8732
 20
18.6353
 30
0.0
 10
30.6813
 20
18.6663
 30
0.0
 10
30.456
 20
18.7261
 30
0.0
 10
30.456
 20
18.7261
 30
0.0
 10
30.2312
 20
18.7858
 30
0.0
 10
30.0139
 20
18.8714
 30
0.0
 10
29.805
 20
18.9829
 30
0.0
 10
29.805
 20
18.9829
 30
0.0
 10
29.5962
 20
19.0948
 30
0.0
 10
29.4198
 20
19.2134
 30
0.0
 10
29.2768
 20
19.3394
 30
0.0
 10
29.2768
 20
19.3394
 30
0.0
 10
29.2768
 20
19.3394
 30
0.0
 10
29.2768
 20
18.3498
 30
0.0
 10
29.2768
 20
18.3498
 30
0.0
  0
SPLINE
  5
8D
330
1F
100
AcDbEntity
  8
VRSTVA_1
 62
   250
100
AcDbSpline
210
0.0
220
0.0
230
1.0
 70
    11
 71
     3
 72
    52
 73
    48
 74
     0
 42
0.0000000001
 43
0.0000000001
 40
0.0
 40
0.0
 40
0.0
 40
0.0
 40
0.0769230769230769
 40
0.0769230769230769
 40
0.0769230769230769
 40
0.0769230769230769
 40
0.1538461538461539
 40
0.1538461538461539
 40
0.1538461538461539
 40
0.1538461538461539
 40
0.2307692307692308
 40
0.2307692307692308
 40
0.2307692307692308
 40
0.2307692307692308
 40
0.3076923076923077
 40
0.3076923076923077
 40
0.3076923076923077
 40
0.3076923076923077
 40
0.3846153846153846
 40
0.3846153846153846
 40
0.3846153846153846
 40
0.3846153846153846
 40
0.4615384615384616
 40
0.4615384615384616
 40
0.4615384615384616
 40
0.4615384615384616
 40
0.5384615384615384
 40
0.5384615384615384
 40
0.5384615384615384
 40
0.5384615384615384
 40
0.6153846153846154
 40
0.6153846153846154
 40
0.6153846153846154
 40
0.6153846153846154
 40
0.6923076923076923
 40
0.6923076923076923
 40
0.6923076923076923
 40
0.6923076923076923
 40
0.7692307692307693
 40
0.7692307692307693
 40
0.7692307692307693
 40
0.7692307692307693
 40
0.8461538461538461
 40
0.8461538461538461
 40
0.8461538461538461
 40
0.8461538461538461
 40
1.0
 40
1.0
 40
1.0
 40
1.0
 10
30.036
 20
19.9029
 30
0.0
 10
29.797
 20
19.9029
 30
0.0
 10
29.6046
 20
19.9274
 30
0.0
 10
29.4593
 20
19.9768
 30
0.0
 10
29.4593
 20
19.9768
 30
0.0
 10
29.3135
 20
20.0257
 30
0.0
 10
29.2011
 20
20.0991
 30
0.0
 10
29.122
 20
20.196
 30
0.0
 10
29.122
 20
20.196
 30
0.0
 10
29.043
 20
20.2929
 30
0.0
 10
29.0035
 20
20.4147
 30
0.0
 10
29.0035
 20
20.5614
 30
0.0
 10
29.0035
 20
20.5614
 30
0.0
 10
29.0035
 20
20.6701
 30
0.0
 10
29.0256
 20
20.7651
 30
0.0
 10
29.0694
 20
20.8469
 30
0.0
 10
29.0694
 20
20.8469
 30
0.0
 10
29.1126
 20
20.9288
 30
0.0
 10
29.1757
 20
20.9961
 30
0.0
 10
29.258
 20
21.0497
 30
0.0
 10
29.258
 20
21.0497
 30
0.0
 10
29.3403
 20
21.1028
 30
0.0
 10
29.4405
 20
21.1447
 30
0.0
 10
29.5585
 20
21.1748
 30
0.0
 10
29.5585
 20
21.1748
 30
0.0
 10
29.6766
 20
21.2054
 30
0.0
 10
29.8356
 20
21.2204
 30
0.0
 10
30.036
 20
21.2204
 30
0.0
 10
30.036
 20
21.2204
 30
0.0
 10
30.273
 20
21.2204
 30
0.0
 10
30.464
 20
21.196
 30
0.0
 10
30.6098
 20
21.1475
 30
0.0
 10
30.6098
 20
21.1475
 30
0.0
 10
30.7556
 20
21.0986
 30
0.0
 10
30.868
 20
21.0257
 30
0.0
 10
30.9475
 20
20.9288
 30
0.0
 10
30.9475
 20
20.9288
 30
0.0
 10
31.027
 20
20.8319
 30
0.0
 10
31.0665
 20
20.7096
 30
0.0
 10
31.0665
 20
20.5614
 30
0.0
 10
31.0665
 20
20.5614
 30
0.0
 10
31.0665
 20
20.3667
 30
0.0
 10
30.9969
 20
20.2138
 30
0.0
 10
30.8572
 20
20.1028
 30
0.0
 10
30.8572
 20
20.1028
 30
0.0
 10
30.6893
 20
19.9697
 30
0.0
 10
30.4151
 20
19.9029
 30
0.0
 10
30.036
 20
19.9029
 30
0.0
  0
SPLINE
  5
8E
330
1F
100
AcDbEntity
  8
VRSTVA_1
 62
   250
100
AcDbSpline
210
0.0
220
0.0
230
1.0
 70
    11
 71
     3
 72
    36
 73
    32
 74
     0
 42
0.0000000001
 43
0.0000000001
 40
0.0
 40
0.0
 40
0.0
 40
0.0
 40
0.1111111111111111
 40
0.1111111111111111
 40
0.1111111111111111
 40
0.1111111111111111
 40
0.2222222222222222
 40
0.2222222222222222
 40
0.2222222222222222
 40
0.2222222222222222
 40
0.3333333333333333
 40
0.3333333333333333
 40
0.3333333333333333
 40
0.3333333333333333
 40
0.4444444444444444
 40
0.4444444444444444
 40
0.4444444444444444
 40
0.4444444444444444
 40
0.5555555555555556
 40
0.5555555555555556
 40
0.5555555555555556
 40
0.5555555555555556
 40
0.6666666666666666
 40
0.6666666666666666
 40
0.6666666666666666
 40
0.6666666666666666
 40
0.7777777777777778
 40
0.7777777777777778
 40
0.7777777777777778
 40
0.7777777777777778
 40
1.0
 40
1.0
 40
1.0
 40
1.0
 10
30.036
 20
20.1579
 30
0.0
 10
30.3676
 20
20.1579
 30
0.0
 10
30.5882
 20
20.1969
 30
0.0
 10
30.6982
 20
20.2745
 30
0.0
 10
30.6982
 20
20.2745
 30
0.0
 10
30.8078
 20
20.3521
 30
0.0
 10
30.8629
 20
20.4476
 30
0.0
 10
30.8629
 20
20.5614
 30
0.0
 10
30.8629
 20
20.5614
 30
0.0
 10
30.8629
 20
20.6757
 30
0.0
 10
30.8074
 20
20.7712
 30
0.0
 10
30.6973
 20
20.8488
 30
0.0
 10
30.6973
 20
20.8488
 30
0.0
 10
30.5872
 20
20.9264
 30
0.0
 10
30.3666
 20
20.9655
 30
0.0
 10
30.036
 20
20.9655
 30
0.0
 10
30.036
 20
20.9655
 30
0.0
 10
29.7034
 20
20.9655
 30
0.0
 10
29.4823
 20
20.9264
 30
0.0
 10
29.3732
 20
20.8488
 30
0.0
 10
29.3732
 20
20.8488
 30
0.0
 10
29.2636
 20
20.7712
 30
0.0
 10
29.2091
 20
20.6748
 30
0.0
 10
29.2091
 20
20.5591
 30
0.0
 10
29.2091
 20
20.5591
 30
0.0
 10
29.2091
 20
20.4448
 30
0.0
 10
29.2575
 20
20.354
 30
0.0
 10
29.3539
 20
20.2858
 30
0.0
 10
29.3539
 20
20.2858
 30
0.0
 10
29.4767
 20
20.2007
 30
0.0
 10
29.7044
 20
20.1579
 30
0.0
 10
30.036
 20
20.1579
 30
0.0
  0
SPLINE
  5
8F
330
1F
100
AcDbEntity
  8
VRSTVA_1
 62
   250
100
AcDbSpline
210
0.0
220
0.0
230
1.0
 70
    11
 71
     3
 72
    20
 73
    16
 74
     0
 42
0.0000000001
 43
0.0000000001
 40
0.0
 40
0.0
 40
0.0
 40
0.0
 40
0.2
 40
0.2
 40
0.2
 40
0.2
 40
0.4
 40
0.4
 40
0.4
 40
0.4
 40
0.6
 40
0.6
 40
0.6
 40
0.6
 40
1.0
 40
1.0
 40
1.0
 40
1.0
 10
30.4259
 20
22.2289
 30
0.0
 10
30.4259
 20
22.2289
 30
0.0
 10
30.1766
 20
22.2289
 30
0.0
 10
30.1766
 20
22.2289
 30
0.0
 10
30.1766
 20
22.2289
 30
0.0
 10
30.1766
 20
22.2289
 30
0.0
 10
30.1766
 20
22.9913
 30
0.0
 10
30.1766
 20
22.9913
 30
0.0
 10
30.1766
 20
22.9913
 30
0.0
 10
30.1766
 20
22.9913
 30
0.0
 10
30.4259
 20
22.9913
 30
0.0
 10
30.4259
 20
22.9913
 30
0.0
 10
30.4259
 20
22.9913
 30
0.0
 10
30.4259
 20
22.9913
 30
0.0
 10
30.4259
 20
22.2289
 30
0.0
 10
30.4259
 20
22.2289
 30
0.0
  0
SPLINE
  5
90
330
1F
100
AcDbEntity
  8
VRSTVA_1
 62
   250
100
AcDbSpline
210
0.0
220
0.0
230
1.0
 70
    11
 71
     3
 72
    92
 73
    88
 74
     0
 42
0.0000000001
 43
0.0000000001
 40
0.0
 40
0.0
 40
0.0
 40
0.0
 40
0.0434782608695652
 40
0.0434782608695652
 40
0.0434782608695652
 40
0.0434782608695652
 40
0.0869565217391304
 40
0.0869565217391304
 40
0.0869565217391304
 40
0.0869565217391304
 40
0.1304347826086956
 40
0.1304347826086956
 40
0.1304347826086956
 40
0.1304347826086956
 40
0.1739130434782609
 40
0.1739130434782609
 40
0.1739130434782609
 40
0.1739130434782609
 40
0.2173913043478261
 40
0.2173913043478261
 40
0.2173913043478261
 40
0.2173913043478261
 40
0.2608695652173913
 40
0.2608695652173913
 40
0.2608695652173913
 40
0.2608695652173913
 40
0.3043478260869565
 40
0.3043478260869565
 40
0.3043478260869565
 40
0.3043478260869565
 40
0.3478260869565217
 40
0.3478260869565217
 40
0.3478260869565217
 40
0.3478260869565217
 40
0.391304347826087
 40
0.391304347826087
 40
0.391304347826087
 40
0.391304347826087
 40
0.4347826086956522
 40
0.4347826086956522
 40
0.4347826086956522
 40
0.4347826086956522
 40
0.4782608695652174
 40
0.4782608695652174
 40
0.4782608695652174
 40
0.4782608695652174
 40
0.5217391304347826
 40
0.5217391304347826
 40
0.5217391304347826
 40
0.5217391304347826
 40
0.5652173913043478
 40
0.5652173913043478
 40
0.5652173913043478
 40
0.5652173913043478
 40
0.6086956521739131
 40
0.6086956521739131
 40
0.6086956521739131
 40
0.6086956521739131
 40
0.6521739130434783
 40
0.6521739130434783
 40
0.6521739130434783
 40
0.6521739130434783
 40
0.6956521739130435
 40
0.6956521739130435
 40
0.6956521739130435
 40
0.6956521739130435
 40
0.7391304347826086
 40
0.7391304347826086
 40
0.7391304347826086
 40
0.7391304347826086
 40
0.782608695652174
 40
0.782608695652174
 40
0.782608695652174
 40
0.782608695652174
 40
0.8260869565217391
 40
0.8260869565217391
 40
0.8260869565217391
 40
0.8260869565217391
 40
0.8695652173913043
 40
0.8695652173913043
 40
0.8695652173913043
 40
0.8695652173913043
 40
0.9130434782608695
 40
0.9130434782608695
 40
0.9130434782608695
 40
0.9130434782608695
 40
1.0
 40
1.0
 40
1.0
 40
1.0
 10
30.5651
 20
24.0177
 30
0.0
 10
30.5651
 20
24.0177
 30
0.0
 10
30.543
 20
24.2562
 30
0.0
 10
30.543
 20
24.2562
 30
0.0
 10
30.543
 20
24.2562
 30
0.0
 10
30.655
 20
24.2764
 30
0.0
 10
30.7363
 20
24.315
 30
0.0
 10
30.7871
 20
24.3719
 30
0.0
 10
30.7871
 20
24.3719
 30
0.0
 10
30.8375
 20
24.4288
 30
0.0
 10
30.8629
 20
24.5017
 30
0.0
 10
30.8629
 20
24.5911
 30
0.0
 10
30.8629
 20
24.5911
 30
0.0
 10
30.8629
 20
24.6673
 30
0.0
 10
30.8455
 20
24.734
 30
0.0
 10
30.8102
 20
24.7914
 30
0.0
 10
30.8102
 20
24.7914
 30
0.0
 10
30.7754
 20
24.8488
 30
0.0
 10
30.7288
 20
24.8959
 30
0.0
 10
30.6705
 20
24.9325
 30
0.0
 10
30.6705
 20
24.9325
 30
0.0
 10
30.6122
 20
24.9697
 30
0.0
 10
30.5331
 20
25.0003
 30
0.0
 10
30.4344
 20
25.0252
 30
0.0
 10
30.4344
 20
25.0252
 30
0.0
 10
30.3351
 20
25.0497
 30
0.0
 10
30.234
 20
25.0624
 30
0.0
 10
30.131
 20
25.0624
 30
0.0
 10
30.131
 20
25.0624
 30
0.0
 10
30.1202
 20
25.0624
 30
0.0
 10
30.1032
 20
25.0619
 30
0.0
 10
30.0816
 20
25.061
 30
0.0
 10
30.0816
 20
25.061
 30
0.0
 10
30.1601
 20
25.0111
 30
0.0
 10
30.2246
 20
24.9434
 30
0.0
 10
30.2735
 20
24.8578
 30
0.0
 10
30.2735
 20
24.8578
 30
0.0
 10
30.3229
 20
24.7717
 30
0.0
 10
30.3473
 20
24.6785
 30
0.0
 10
30.3473
 20
24.5788
 30
0.0
 10
30.3473
 20
24.5788
 30
0.0
 10
30.3473
 20
24.4114
 30
0.0
 10
30.2867
 20
24.2698
 30
0.0
 10
30.1653
 20
24.1541
 30
0.0
 10
30.1653
 20
24.1541
 30
0.0
 10
30.044
 20
24.0384
 30
0.0
 10
29.8845
 20
23.9805
 30
0.0
 10
29.686
 20
23.9805
 30
0.0
 10
29.686
 20
23.9805
 30
0.0
 10
29.4809
 20
23.9805
 30
0.0
 10
29.3163
 20
24.0407
 30
0.0
 10
29.1912
 20
24.1616
 30
0.0
 10
29.1912
 20
24.1616
 30
0.0
 10
29.0661
 20
24.2825
 30
0.0
 10
29.0035
 20
24.434
 30
0.0
 10
29.0035
 20
24.616
 30
0.0
 10
29.0035
 20
24.616
 30
0.0
 10
29.0035
 20
24.7472
 30
0.0
 10
29.0393
 20
24.8672
 30
0.0
 10
29.1098
 20
24.9763
 30
0.0
 10
29.1098
 20
24.9763
 30
0.0
 10
29.1804
 20
25.0849
 30
0.0
 10
29.2815
 20
25.1677
 30
0.0
 10
29.4123
 20
25.2242
 30
0.0
 10
29.4123
 20
25.2242
 30
0.0
 10
29.543
 20
25.2806
 30
0.0
 10
29.7326
 20
25.3088
 30
0.0
 10
29.9809
 20
25.3088
 30
0.0
 10
29.9809
 20
25.3088
 30
0.0
 10
30.2387
 20
25.3088
 30
0.0
 10
30.4442
 20
25.2811
 30
0.0
 10
30.5976
 20
25.2251
 30
0.0
 10
30.5976
 20
25.2251
 30
0.0
 10
30.7505
 20
25.1687
 30
0.0
 10
30.8666
 20
25.0854
 30
0.0
 10
30.9466
 20
24.9749
 30
0.0
 10
30.9466
 20
24.9749
 30
0.0
 10
31.0266
 20
24.8639
 30
0.0
 10
31.0665
 20
24.7345
 30
0.0
 10
31.0665
 20
24.5854
 30
0.0
 10
31.0665
 20
24.5854
 30
0.0
 10
31.0665
 20
24.4274
 30
0.0
 10
31.0228
 20
24.2985
 30
0.0
 10
30.9348
 20
24.1983
 30
0.0
 10
30.9348
 20
24.1983
 30
0.0
 10
30.8473
 20
24.0981
 30
0.0
 10
30.7241
 20
24.0379
 30
0.0
 10
30.5651
 20
24.0177
 30
0.0
  0
SPLINE
  5
91
330
1F
100
AcDbEntity
  8
VRSTVA_1
 62
   250
100
AcDbSpline
210
0.0
220
0.0
230
1.0
 70
    11
 71
     3
 72
    36
 73
    32
 74
     0
 42
0.0000000001
 43
0.0000000001
 40
0.0
 40
0.0
 40
0.0
 40
0.0
 40
0.1111111111111111
 40
0.1111111111111111
 40
0.1111111111111111
 40
0.1111111111111111
 40
0.2222222222222222
 40
0.2222222222222222
 40
0.2222222222222222
 40
0.2222222222222222
 40
0.3333333333333333
 40
0.3333333333333333
 40
0.3333333333333333
 40
0.3333333333333333
 40
0.4444444444444444
 40
0.4444444444444444
 40
0.4444444444444444
 40
0.4444444444444444
 40
0.5555555555555556
 40
0.5555555555555556
 40
0.5555555555555556
 40
0.5555555555555556
 40
0.6666666666666666
 40
0.6666666666666666
 40
0.6666666666666666
 40
0.6666666666666666
 40
0.7777777777777778
 40
0.7777777777777778
 40
0.7777777777777778
 40
0.7777777777777778
 40
1.0
 40
1.0
 40
1.0
 40
1.0
 10
29.6733
 20
25.0332
 30
0.0
 10
29.5313
 20
25.0332
 30
0.0
 10
29.4179
 20
24.9956
 30
0.0
 10
29.3346
 20
24.9198
 30
0.0
 10
29.3346
 20
24.9198
 30
0.0
 10
29.2509
 20
24.8436
 30
0.0
 10
29.2091
 20
24.7529
 30
0.0
 10
29.2091
 20
24.6461
 30
0.0
 10
29.2091
 20
24.6461
 30
0.0
 10
29.2091
 20
24.536
 30
0.0
 10
29.2542
 20
24.4401
 30
0.0
 10
29.3441
 20
24.3582
 30
0.0
 10
29.3441
 20
24.3582
 30
0.0
 10
29.4344
 20
24.2764
 30
0.0
 10
29.551
 20
24.2355
 30
0.0
 10
29.694
 20
24.2355
 30
0.0
 10
29.694
 20
24.2355
 30
0.0
 10
29.8229
 20
24.2355
 30
0.0
 10
29.9273
 20
24.2745
 30
0.0
 10
30.0077
 20
24.3521
 30
0.0
 10
30.0077
 20
24.3521
 30
0.0
 10
30.0882
 20
24.4297
 30
0.0
 10
30.1282
 20
24.5252
 30
0.0
 10
30.1282
 20
24.639
 30
0.0
 10
30.1282
 20
24.639
 30
0.0
 10
30.1282
 20
24.7543
 30
0.0
 10
30.0882
 20
24.8483
 30
0.0
 10
30.0077
 20
24.9222
 30
0.0
 10
30.0077
 20
24.9222
 30
0.0
 10
29.9273
 20
24.9965
 30
0.0
 10
29.8158
 20
25.0332
 30
0.0
 10
29.6733
 20
25.0332
 30
0.0
  0
SPLINE
  5
92
330
1F
100
AcDbEntity
  8
VRSTVA_1
 62
   250
100
AcDbSpline
210
0.0
220
0.0
230
1.0
 70
    11
 71
     3
 72
    52
 73
    48
 74
     0
 42
0.0000000001
 43
0.0000000001
 40
0.0
 40
0.0
 40
0.0
 40
0.0
 40
0.0769230769230769
 40
0.0769230769230769
 40
0.0769230769230769
 40
0.0769230769230769
 40
0.1538461538461539
 40
0.1538461538461539
 40
0.1538461538461539
 40
0.1538461538461539
 40
0.2307692307692308
 40
0.2307692307692308
 40
0.2307692307692308
 40
0.2307692307692308
 40
0.3076923076923077
 40
0.3076923076923077
 40
0.3076923076923077
 40
0.3076923076923077
 40
0.3846153846153846
 40
0.3846153846153846
 40
0.3846153846153846
 40
0.3846153846153846
 40
0.4615384615384616
 40
0.4615384615384616
 40
0.4615384615384616
 40
0.4615384615384616
 40
0.5384615384615384
 40
0.5384615384615384
 40
0.5384615384615384
 40
0.5384615384615384
 40
0.6153846153846154
 40
0.6153846153846154
 40
0.6153846153846154
 40
0.6153846153846154
 40
0.6923076923076923
 40
0.6923076923076923
 40
0.6923076923076923
 40
0.6923076923076923
 40
0.7692307692307693
 40
0.7692307692307693
 40
0.7692307692307693
 40
0.7692307692307693
 40
0.8461538461538461
 40
0.8461538461538461
 40
0.8461538461538461
 40
0.8461538461538461
 40
1.0
 40
1.0
 40
1.0
 40
1.0
 10
30.036
 20
25.5501
 30
0.0
 10
29.797
 20
25.5501
 30
0.0
 10
29.6046
 20
25.5746
 30
0.0
 10
29.4593
 20
25.624
 30
0.0
 10
29.4593
 20
25.624
 30
0.0
 10
29.3135
 20
25.6729
 30
0.0
 10
29.2011
 20
25.7463
 30
0.0
 10
29.122
 20
25.8432
 30
0.0
 10
29.122
 20
25.8432
 30
0.0
 10
29.043
 20
25.9401
 30
0.0
 10
29.0035
 20
26.0619
 30
0.0
 10
29.0035
 20
26.2086
 30
0.0
 10
29.0035
 20
26.2086
 30
0.0
 10
29.0035
 20
26.3173
 30
0.0
 10
29.0256
 20
26.4123
 30
0.0
 10
29.0694
 20
26.4941
 30
0.0
 10
29.0694
 20
26.4941
 30
0.0
 10
29.1126
 20
26.576
 30
0.0
 10
29.1757
 20
26.6433
 30
0.0
 10
29.258
 20
26.6969
 30
0.0
 10
29.258
 20
26.6969
 30
0.0
 10
29.3403
 20
26.75
 30
0.0
 10
29.4405
 20
26.7919
 30
0.0
 10
29.5585
 20
26.822
 30
0.0
 10
29.5585
 20
26.822
 30
0.0
 10
29.6766
 20
26.8526
 30
0.0
 10
29.8356
 20
26.8676
 30
0.0
 10
30.036
 20
26.8676
 30
0.0
 10
30.036
 20
26.8676
 30
0.0
 10
30.273
 20
26.8676
 30
0.0
 10
30.464
 20
26.8432
 30
0.0
 10
30.6098
 20
26.7947
 30
0.0
 10
30.6098
 20
26.7947
 30
0.0
 10
30.7556
 20
26.7458
 30
0.0
 10
30.868
 20
26.6729
 30
0.0
 10
30.9475
 20
26.576
 30
0.0
 10
30.9475
 20
26.576
 30
0.0
 10
31.027
 20
26.4791
 30
0.0
 10
31.0665
 20
26.3568
 30
0.0
 10
31.0665
 20
26.2086
 30
0.0
 10
31.0665
 20
26.2086
 30
0.0
 10
31.0665
 20
26.0139
 30
0.0
 10
30.9969
 20
25.861
 30
0.0
 10
30.8572
 20
25.75
 30
0.0
 10
30.8572
 20
25.75
 30
0.0
 10
30.6893
 20
25.6169
 30
0.0
 10
30.4151
 20
25.5501
 30
0.0
 10
30.036
 20
25.5501
 30
0.0
  0
SPLINE
  5
93
330
1F
100
AcDbEntity
  8
VRSTVA_1
 62
   250
100
AcDbSpline
210
0.0
220
0.0
230
1.0
 70
    11
 71
     3
 72
    36
 73
    32
 74
     0
 42
0.0000000001
 43
0.0000000001
 40
0.0
 40
0.0
 40
0.0
 40
0.0
 40
0.1111111111111111
 40
0.1111111111111111
 40
0.1111111111111111
 40
0.1111111111111111
 40
0.2222222222222222
 40
0.2222222222222222
 40
0.2222222222222222
 40
0.2222222222222222
 40
0.3333333333333333
 40
0.3333333333333333
 40
0.3333333333333333
 40
0.3333333333333333
 40
0.4444444444444444
 40
0.4444444444444444
 40
0.4444444444444444
 40
0.4444444444444444
 40
0.5555555555555556
 40
0.5555555555555556
 40
0.5555555555555556
 40
0.5555555555555556
 40
0.6666666666666666
 40
0.6666666666666666
 40
0.6666666666666666
 40
0.6666666666666666
 40
0.7777777777777778
 40
0.7777777777777778
 40
0.7777777777777778
 40
0.7777777777777778
 40
1.0
 40
1.0
 40
1.0
 40
1.0
 10
30.036
 20
25.8051
 30
0.0
 10
30.3676
 20
25.8051
 30
0.0
 10
30.5882
 20
25.8441
 30
0.0
 10
30.6982
 20
25.9217
 30
0.0
 10
30.6982
 20
25.9217
 30
0.0
 10
30.8078
 20
25.9993
 30
0.0
 10
30.8629
 20
26.0948
 30
0.0
 10
30.8629
 20
26.2086
 30
0.0
 10
30.8629
 20
26.2086
 30
0.0
 10
30.8629
 20
26.3229
 30
0.0
 10
30.8074
 20
26.4184
 30
0.0
 10
30.6973
 20
26.496
 30
0.0
 10
30.6973
 20
26.496
 30
0.0
 10
30.5872
 20
26.5736
 30
0.0
 10
30.3666
 20
26.6127
 30
0.0
 10
30.036
 20
26.6127
 30
0.0
 10
30.036
 20
26.6127
 30
0.0
 10
29.7034
 20
26.6127
 30
0.0
 10
29.4823
 20
26.5736
 30
0.0
 10
29.3732
 20
26.496
 30
0.0
 10
29.3732
 20
26.496
 30
0.0
 10
29.2636
 20
26.4184
 30
0.0
 10
29.2091
 20
26.322
 30
0.0
 10
29.2091
 20
26.2063
 30
0.0
 10
29.2091
 20
26.2063
 30
0.0
 10
29.2091
 20
26.092
 30
0.0
 10
29.2575
 20
26.0012
 30
0.0
 10
29.3539
 20
25.933
 30
0.0
 10
29.3539
 20
25.933
 30
0.0
 10
29.4767
 20
25.8479
 30
0.0
 10
29.7044
 20
25.8051
 30
0.0
 10
30.036
 20
25.8051
 30
0.0
  0
SPLINE
  5
94
330
1F
100
AcDbEntity
  8
VRSTVA_1
 62
   250
100
AcDbSpline
210
0.0
220
0.0
230
1.0
 70
    11
 71
     3
 72
    20
 73
    16
 74
     0
 42
0.0000000001
 43
0.0000000001
 40
0.0
 40
0.0
 40
0.0
 40
0.0
 40
0.2
 40
0.2
 40
0.2
 40
0.2
 40
0.4
 40
0.4
 40
0.4
 40
0.4
 40
0.6
 40
0.6
 40
0.6
 40
0.6
 40
1.0
 40
1.0
 40
1.0
 40
1.0
 10
32.0679
 20
17.2926
 30
0.0
 10
32.0679
 20
17.2926
 30
0.0
 10
32.3874
 20
19.4812
 30
0.0
 10
32.3874
 20
19.4812
 30
0.0
 10
32.3874
 20
19.4812
 30
0.0
 10
32.3874
 20
19.4812
 30
0.0
 10
31.682
 20
19.4812
 30
0.0
 10
31.682
 20
19.4812
 30
0.0
 10
31.682
 20
19.4812
 30
0.0
 10
31.682
 20
19.4812
 30
0.0
 10
32.0669
 20
17.2926
 30
0.0
 10
32.0669
 20
17.2926
 30
0.0
 10
32.0669
 20
17.2926
 30
0.0
 10
32.0669
 20
17.2926
 30
0.0
 10
32.0679
 20
17.2926
 30
0.0
 10
32.0679
 20
17.2926
 30
0.0
  0
SPLINE
  5
95
330
1F
100
AcDbEntity
  8
VRSTVA_1
 62
   250
100
AcDbSpline
210
0.0
220
0.0
230
1.0
 70
    11
 71
     3
 72
    20
 73
    16
 74
     0
 42
0.0000000001
 43
0.0000000001
 40
0.0
 40
0.0
 40
0.0
 40
0.0
 40
0.2
 40
0.2
 40
0.2
 40
0.2
 40
0.4
 40
0.4
 40
0.4
 40
0.4
 40
0.6
 40
0.6
 40
0.6
 40
0.6
 40
1.0
 40
1.0
 40
1.0
 40
1.0
 10
32.042
 20
27.8002
 30
0.0
 10
32.042
 20
27.8002
 30
0.0
 10
31.7224
 20
25.6116
 30
0.0
 10
31.7224
 20
25.6116
 30
0.0
 10
31.7224
 20
25.6116
 30
0.0
 10
31.7224
 20
25.6116
 30
0.0
 10
32.4278
 20
25.6116
 30
0.0
 10
32.4278
 20
25.6116
 30
0.0
 10
32.4278
 20
25.6116
 30
0.0
 10
32.4278
 20
25.6116
 30
0.0
 10
32.043
 20
27.8002
 30
0.0
 10
32.043
 20
27.8002
 30
0.0
 10
32.043
 20
27.8002
 30
0.0
 10
32.043
 20
27.8002
 30
0.0
 10
32.042
 20
27.8002
 30
0.0
 10
32.042
 20
27.8002
 30
0.0
  0
SPLINE
  5
96
330
1F
100
AcDbEntity
  8
VRSTVA_1
 62
   250
100
AcDbSpline
210
0.0
220
0.0
230
1.0
 70
    24
 71
     3
 72
     8
 73
     4
 74
     0
 42
0.0000000001
 43
0.0000000001
 40
0.0
 40
0.0
 40
0.0
 40
0.0
 40
1.0
 40
1.0
 40
1.0
 40
1.0
 10
32.0402
 20
27.2673
 30
0.0
 10
32.0402
 20
27.2673
 30
0.0
 10
32.0402
 20
17.9462
 30
0.0
 10
32.0402
 20
17.9462
 30
0.0
  0
SPLINE
  5
97
330
1F
100
AcDbEntity
  8
VRSTVA_1
  6
NEW_LINE1
 62
   250
100
AcDbSpline
210
0.0
220
0.0
230
1.0
 70
    24
 71
     3
 72
     8
 73
     4
 74
     0
 42
0.0000000001
 43
0.0000000001
 40
0.0
 40
0.0
 40
0.0
 40
0.0
 40
1.0
 40
1.0
 40
1.0
 40
1.0
 10
-4.3355
 20
25.9588
 30
0.0
 10
-4.3355
 20
25.9588
 30
0.0
 10
-4.3355
 20
31.0679
 30
0.0
 10
-4.3355
 20
31.0679
 30
0.0
  0
SPLINE
  5
99
330
1F
100
AcDbEntity
  8
VRSTVA_1
  6
NEW_LINE2
 62
   250
100
AcDbSpline
210
0.0
220
0.0
230
1.0
 70
    24
 71
     3
 72
     8
 73
     4
 74
     0
 42
0.0000000001
 43
0.0000000001
 40
0.0
 40
0.0
 40
0.0
 40
0.0
 40
1.0
 40
1.0
 40
1.0
 40
1.0
 10
-6.4443
 20
27.852
 30
0.0
 10
-6.4443
 20
27.852
 30
0.0
 10
12.5276
 20
27.852
 30
0.0
 10
12.5276
 20
27.852
 30
0.0
  0
SPLINE
  5
9B
330
1F
100
AcDbEntity
  8
VRSTVA_1
  6
NEW_LINE3
 62
   250
100
AcDbSpline
210
0.0
220
0.0
230
1.0
 70
    24
 71
     3
 72
     8
 73
     4
 74
     0
 42
0.0000000001
 43
0.0000000001
 40
0.0
 40
0.0
 40
0.0
 40
0.0
 40
1.0
 40
1.0
 40
1.0
 40
1.0
 10
10.489
 20
26.0444
 30
0.0
 10
10.489
 20
26.0444
 30
0.0
 10
10.489
 20
30.8968
 30
0.0
 10
10.489
 20
30.8968
 30
0.0
  0
SPLINE
  5
9D
330
1F
100
AcDbEntity
  8
VRSTVA_1
 62
   250
100
AcDbSpline
210
0.0
220
0.0
230
1.0
 70
    11
 71
     3
 72
    40
 73
    36
 74
     0
 42
0.0000000001
 43
0.0000000001
 40
0.0
 40
0.0
 40
0.0
 40
0.0
 40
0.1
 40
0.1
 40
0.1
 40
0.1
 40
0.2
 40
0.2
 40
0.2
 40
0.2
 40
0.3
 40
0.3
 40
0.3
 40
0.3
 40
0.4
 40
0.4
 40
0.4
 40
0.4
 40
0.5
 40
0.5
 40
0.5
 40
0.5
 40
0.6
 40
0.6
 40
0.6
 40
0.6
 40
0.7
 40
0.7
 40
0.7
 40
0.7
 40
0.8
 40
0.8
 40
0.8
 40
0.8
 40
1.0
 40
1.0
 40
1.0
 40
1.0
 10
-1.256
 20
33.1489
 30
0.0
 10
-1.256
 20
33.1489
 30
0.0
 10
-1.5039
 20
33.1489
 30
0.0
 10
-1.5039
 20
33.1489
 30
0.0
 10
-1.5039
 20
33.1489
 30
0.0
 10
-1.5039
 20
33.1489
 30
0.0
 10
-1.5039
 20
34.7293
 30
0.0
 10
-1.5039
 20
34.7293
 30
0.0
 10
-1.5039
 20
34.7293
 30
0.0
 10
-1.5637
 20
34.6724
 30
0.0
 10
-1.6417
 20
34.6155
 30
0.0
 10
-1.7386
 20
34.5586
 30
0.0
 10
-1.7386
 20
34.5586
 30
0.0
 10
-1.836
 20
34.5017
 30
0.0
 10
-1.923
 20
34.4589
 30
0.0
 10
-2.0002
 20
34.4306
 30
0.0
 10
-2.0002
 20
34.4306
 30
0.0
 10
-2.0002
 20
34.4306
 30
0.0
 10
-2.0002
 20
34.6701
 30
0.0
 10
-2.0002
 20
34.6701
 30
0.0
 10
-2.0002
 20
34.6701
 30
0.0
 10
-1.8614
 20
34.7354
 30
0.0
 10
-1.74
 20
34.8145
 30
0.0
 10
-1.6361
 20
34.9071
 30
0.0
 10
-1.6361
 20
34.9071
 30
0.0
 10
-1.5326
 20
35.0003
 30
0.0
 10
-1.4588
 20
35.0901
 30
0.0
 10
-1.4155
 20
35.1776
 30
0.0
 10
-1.4155
 20
35.1776
 30
0.0
 10
-1.4155
 20
35.1776
 30
0.0
 10
-1.256
 20
35.1776
 30
0.0
 10
-1.256
 20
35.1776
 30
0.0
 10
-1.256
 20
35.1776
 30
0.0
 10
-1.256
 20
35.1776
 30
0.0
 10
-1.256
 20
33.1489
 30
0.0
 10
-1.256
 20
33.1489
 30
0.0
  0
SPLINE
  5
9E
330
1F
100
AcDbEntity
  8
VRSTVA_1
 62
   250
100
AcDbSpline
210
0.0
220
0.0
230
1.0
 70
    11
 71
     3
 72
    40
 73
    36
 74
     0
 42
0.0000000001
 43
0.0000000001
 40
0.0
 40
0.0
 40
0.0
 40
0.0
 40
0.1
 40
0.1
 40
0.1
 40
0.1
 40
0.2
 40
0.2
 40
0.2
 40
0.2
 40
0.3
 40
0.3
 40
0.3
 40
0.3
 40
0.4
 40
0.4
 40
0.4
 40
0.4
 40
0.5
 40
0.5
 40
0.5
 40
0.5
 40
0.6
 40
0.6
 40
0.6
 40
0.6
 40
0.7
 40
0.7
 40
0.7
 40
0.7
 40
0.8
 40
0.8
 40
0.8
 40
0.8
 40
1.0
 40
1.0
 40
1.0
 40
1.0
 10
0.1043
 20
33.1489
 30
0.0
 10
0.1043
 20
33.1489
 30
0.0
 10
-0.1436
 20
33.1489
 30
0.0
 10
-0.1436
 20
33.1489
 30
0.0
 10
-0.1436
 20
33.1489
 30
0.0
 10
-0.1436
 20
33.1489
 30
0.0
 10
-0.1436
 20
34.7293
 30
0.0
 10
-0.1436
 20
34.7293
 30
0.0
 10
-0.1436
 20
34.7293
 30
0.0
 10
-0.2034
 20
34.6724
 30
0.0
 10
-0.2814
 20
34.6155
 30
0.0
 10
-0.3783
 20
34.5586
 30
0.0
 10
-0.3783
 20
34.5586
 30
0.0
 10
-0.4757
 20
34.5017
 30
0.0
 10
-0.5627
 20
34.4589
 30
0.0
 10
-0.6399
 20
34.4306
 30
0.0
 10
-0.6399
 20
34.4306
 30
0.0
 10
-0.6399
 20
34.4306
 30
0.0
 10
-0.6399
 20
34.6701
 30
0.0
 10
-0.6399
 20
34.6701
 30
0.0
 10
-0.6399
 20
34.6701
 30
0.0
 10
-0.5011
 20
34.7354
 30
0.0
 10
-0.3797
 20
34.8145
 30
0.0
 10
-0.2758
 20
34.9071
 30
0.0
 10
-0.2758
 20
34.9071
 30
0.0
 10
-0.1723
 20
35.0003
 30
0.0
 10
-0.0985
 20
35.0901
 30
0.0
 10
-0.0552
 20
35.1776
 30
0.0
 10
-0.0552
 20
35.1776
 30
0.0
 10
-0.0552
 20
35.1776
 30
0.0
 10
0.1043
 20
35.1776
 30
0.0
 10
0.1043
 20
35.1776
 30
0.0
 10
0.1043
 20
35.1776
 30
0.0
 10
0.1043
 20
35.1776
 30
0.0
 10
0.1043
 20
33.1489
 30
0.0
 10
0.1043
 20
33.1489
 30
0.0
  0
SPLINE
  5
9F
330
1F
100
AcDbEntity
  8
VRSTVA_1
 62
   250
100
AcDbSpline
210
0.0
220
0.0
230
1.0
 70
    11
 71
     3
 72
    52
 73
    48
 74
     0
 42
0.0000000001
 43
0.0000000001
 40
0.0
 40
0.0
 40
0.0
 40
0.0
 40
0.0769230769230769
 40
0.0769230769230769
 40
0.0769230769230769
 40
0.0769230769230769
 40
0.1538461538461539
 40
0.1538461538461539
 40
0.1538461538461539
 40
0.1538461538461539
 40
0.2307692307692308
 40
0.2307692307692308
 40
0.2307692307692308
 40
0.2307692307692308
 40
0.3076923076923077
 40
0.3076923076923077
 40
0.3076923076923077
 40
0.3076923076923077
 40
0.3846153846153846
 40
0.3846153846153846
 40
0.3846153846153846
 40
0.3846153846153846
 40
0.4615384615384616
 40
0.4615384615384616
 40
0.4615384615384616
 40
0.4615384615384616
 40
0.5384615384615384
 40
0.5384615384615384
 40
0.5384615384615384
 40
0.5384615384615384
 40
0.6153846153846154
 40
0.6153846153846154
 40
0.6153846153846154
 40
0.6153846153846154
 40
0.6923076923076923
 40
0.6923076923076923
 40
0.6923076923076923
 40
0.6923076923076923
 40
0.7692307692307693
 40
0.7692307692307693
 40
0.7692307692307693
 40
0.7692307692307693
 40
0.8461538461538461
 40
0.8461538461538461
 40
0.8461538461538461
 40
0.8461538461538461
 40
1.0
 40
1.0
 40
1.0
 40
1.0
 10
0.7397
 20
34.1451
 30
0.0
 10
0.7397
 20
34.3841
 30
0.0
 10
0.7642
 20
34.5765
 30
0.0
 10
0.8136
 20
34.7218
 30
0.0
 10
0.8136
 20
34.7218
 30
0.0
 10
0.8625
 20
34.8676
 30
0.0
 10
0.9359
 20
34.98
 30
0.0
 10
1.0328
 20
35.0591
 30
0.0
 10
1.0328
 20
35.0591
 30
0.0
 10
1.1297
 20
35.1381
 30
0.0
 10
1.2515
 20
35.1776
 30
0.0
 10
1.3982
 20
35.1776
 30
0.0
 10
1.3982
 20
35.1776
 30
0.0
 10
1.5069
 20
35.1776
 30
0.0
 10
1.6019
 20
35.1555
 30
0.0
 10
1.6837
 20
35.1117
 30
0.0
 10
1.6837
 20
35.1117
 30
0.0
 10
1.7656
 20
35.0685
 30
0.0
 10
1.8329
 20
35.0054
 30
0.0
 10
1.8865
 20
34.9231
 30
0.0
 10
1.8865
 20
34.9231
 30
0.0
 10
1.9396
 20
34.8408
 30
0.0
 10
1.9815
 20
34.7406
 30
0.0
 10
2.0116
 20
34.6226
 30
0.0
 10
2.0116
 20
34.6226
 30
0.0
 10
2.0422
 20
34.5045
 30
0.0
 10
2.0572
 20
34.3455
 30
0.0
 10
2.0572
 20
34.1451
 30
0.0
 10
2.0572
 20
34.1451
 30
0.0
 10
2.0572
 20
33.9081
 30
0.0
 10
2.0328
 20
33.7171
 30
0.0
 10
1.9843
 20
33.5713
 30
0.0
 10
1.9843
 20
33.5713
 30
0.0
 10
1.9354
 20
33.4255
 30
0.0
 10
1.8625
 20
33.3131
 30
0.0
 10
1.7656
 20
33.2336
 30
0.0
 10
1.7656
 20
33.2336
 30
0.0
 10
1.6687
 20
33.1541
 30
0.0
 10
1.5464
 20
33.1146
 30
0.0
 10
1.3982
 20
33.1146
 30
0.0
 10
1.3982
 20
33.1146
 30
0.0
 10
1.2035
 20
33.1146
 30
0.0
 10
1.0506
 20
33.1842
 30
0.0
 10
0.9396
 20
33.3239
 30
0.0
 10
0.9396
 20
33.3239
 30
0.0
 10
0.8065
 20
33.4918
 30
0.0
 10
0.7397
 20
33.766
 30
0.0
 10
0.7397
 20
34.1451
 30
0.0
  0
SPLINE
  5
A0
330
1F
100
AcDbEntity
  8
VRSTVA_1
 62
   250
100
AcDbSpline
210
0.0
220
0.0
230
1.0
 70
    11
 71
     3
 72
    36
 73
    32
 74
     0
 42
0.0000000001
 43
0.0000000001
 40
0.0
 40
0.0
 40
0.0
 40
0.0
 40
0.1111111111111111
 40
0.1111111111111111
 40
0.1111111111111111
 40
0.1111111111111111
 40
0.2222222222222222
 40
0.2222222222222222
 40
0.2222222222222222
 40
0.2222222222222222
 40
0.3333333333333333
 40
0.3333333333333333
 40
0.3333333333333333
 40
0.3333333333333333
 40
0.4444444444444444
 40
0.4444444444444444
 40
0.4444444444444444
 40
0.4444444444444444
 40
0.5555555555555556
 40
0.5555555555555556
 40
0.5555555555555556
 40
0.5555555555555556
 40
0.6666666666666666
 40
0.6666666666666666
 40
0.6666666666666666
 40
0.6666666666666666
 40
0.7777777777777778
 40
0.7777777777777778
 40
0.7777777777777778
 40
0.7777777777777778
 40
1.0
 40
1.0
 40
1.0
 40
1.0
 10
0.9947
 20
34.1451
 30
0.0
 10
0.9947
 20
33.8135
 30
0.0
 10
1.0337
 20
33.5929
 30
0.0
 10
1.1113
 20
33.4829
 30
0.0
 10
1.1113
 20
33.4829
 30
0.0
 10
1.1889
 20
33.3733
 30
0.0
 10
1.2844
 20
33.3182
 30
0.0
 10
1.3982
 20
33.3182
 30
0.0
 10
1.3982
 20
33.3182
 30
0.0
 10
1.5125
 20
33.3182
 30
0.0
 10
1.608
 20
33.3737
 30
0.0
 10
1.6856
 20
33.4838
 30
0.0
 10
1.6856
 20
33.4838
 30
0.0
 10
1.7632
 20
33.5939
 30
0.0
 10
1.8023
 20
33.8145
 30
0.0
 10
1.8023
 20
34.1451
 30
0.0
 10
1.8023
 20
34.1451
 30
0.0
 10
1.8023
 20
34.4777
 30
0.0
 10
1.7632
 20
34.6988
 30
0.0
 10
1.6856
 20
34.8079
 30
0.0
 10
1.6856
 20
34.8079
 30
0.0
 10
1.608
 20
34.9175
 30
0.0
 10
1.5116
 20
34.972
 30
0.0
 10
1.3959
 20
34.972
 30
0.0
 10
1.3959
 20
34.972
 30
0.0
 10
1.2816
 20
34.972
 30
0.0
 10
1.1908
 20
34.9236
 30
0.0
 10
1.1226
 20
34.8272
 30
0.0
 10
1.1226
 20
34.8272
 30
0.0
 10
1.0375
 20
34.7044
 30
0.0
 10
0.9947
 20
34.4767
 30
0.0
 10
0.9947
 20
34.1451
 30
0.0
  0
SPLINE
  5
A1
330
1F
100
AcDbEntity
  8
VRSTVA_1
 62
   250
100
AcDbSpline
210
0.0
220
0.0
230
1.0
 70
    11
 71
     3
 72
    20
 73
    16
 74
     0
 42
0.0000000001
 43
0.0000000001
 40
0.0
 40
0.0
 40
0.0
 40
0.0
 40
0.2
 40
0.2
 40
0.2
 40
0.2
 40
0.4
 40
0.4
 40
0.4
 40
0.4
 40
0.6
 40
0.6
 40
0.6
 40
0.6
 40
1.0
 40
1.0
 40
1.0
 40
1.0
 10
3.0657
 20
33.7552
 30
0.0
 10
3.0657
 20
33.7552
 30
0.0
 10
3.0657
 20
34.0045
 30
0.0
 10
3.0657
 20
34.0045
 30
0.0
 10
3.0657
 20
34.0045
 30
0.0
 10
3.0657
 20
34.0045
 30
0.0
 10
3.8281
 20
34.0045
 30
0.0
 10
3.8281
 20
34.0045
 30
0.0
 10
3.8281
 20
34.0045
 30
0.0
 10
3.8281
 20
34.0045
 30
0.0
 10
3.8281
 20
33.7552
 30
0.0
 10
3.8281
 20
33.7552
 30
0.0
 10
3.8281
 20
33.7552
 30
0.0
 10
3.8281
 20
33.7552
 30
0.0
 10
3.0657
 20
33.7552
 30
0.0
 10
3.0657
 20
33.7552
 30
0.0
  0
SPLINE
  5
A2
330
1F
100
AcDbEntity
  8
VRSTVA_1
 62
   250
100
AcDbSpline
210
0.0
220
0.0
230
1.0
 70
    11
 71
     3
 72
    40
 73
    36
 74
     0
 42
0.0000000001
 43
0.0000000001
 40
0.0
 40
0.0
 40
0.0
 40
0.0
 40
0.1
 40
0.1
 40
0.1
 40
0.1
 40
0.2
 40
0.2
 40
0.2
 40
0.2
 40
0.3
 40
0.3
 40
0.3
 40
0.3
 40
0.4
 40
0.4
 40
0.4
 40
0.4
 40
0.5
 40
0.5
 40
0.5
 40
0.5
 40
0.6
 40
0.6
 40
0.6
 40
0.6
 40
0.7
 40
0.7
 40
0.7
 40
0.7
 40
0.8
 40
0.8
 40
0.8
 40
0.8
 40
1.0
 40
1.0
 40
1.0
 40
1.0
 10
5.7515
 20
33.1489
 30
0.0
 10
5.7515
 20
33.1489
 30
0.0
 10
5.5036
 20
33.1489
 30
0.0
 10
5.5036
 20
33.1489
 30
0.0
 10
5.5036
 20
33.1489
 30
0.0
 10
5.5036
 20
33.1489
 30
0.0
 10
5.5036
 20
34.7293
 30
0.0
 10
5.5036
 20
34.7293
 30
0.0
 10
5.5036
 20
34.7293
 30
0.0
 10
5.4438
 20
34.6724
 30
0.0
 10
5.3658
 20
34.6155
 30
0.0
 10
5.2689
 20
34.5586
 30
0.0
 10
5.2689
 20
34.5586
 30
0.0
 10
5.1715
 20
34.5017
 30
0.0
 10
5.0845
 20
34.4589
 30
0.0
 10
5.0073
 20
34.4306
 30
0.0
 10
5.0073
 20
34.4306
 30
0.0
 10
5.0073
 20
34.4306
 30
0.0
 10
5.0073
 20
34.6701
 30
0.0
 10
5.0073
 20
34.6701
 30
0.0
 10
5.0073
 20
34.6701
 30
0.0
 10
5.1461
 20
34.7354
 30
0.0
 10
5.2675
 20
34.8145
 30
0.0
 10
5.3714
 20
34.9071
 30
0.0
 10
5.3714
 20
34.9071
 30
0.0
 10
5.4749
 20
35.0003
 30
0.0
 10
5.5487
 20
35.0901
 30
0.0
 10
5.592
 20
35.1776
 30
0.0
 10
5.592
 20
35.1776
 30
0.0
 10
5.592
 20
35.1776
 30
0.0
 10
5.7515
 20
35.1776
 30
0.0
 10
5.7515
 20
35.1776
 30
0.0
 10
5.7515
 20
35.1776
 30
0.0
 10
5.7515
 20
35.1776
 30
0.0
 10
5.7515
 20
33.1489
 30
0.0
 10
5.7515
 20
33.1489
 30
0.0
  0
SPLINE
  5
A3
330
1F
100
AcDbEntity
  8
VRSTVA_1
 62
   250
100
AcDbSpline
210
0.0
220
0.0
230
1.0
 70
    11
 71
     3
 72
    80
 73
    76
 74
     0
 42
0.0000000001
 43
0.0000000001
 40
0.0
 40
0.0
 40
0.0
 40
0.0
 40
0.05
 40
0.05
 40
0.05
 40
0.05
 40
0.1
 40
0.1
 40
0.1
 40
0.1
 40
0.15
 40
0.15
 40
0.15
 40
0.15
 40
0.2
 40
0.2
 40
0.2
 40
0.2
 40
0.25
 40
0.25
 40
0.25
 40
0.25
 40
0.3
 40
0.3
 40
0.3
 40
0.3
 40
0.35
 40
0.35
 40
0.35
 40
0.35
 40
0.4
 40
0.4
 40
0.4
 40
0.4
 40
0.45
 40
0.45
 40
0.45
 40
0.45
 40
0.5
 40
0.5
 40
0.5
 40
0.5
 40
0.55
 40
0.55
 40
0.55
 40
0.55
 40
0.6
 40
0.6
 40
0.6
 40
0.6
 40
0.65
 40
0.65
 40
0.65
 40
0.65
 40
0.7
 40
0.7
 40
0.7
 40
0.7
 40
0.75
 40
0.75
 40
0.75
 40
0.75
 40
0.8
 40
0.8
 40
0.8
 40
0.8
 40
0.85
 40
0.85
 40
0.85
 40
0.85
 40
0.9
 40
0.9
 40
0.9
 40
0.9
 40
1.0
 40
1.0
 40
1.0
 40
1.0
 10
7.6738
 20
34.6743
 30
0.0
 10
7.6738
 20
34.6743
 30
0.0
 10
7.4274
 20
34.655
 30
0.0
 10
7.4274
 20
34.655
 30
0.0
 10
7.4274
 20
34.655
 30
0.0
 10
7.4053
 20
34.7524
 30
0.0
 10
7.3742
 20
34.8234
 30
0.0
 10
7.3338
 20
34.8671
 30
0.0
 10
7.3338
 20
34.8671
 30
0.0
 10
7.2665
 20
34.9382
 30
0.0
 10
7.1837
 20
34.9735
 30
0.0
 10
7.0854
 20
34.9735
 30
0.0
 10
7.0854
 20
34.9735
 30
0.0
 10
7.0064
 20
34.9735
 30
0.0
 10
6.9373
 20
34.9513
 30
0.0
 10
6.8775
 20
34.9071
 30
0.0
 10
6.8775
 20
34.9071
 30
0.0
 10
6.7994
 20
34.8502
 30
0.0
 10
6.7378
 20
34.767
 30
0.0
 10
6.6927
 20
34.6578
 30
0.0
 10
6.6927
 20
34.6578
 30
0.0
 10
6.648
 20
34.5487
 30
0.0
 10
6.6245
 20
34.393
 30
0.0
 10
6.6226
 20
34.1908
 30
0.0
 10
6.6226
 20
34.1908
 30
0.0
 10
6.6823
 20
34.2815
 30
0.0
 10
6.7552
 20
34.3493
 30
0.0
 10
6.8418
 20
34.3935
 30
0.0
 10
6.8418
 20
34.3935
 30
0.0
 10
6.9278
 20
34.4372
 30
0.0
 10
7.0186
 20
34.4593
 30
0.0
 10
7.1132
 20
34.4593
 30
0.0
 10
7.1132
 20
34.4593
 30
0.0
 10
7.2787
 20
34.4593
 30
0.0
 10
7.4194
 20
34.3987
 30
0.0
 10
7.5356
 20
34.2768
 30
0.0
 10
7.5356
 20
34.2768
 30
0.0
 10
7.6517
 20
34.155
 30
0.0
 10
7.7101
 20
33.9979
 30
0.0
 10
7.7101
 20
33.8051
 30
0.0
 10
7.7101
 20
33.8051
 30
0.0
 10
7.7101
 20
33.6781
 30
0.0
 10
7.6823
 20
33.5605
 30
0.0
 10
7.6277
 20
33.4513
 30
0.0
 10
7.6277
 20
33.4513
 30
0.0
 10
7.5732
 20
33.3427
 30
0.0
 10
7.4979
 20
33.259
 30
0.0
 10
7.4024
 20
33.2011
 30
0.0
 10
7.4024
 20
33.2011
 30
0.0
 10
7.307
 20
33.1433
 30
0.0
 10
7.1988
 20
33.1146
 30
0.0
 10
7.0774
 20
33.1146
 30
0.0
 10
7.0774
 20
33.1146
 30
0.0
 10
6.8705
 20
33.1146
 30
0.0
 10
6.7021
 20
33.1903
 30
0.0
 10
6.5718
 20
33.3427
 30
0.0
 10
6.5718
 20
33.3427
 30
0.0
 10
6.441
 20
33.4946
 30
0.0
 10
6.3761
 20
33.7453
 30
0.0
 10
6.3761
 20
34.0943
 30
0.0
 10
6.3761
 20
34.0943
 30
0.0
 10
6.3761
 20
34.4847
 30
0.0
 10
6.4481
 20
34.7684
 30
0.0
 10
6.5925
 20
34.9457
 30
0.0
 10
6.5925
 20
34.9457
 30
0.0
 10
6.7181
 20
35.1
 30
0.0
 10
6.8874
 20
35.1776
 30
0.0
 10
7.1009
 20
35.1776
 30
0.0
 10
7.1009
 20
35.1776
 30
0.0
 10
7.2595
 20
35.1776
 30
0.0
 10
7.3897
 20
35.1329
 30
0.0
 10
7.4913
 20
35.0435
 30
0.0
 10
7.4913
 20
35.0435
 30
0.0
 10
7.5929
 20
34.9546
 30
0.0
 10
7.6536
 20
34.8314
 30
0.0
 10
7.6738
 20
34.6743
 30
0.0
  0
SPLINE
  5
A4
330
1F
100
AcDbEntity
  8
VRSTVA_1
 62
   250
100
AcDbSpline
210
0.0
220
0.0
230
1.0
 70
    11
 71
     3
 72
    40
 73
    36
 74
     0
 42
0.0000000001
 43
0.0000000001
 40
0.0
 40
0.0
 40
0.0
 40
0.0
 40
0.1
 40
0.1
 40
0.1
 40
0.1
 40
0.2
 40
0.2
 40
0.2
 40
0.2
 40
0.3
 40
0.3
 40
0.3
 40
0.3
 40
0.4
 40
0.4
 40
0.4
 40
0.4
 40
0.5
 40
0.5
 40
0.5
 40
0.5
 40
0.6
 40
0.6
 40
0.6
 40
0.6
 40
0.7
 40
0.7
 40
0.7
 40
0.7
 40
0.8
 40
0.8
 40
0.8
 40
0.8
 40
1.0
 40
1.0
 40
1.0
 40
1.0
 10
6.6611
 20
33.8037
 30
0.0
 10
6.6611
 20
33.718
 30
0.0
 10
6.6795
 20
33.6362
 30
0.0
 10
6.7157
 20
33.5581
 30
0.0
 10
6.7157
 20
33.5581
 30
0.0
 10
6.7519
 20
33.48
 30
0.0
 10
6.8027
 20
33.4208
 30
0.0
 10
6.8676
 20
33.3799
 30
0.0
 10
6.8676
 20
33.3799
 30
0.0
 10
6.933
 20
33.3389
 30
0.0
 10
7.0017
 20
33.3182
 30
0.0
 10
7.0732
 20
33.3182
 30
0.0
 10
7.0732
 20
33.3182
 30
0.0
 10
7.1781
 20
33.3182
 30
0.0
 10
7.2679
 20
33.3606
 30
0.0
 10
7.3432
 20
33.4452
 30
0.0
 10
7.3432
 20
33.4452
 30
0.0
 10
7.4184
 20
33.5299
 30
0.0
 10
7.4561
 20
33.6447
 30
0.0
 10
7.4561
 20
33.7895
 30
0.0
 10
7.4561
 20
33.7895
 30
0.0
 10
7.4561
 20
33.9292
 30
0.0
 10
7.4189
 20
34.0393
 30
0.0
 10
7.3446
 20
34.1197
 30
0.0
 10
7.3446
 20
34.1197
 30
0.0
 10
7.2703
 20
34.2002
 30
0.0
 10
7.1767
 20
34.2402
 30
0.0
 10
7.0638
 20
34.2402
 30
0.0
 10
7.0638
 20
34.2402
 30
0.0
 10
6.9514
 20
34.2402
 30
0.0
 10
6.8563
 20
34.2002
 30
0.0
 10
6.7783
 20
34.1197
 30
0.0
 10
6.7783
 20
34.1197
 30
0.0
 10
6.7002
 20
34.0393
 30
0.0
 10
6.6611
 20
33.9339
 30
0.0
 10
6.6611
 20
33.8037
 30
0.0
  0
SPLINE
  5
A5
330
1F
100
AcDbEntity
  8
VRSTVA_1
 62
   250
100
AcDbSpline
210
0.0
220
0.0
230
1.0
 70
    11
 71
     3
 72
    92
 73
    88
 74
     0
 42
0.0000000001
 43
0.0000000001
 40
0.0
 40
0.0
 40
0.0
 40
0.0
 40
0.0434782608695652
 40
0.0434782608695652
 40
0.0434782608695652
 40
0.0434782608695652
 40
0.0869565217391304
 40
0.0869565217391304
 40
0.0869565217391304
 40
0.0869565217391304
 40
0.1304347826086956
 40
0.1304347826086956
 40
0.1304347826086956
 40
0.1304347826086956
 40
0.1739130434782609
 40
0.1739130434782609
 40
0.1739130434782609
 40
0.1739130434782609
 40
0.2173913043478261
 40
0.2173913043478261
 40
0.2173913043478261
 40
0.2173913043478261
 40
0.2608695652173913
 40
0.2608695652173913
 40
0.2608695652173913
 40
0.2608695652173913
 40
0.3043478260869565
 40
0.3043478260869565
 40
0.3043478260869565
 40
0.3043478260869565
 40
0.3478260869565217
 40
0.3478260869565217
 40
0.3478260869565217
 40
0.3478260869565217
 40
0.391304347826087
 40
0.391304347826087
 40
0.391304347826087
 40
0.391304347826087
 40
0.4347826086956522
 40
0.4347826086956522
 40
0.4347826086956522
 40
0.4347826086956522
 40
0.4782608695652174
 40
0.4782608695652174
 40
0.4782608695652174
 40
0.4782608695652174
 40
0.5217391304347826
 40
0.5217391304347826
 40
0.5217391304347826
 40
0.5217391304347826
 40
0.5652173913043478
 40
0.5652173913043478
 40
0.5652173913043478
 40
0.5652173913043478
 40
0.6086956521739131
 40
0.6086956521739131
 40
0.6086956521739131
 40
0.6086956521739131
 40
0.6521739130434783
 40
0.6521739130434783
 40
0.6521739130434783
 40
0.6521739130434783
 40
0.6956521739130435
 40
0.6956521739130435
 40
0.6956521739130435
 40
0.6956521739130435
 40
0.7391304347826086
 40
0.7391304347826086
 40
0.7391304347826086
 40
0.7391304347826086
 40
0.782608695652174
 40
0.782608695652174
 40
0.782608695652174
 40
0.782608695652174
 40
0.8260869565217391
 40
0.8260869565217391
 40
0.8260869565217391
 40
0.8260869565217391
 40
0.8695652173913043
 40
0.8695652173913043
 40
0.8695652173913043
 40
0.8695652173913043
 40
0.9130434782608695
 40
0.9130434782608695
 40
0.9130434782608695
 40
0.9130434782608695
 40
1.0
 40
1.0
 40
1.0
 40
1.0
 10
7.9565
 20
33.6781
 30
0.0
 10
7.9565
 20
33.6781
 30
0.0
 10
8.2171
 20
33.7002
 30
0.0
 10
8.2171
 20
33.7002
 30
0.0
 10
8.2171
 20
33.7002
 30
0.0
 10
8.2364
 20
33.5732
 30
0.0
 10
8.2811
 20
33.4782
 30
0.0
 10
8.3512
 20
33.4142
 30
0.0
 10
8.3512
 20
33.4142
 30
0.0
 10
8.4217
 20
33.3502
 30
0.0
 10
8.5064
 20
33.3182
 30
0.0
 10
8.6056
 20
33.3182
 30
0.0
 10
8.6056
 20
33.3182
 30
0.0
 10
8.7251
 20
33.3182
 30
0.0
 10
8.8262
 20
33.3634
 30
0.0
 10
8.9085
 20
33.4532
 30
0.0
 10
8.9085
 20
33.4532
 30
0.0
 10
8.9913
 20
33.5435
 30
0.0
 10
9.0327
 20
33.663
 30
0.0
 10
9.0327
 20
33.8116
 30
0.0
 10
9.0327
 20
33.8116
 30
0.0
 10
9.0327
 20
33.9532
 30
0.0
 10
8.9932
 20
34.0647
 30
0.0
 10
8.9137
 20
34.1465
 30
0.0
 10
8.9137
 20
34.1465
 30
0.0
 10
8.8342
 20
34.2284
 30
0.0
 10
8.7303
 20
34.2693
 30
0.0
 10
8.6014
 20
34.2693
 30
0.0
 10
8.6014
 20
34.2693
 30
0.0
 10
8.5214
 20
34.2693
 30
0.0
 10
8.4495
 20
34.251
 30
0.0
 10
8.385
 20
34.2148
 30
0.0
 10
8.385
 20
34.2148
 30
0.0
 10
8.3206
 20
34.1785
 30
0.0
 10
8.2703
 20
34.1315
 30
0.0
 10
8.2336
 20
34.0736
 30
0.0
 10
8.2336
 20
34.0736
 30
0.0
 10
8.2336
 20
34.0736
 30
0.0
 10
8.0007
 20
34.1037
 30
0.0
 10
8.0007
 20
34.1037
 30
0.0
 10
8.0007
 20
34.1037
 30
0.0
 10
8.0007
 20
34.1037
 30
0.0
 10
8.1964
 20
35.1414
 30
0.0
 10
8.1964
 20
35.1414
 30
0.0
 10
8.1964
 20
35.1414
 30
0.0
 10
8.1964
 20
35.1414
 30
0.0
 10
9.2011
 20
35.1414
 30
0.0
 10
9.2011
 20
35.1414
 30
0.0
 10
9.2011
 20
35.1414
 30
0.0
 10
9.2011
 20
35.1414
 30
0.0
 10
9.2011
 20
34.9043
 30
0.0
 10
9.2011
 20
34.9043
 30
0.0
 10
9.2011
 20
34.9043
 30
0.0
 10
9.2011
 20
34.9043
 30
0.0
 10
8.3949
 20
34.9043
 30
0.0
 10
8.3949
 20
34.9043
 30
0.0
 10
8.3949
 20
34.9043
 30
0.0
 10
8.3949
 20
34.9043
 30
0.0
 10
8.2858
 20
34.3615
 30
0.0
 10
8.2858
 20
34.3615
 30
0.0
 10
8.2858
 20
34.3615
 30
0.0
 10
8.4071
 20
34.4462
 30
0.0
 10
8.5346
 20
34.4885
 30
0.0
 10
8.6677
 20
34.4885
 30
0.0
 10
8.6677
 20
34.4885
 30
0.0
 10
8.8441
 20
34.4885
 30
0.0
 10
8.9927
 20
34.4274
 30
0.0
 10
9.1141
 20
34.3051
 30
0.0
 10
9.1141
 20
34.3051
 30
0.0
 10
9.2354
 20
34.1828
 30
0.0
 10
9.2961
 20
34.0257
 30
0.0
 10
9.2961
 20
33.8338
 30
0.0
 10
9.2961
 20
33.8338
 30
0.0
 10
9.2961
 20
33.6508
 30
0.0
 10
9.2425
 20
33.4927
 30
0.0
 10
9.1362
 20
33.3596
 30
0.0
 10
9.1362
 20
33.3596
 30
0.0
 10
9.0064
 20
33.1964
 30
0.0
 10
8.8295
 20
33.1146
 30
0.0
 10
8.6056
 20
33.1146
 30
0.0
 10
8.6056
 20
33.1146
 30
0.0
 10
8.4217
 20
33.1146
 30
0.0
 10
8.2717
 20
33.1658
 30
0.0
 10
8.1555
 20
33.2688
 30
0.0
 10
8.1555
 20
33.2688
 30
0.0
 10
8.0393
 20
33.3719
 30
0.0
 10
7.973
 20
33.5083
 30
0.0
 10
7.9565
 20
33.6781
 30
0.0
  0
SPLINE
  5
A6
330
1F
100
AcDbEntity
  8
VRSTVA_1
 62
   250
100
AcDbSpline
210
0.0
220
0.0
230
1.0
 70
    11
 71
     3
 72
    20
 73
    16
 74
     0
 42
0.0000000001
 43
0.0000000001
 40
0.0
 40
0.0
 40
0.0
 40
0.0
 40
0.2
 40
0.2
 40
0.2
 40
0.2
 40
0.4
 40
0.4
 40
0.4
 40
0.4
 40
0.6
 40
0.6
 40
0.6
 40
0.6
 40
1.0
 40
1.0
 40
1.0
 40
1.0
 10
-4.2194
 20
32.6031
 30
0.0
 10
-4.2194
 20
32.6031
 30
0.0
 10
-2.0308
 20
32.2836
 30
0.0
 10
-2.0308
 20
32.2836
 30
0.0
 10
-2.0308
 20
32.2836
 30
0.0
 10
-2.0308
 20
32.2836
 30
0.0
 10
-2.0308
 20
32.989
 30
0.0
 10
-2.0308
 20
32.989
 30
0.0
 10
-2.0308
 20
32.989
 30
0.0
 10
-2.0308
 20
32.989
 30
0.0
 10
-4.2194
 20
32.6041
 30
0.0
 10
-4.2194
 20
32.6041
 30
0.0
 10
-4.2194
 20
32.6041
 30
0.0
 10
-4.2194
 20
32.6041
 30
0.0
 10
-4.2194
 20
32.6031
 30
0.0
 10
-4.2194
 20
32.6031
 30
0.0
  0
SPLINE
  5
A7
330
1F
100
AcDbEntity
  8
VRSTVA_1
 62
   250
100
AcDbSpline
210
0.0
220
0.0
230
1.0
 70
    11
 71
     3
 72
    20
 73
    16
 74
     0
 42
0.0000000001
 43
0.0000000001
 40
0.0
 40
0.0
 40
0.0
 40
0.0
 40
0.2
 40
0.2
 40
0.2
 40
0.2
 40
0.4
 40
0.4
 40
0.4
 40
0.4
 40
0.6
 40
0.6
 40
0.6
 40
0.6
 40
1.0
 40
1.0
 40
1.0
 40
1.0
 10
10.4278
 20
32.6136
 30
0.0
 10
10.4278
 20
32.6136
 30
0.0
 10
8.2392
 20
32.9332
 30
0.0
 10
8.2392
 20
32.9332
 30
0.0
 10
8.2392
 20
32.9332
 30
0.0
 10
8.2392
 20
32.9332
 30
0.0
 10
8.2392
 20
32.2278
 30
0.0
 10
8.2392
 20
32.2278
 30
0.0
 10
8.2392
 20
32.2278
 30
0.0
 10
8.2392
 20
32.2278
 30
0.0
 10
10.4278
 20
32.6126
 30
0.0
 10
10.4278
 20
32.6126
 30
0.0
 10
10.4278
 20
32.6126
 30
0.0
 10
10.4278
 20
32.6126
 30
0.0
 10
10.4278
 20
32.6136
 30
0.0
 10
10.4278
 20
32.6136
 30
0.0
  0
SPLINE
  5
A8
330
1F
100
AcDbEntity
  8
VRSTVA_1
 62
   250
100
AcDbSpline
210
0.0
220
0.0
230
1.0
 70
    24
 71
     3
 72
     8
 73
     4
 74
     0
 42
0.0000000001
 43
0.0000000001
 40
0.0
 40
0.0
 40
0.0
 40
0.0
 40
1.0
 40
1.0
 40
1.0
 40
1.0
 10
9.8434
 20
32.6096
 30
0.0
 10
9.8434
 20
32.6096
 30
0.0
 10
-4.2031
 20
32.6096
 30
0.0
 10
-4.2031
 20
32.6096
 30
0.0
  0
SPLINE
  5
A9
330
1F
100
AcDbEntity
  8
VRSTVA_1
 62
   250
100
AcDbSpline
210
0.0
220
0.0
230
1.0
 70
    24
 71
     3
 72
     8
 73
     4
 74
     0
 42
0.0000000001
 43
0.0000000001
 40
0.0
 40
0.0
 40
0.0
 40
0.0
 40
1.0
 40
1.0
 40
1.0
 40
1.0
 10
-4.3194
 20
31.3533
 30
0.0
 10
-4.3194
 20
31.3533
 30
0.0
 10
-4.3194
 20
32.9318
 30
0.0
 10
-4.3194
 20
32.9318
 30
0.0
  0
SPLINE
  5
AA
330
1F
100
AcDbEntity
  8
VRSTVA_1
 62
   250
100
AcDbSpline
210
0.0
220
0.0
230
1.0
 70
    24
 71
     3
 72
     8
 73
     4
 74
     0
 42
0.0000000001
 43
0.0000000001
 40
0.0
 40
0.0
 40
0.0
 40
0.0
 40
1.0
 40
1.0
 40
1.0
 40
1.0
 10
10.5001
 20
31.2008
 30
0.0
 10
10.5001
 20
31.2008
 30
0.0
 10
10.5001
 20
32.9891
 30
0.0
 10
10.5001
 20
32.9891
 30
0.0
  0
ENDSEC
  0
SECTION
  2
OBJECTS
  0
DICTIONARY
  5
C
330
0
100
AcDbDictionary
  3
ACAD_GROUP
350
D
  3
ACAD_LAYOUT
350
1A
  3
ACAD_MATERIAL
350
3B
  3
ACAD_MLEADERSTYLE
350
CD
  3
ACAD_MLINESTYLE
350
17
  3
ACAD_PLOTSETTINGS
350
19
  3
ACAD_VISUALSTYLE
350
2A
  3
ACDBHEADERROUNDTRIPXREC
350
AB
  3
ACDBVARIABLEDICTIONARY
350
CB
  0
DICTIONARY
  5
D
102
{ACAD_REACTORS
330
C
102
}
330
C
100
AcDbDictionary
  0
DICTIONARY
  5
1A
102
{ACAD_REACTORS
330
C
102
}
330
C
100
AcDbDictionary
  0
DICTIONARY
  5
3B
102
{ACAD_REACTORS
330
C
102
}
330
C
100
AcDbDictionary
  3
BYBLOCK
350
3D
  3
BYLAYER
350
3C
  3
GLOBAL
350
3E
  0
DICTIONARY
  5
CD
102
{ACAD_REACTORS
330
C
102
}
330
C
100
AcDbDictionary
  0
DICTIONARY
  5
17
102
{ACAD_REACTORS
330
C
102
}
330
C
100
AcDbDictionary
  3
STANDARD
350
18
  0
DICTIONARY
  5
19
102
{ACAD_REACTORS
330
C
102
}
330
C
100
AcDbDictionary
  0
DICTIONARY
  5
2A
102
{ACAD_REACTORS
330
C
102
}
330
C
100
AcDbDictionary
  3
2DWIREFRAME
350
2F
  3
3D_HIDDEN
350
31
  3
3DWIREFRAME
350
30
  3
BASIC
350
32
  3
BRIGHTEN
350
36
  3
COLORCHANGE
350
3A
  3
CONCEPTUAL
350
34
  3
DIM
350
35
  3
FACEPATTERN
350
39
  3
FLAT
350
2B
  3
FLATWITHEDGES
350
2C
  3
GOURAUD
350
2D
  3
GOURAUDWITHEDGES
350
2E
  3
LINEPATTERN
350
38
  3
REALISTIC
350
33
  3
THICKEN
350
37
  0
DICTIONARY
  5
AB
102
{ACAD_REACTORS
330
C
102
}
330
C
100
AcDbDictionary
  3
CEPSNTYPE
350
B4
  3
DIMSTYLEDATA
350
CA
  3
FINGERPRINTGUID
350
B5
  3
HYPERLINKBASE
350
AE
  3
INSUNITS
350
B3
  3
LAYOUTDICT
350
B0
  3
LWETCUNION
350
B2
  3
PLOTSETDICT
350
B1
  3
PSVPSCALE
350
B7
  3
PUCSBASE
350
BA
  3
PUCSORGBACK
350
C0
  3
PUCSORGBOTTOM
350
BC
  3
PUCSORGFRONT
350
BF
  3
PUCSORGLEFT
350
BD
  3
PUCSORGRIGHT
350
BE
  3
PUCSORGTOP
350
BB
  3
PUCSORTHOREF
350
B8
  3
PUCSORTHOVIEW
350
B9
  3
STYLESHEET
350
AF
  3
TSTACKALIGN
350
AC
  3
TSTACKSIZE
350
AD
  3
UCSBASE
350
C3
  3
UCSORGBACK
350
C9
  3
UCSORGBOTTOM
350
C5
  3
UCSORGFRONT
350
C8
  3
UCSORGLEFT
350
C6
  3
UCSORGRIGHT
350
C7
  3
UCSORGTOP
350
C4
  3
UCSORTHOREF
350
C1
  3
UCSORTHOVIEW
350
C2
  3
VERSIONGUID
350
B6
  0
DICTIONARY
  5
CB
102
{ACAD_REACTORS
330
C
102
}
330
C
100
AcDbDictionary
  3
DIMASSOC
350
CE
  3
HIDETEXT
350
CF
  0
MATERIAL
  5
3D
102
{ACAD_REACTORS
330
3B
102
}
102
{ACAD_XDICTIONARY
360
D2
102
}
330
3B
100
AcDbMaterial
  1
ByBlock
  0
MATERIAL
  5
3C
102
{ACAD_REACTORS
330
3B
102
}
102
{ACAD_XDICTIONARY
360
D0
102
}
330
3B
100
AcDbMaterial
  1
ByLayer
  0
MATERIAL
  5
3E
102
{ACAD_REACTORS
330
3B
102
}
102
{ACAD_XDICTIONARY
360
D4
102
}
330
3B
100
AcDbMaterial
  1
Global
  0
MLINESTYLE
  5
18
102
{ACAD_REACTORS
330
17
102
}
330
17
100
AcDbMlineStyle
  2
Standard
 70
     0
  3

 62
   256
 51
90.0
 52
90.0
 71
     2
 49
0.5
 62
   256
  6
BYLAYER
 49
-0.5
 62
   256
  6
BYLAYER
  0
ACAD_PROXY_OBJECT
  5
2F
102
{ACAD_REACTORS
330
2A
102
}
330
2A
100
AcDbProxyObject
 90
      499
 91
      501
 93
      436
310
42CC9915DA5C99599C985B595049028333333333333E3BF0000000000000FB0107901411070040501600405405064090741402480A0340
1001
ACAD
1000
AcDbSavedByObjectVersion
1070
     0
  0
ACAD_PROXY_OBJECT
  5
31
102
{ACAD_REACTORS
330
2A
102
}
330
2A
100
AcDbProxyObject
 90
      499
 91
      501
 93
      500
310
424CD108121A5919195B90640502408333333333333E3BF0000000000000FB01079024090700405020000000000001110200405405064090740C02480A0340
1001
ACAD
1000
AcDbSavedByObjectVersion
1070
     0
  0
ACAD_PROXY_OBJECT
  5
30
102
{ACAD_REACTORS
330
2A
102
}
330
2A
100
AcDbProxyObject
 90
      499
 91
      501
 93
      436
310
42CCD915DA5C99599C985B595059028333333333333E3BF0000000000000FB0107901411070040501600405405064090741402480A0340
1001
ACAD
1000
AcDbSavedByObjectVersion
1070
     0
  0
ACAD_PROXY_OBJECT
  5
32
102
{ACAD_REACTORS
330
2A
102
}
330
2A
100
AcDbProxyObject
 90
      499
 91
      501
 93
      388
310
4150985CDA58D07406404333333333333E3BF0000000000000FB0107A41107004050150841D405064090741402480A0350
1001
ACAD
1000
AcDbSavedByObjectVersion
1070
     0
  0
ACAD_PROXY_OBJECT
  5
36
102
{ACAD_REACTORS
330
2A
102
}
330
2A
100
AcDbProxyObject
 90
      499
 91
      501
 93
      428
310
42109C9A59DA1D195B90C409028333333333333E3BF0000000000000FB010790141107004050150841D405064090741402480A029950
1001
ACAD
1000
AcDbSavedByObjectVersion
1070
     0
  0
ACAD_PROXY_OBJECT
  5
3A
102
{ACAD_REACTORS
330
2A
102
}
330
2A
100
AcDbProxyObject
 90
      499
 91
      501
 93
      452
310
42D0DBDB1BDC90DA185B99D95104090240C333333333333E3BF0000000000000FB0108901411070040501508421405064090741402480A0350
1001
ACAD
1000
AcDbSavedByObjectVersion
1070
     0
  0
ACAD_PROXY_OBJECT
  5
34
102
{ACAD_REACTORS
330
2A
102
}
330
2A
100
AcDbProxyObject
 90
      499
 91
      501
 93
      500
310
4290DBDB98D95C1D1D585B10940D028333333333333E3BF0000000000000FB0107902409070040501000000000000111010841D405064090740C02480A0340
1001
ACAD
1000
AcDbSavedByObjectVersion
1070
     0
  0
ACAD_PROXY_OBJECT
  5
35
102
{ACAD_REACTORS
330
2A
102
}
330
2A
100
AcDbProxyObject
 90
      499
 91
      501
 93
      412
310
40D11A5B50B409028333333333333E3BF0000000000000FB010790141107004050150841D405064090741402480A02677FFFFFD0
1001
ACAD
1000
AcDbSavedByObjectVersion
1070
     0
  0
ACAD_PROXY_OBJECT
  5
39
102
{ACAD_REACTORS
330
2A
102
}
330
2A
100
AcDbProxyObject
 90
      499
 91
      501
 93
      444
310
42D19858D95C185D1D195C9B90F409028333333333333E3BF0000000000000FB010790141107004050150841D405064090741402480A0350
1001
ACAD
1000
AcDbSavedByObjectVersion
1070
     0
  0
ACAD_PROXY_OBJECT
  5
2B
102
{ACAD_REACTORS
330
2A
102
}
330
2A
100
AcDbProxyObject
 90
      499
 91
      501
 93
      388
310
41119B185D240901404333333333333E3BF0000000000000F9010740A41107004050150841D405064090741402480A1B50
1001
ACAD
1000
AcDbSavedByObjectVersion
1070
     0
  0
ACAD_PROXY_OBJECT
  5
2C
102
{ACAD_REACTORS
330
2A
102
}
330
2A
100
AcDbProxyObject
 90
      499
 91
      501
 93
      476
310
43519B185D15DA5D1A115919D95CD0140901404333333333333E3BF0000000000000F9010740901411070040501600405405064090741402480A1B50
1001
ACAD
1000
AcDbSavedByObjectVersion
1070
     0
  0
ACAD_PROXY_OBJECT
  5
2D
102
{ACAD_REACTORS
330
2A
102
}
330
2A
100
AcDbProxyObject
 90
      499
 91
      501
 93
      412
310
41D1DBDD5C985D5910240902404333333333333E3BF0000000000000F9010740A411070040501641D405064090741402480A1B50
1001
ACAD
1000
AcDbSavedByObjectVersion
1070
     0
  0
ACAD_PROXY_OBJECT
  5
2E
102
{ACAD_REACTORS
330
2A
102
}
330
2A
100
AcDbProxyObject
 90
      499
 91
      501
 93
      500
310
4411DBDD5C985D5915DA5D1A115919D95CD0340902404333333333333E3BF0000000000000F9010740901411070040501600405405064090741402480A1B50
1001
ACAD
1000
AcDbSavedByObjectVersion
1070
     0
  0
ACAD_PROXY_OBJECT
  5
38
102
{ACAD_REACTORS
330
2A
102
}
330
2A
100
AcDbProxyObject
 90
      499
 91
      501
 93
      444
310
42D31A5B995C185D1D195C9B90E409028333333333333E3BF0000000000000FB010790141107004050750841D405064090741402483A0350
1001
ACAD
1000
AcDbSavedByObjectVersion
1070
     0
  0
ACAD_PROXY_OBJECT
  5
33
102
{ACAD_REACTORS
330
2A
102
}
330
2A
100
AcDbProxyObject
 90
      499
 91
      501
 93
      420
310
425499585B1A5CDD1A58D08409028333333333333E3BF0000000000000FB01079019070040501508421405064090741402480A1B40
1001
ACAD
1000
AcDbSavedByObjectVersion
1070
     0
  0
ACAD_PROXY_OBJECT
  5
37
102
{ACAD_REACTORS
330
2A
102
}
330
2A
100
AcDbProxyObject
 90
      499
 91
      501
 93
      412
310
41D51A1A58DAD95B90D409028333333333333E3BF0000000000000FB010790141107004050150C41D405064090741402480A0350
1001
ACAD
1000
AcDbSavedByObjectVersion
1070
     0
  0
XRECORD
  5
B4
102
{ACAD_REACTORS
330
AB
102
}
330
AB
100
AcDbXrecord
 90
        0
  0
XRECORD
  5
CA
102
{ACAD_REACTORS
330
AB
102
}
330
AB
100
AcDbXrecord
1000
DSTYLE
1002
{
1070
   340
340
11
1002
}
  0
XRECORD
  5
B5
102
{ACAD_REACTORS
330
AB
102
}
330
AB
100
AcDbXrecord
  1
{B02C5C2B-3DED-4D99-ABD4-D102308B83B2}
  0
XRECORD
  5
AE
102
{ACAD_REACTORS
330
AB
102
}
330
AB
100
AcDbXrecord
  1

  0
XRECORD
  5
B3
102
{ACAD_REACTORS
330
AB
102
}
330
AB
100
AcDbXrecord
 90
        4
  0
XRECORD
  5
B0
102
{ACAD_REACTORS
330
AB
102
}
330
AB
100
AcDbXrecord
340
1A
  0
XRECORD
  5
B2
102
{ACAD_REACTORS
330
AB
102
}
330
AB
100
AcDbXrecord
 90
    10781
  0
XRECORD
  5
B1
102
{ACAD_REACTORS
330
AB
102
}
330
AB
100
AcDbXrecord
340
19
  0
XRECORD
  5
B7
102
{ACAD_REACTORS
330
AB
102
}
330
AB
100
AcDbXrecord
 40
0.0
  0
XRECORD
  5
BA
102
{ACAD_REACTORS
330
AB
102
}
330
AB
100
AcDbXrecord
340
0
  0
XRECORD
  5
C0
102
{ACAD_REACTORS
330
AB
102
}
330
AB
100
AcDbXrecord
 10
0.0
 20
0.0
 30
0.0
  0
XRECORD
  5
BC
102
{ACAD_REACTORS
330
AB
102
}
330
AB
100
AcDbXrecord
 10
0.0
 20
0.0
 30
0.0
  0
XRECORD
  5
BF
102
{ACAD_REACTORS
330
AB
102
}
330
AB
100
AcDbXrecord
 10
0.0
 20
0.0
 30
0.0
  0
XRECORD
  5
BD
102
{ACAD_REACTORS
330
AB
102
}
330
AB
100
AcDbXrecord
 10
0.0
 20
0.0
 30
0.0
  0
XRECORD
  5
BE
102
{ACAD_REACTORS
330
AB
102
}
330
AB
100
AcDbXrecord
 10
0.0
 20
0.0
 30
0.0
  0
XRECORD
  5
BB
102
{ACAD_REACTORS
330
AB
102
}
330
AB
100
AcDbXrecord
 10
0.0
 20
0.0
 30
0.0
  0
XRECORD
  5
B8
102
{ACAD_REACTORS
330
AB
102
}
330
AB
100
AcDbXrecord
340
0
  0
XRECORD
  5
B9
102
{ACAD_REACTORS
330
AB
102
}
330
AB
100
AcDbXrecord
 70
     0
  0
XRECORD
  5
AF
102
{ACAD_REACTORS
330
AB
102
}
330
AB
100
AcDbXrecord
  1

  0
XRECORD
  5
AC
102
{ACAD_REACTORS
330
AB
102
}
330
AB
100
AcDbXrecord
 90
        1
  0
XRECORD
  5
AD
102
{ACAD_REACTORS
330
AB
102
}
330
AB
100
AcDbXrecord
 90
       70
  0
XRECORD
  5
C3
102
{ACAD_REACTORS
330
AB
102
}
330
AB
100
AcDbXrecord
340
0
  0
XRECORD
  5
C9
102
{ACAD_REACTORS
330
AB
102
}
330
AB
100
AcDbXrecord
 10
0.0
 20
0.0
 30
0.0
  0
XRECORD
  5
C5
102
{ACAD_REACTORS
330
AB
102
}
330
AB
100
AcDbXrecord
 10
0.0
 20
0.0
 30
0.0
  0
XRECORD
  5
C8
102
{ACAD_REACTORS
330
AB
102
}
330
AB
100
AcDbXrecord
 10
0.0
 20
0.0
 30
0.0
  0
XRECORD
  5
C6
102
{ACAD_REACTORS
330
AB
102
}
330
AB
100
AcDbXrecord
 10
0.0
 20
0.0
 30
0.0
  0
XRECORD
  5
C7
102
{ACAD_REACTORS
330
AB
102
}
330
AB
100
AcDbXrecord
 10
0.0
 20
0.0
 30
0.0
  0
XRECORD
  5
C4
102
{ACAD_REACTORS
330
AB
102
}
330
AB
100
AcDbXrecord
 10
0.0
 20
0.0
 30
0.0
  0
XRECORD
  5
C1
102
{ACAD_REACTORS
330
AB
102
}
330
AB
100
AcDbXrecord
340
0
  0
XRECORD
  5
C2
102
{ACAD_REACTORS
330
AB
102
}
330
AB
100
AcDbXrecord
 70
     0
  0
XRECORD
  5
B6
102
{ACAD_REACTORS
330
AB
102
}
330
AB
100
AcDbXrecord
  1
{FAEB1C32-E019-11D5-929B-00C0DF256EC4}
  0
DICTIONARYVAR
  5
CE
102
{ACAD_REACTORS
330
CB
102
}
330
CB
100
DictionaryVariables
280
     0
  1
2
  0
DICTIONARYVAR
  5
CF
102
{ACAD_REACTORS
330
CB
102
}
330
CB
100
DictionaryVariables
280
     0
  1
1
  0
DICTIONARY
  5
D2
330
3D
100
AcDbDictionary
280
     1
  3
ACAD_XREC_ROUNDTRIP
360
D3
  0
DICTIONARY
  5
D0
330
3C
100
AcDbDictionary
280
     1
  3
ACAD_XREC_ROUNDTRIP
360
D1
  0
DICTIONARY
  5
D4
330
3E
100
AcDbDictionary
280
     1
  3
ACAD_XREC_ROUNDTRIP
360
D5
  0
XRECORD
  5
D3
102
{ACAD_REACTORS
330
D2
102
}
330
D2
100
AcDbXrecord
102
MATERIAL
148
0.0
149
0.0
149
0.0
 93
        0
 94
      127
282
     0
 72
     1
 77
     1
171
     1
175
     1
179
     1
273
     0
  0
XRECORD
  5
D1
102
{ACAD_REACTORS
330
D0
102
}
330
D0
100
AcDbXrecord
102
MATERIAL
148
0.0
149
0.0
149
0.0
 93
        0
 94
      127
282
     0
 72
     1
 77
     1
171
     1
175
     1
179
     1
273
     0
  0
XRECORD
  5
D5
102
{ACAD_REACTORS
330
D4
102
}
330
D4
100
AcDbXrecord
102
MATERIAL
148
0.0
149
0.0
149
0.0
 93
        0
 94
      127
282
     0
 72
     1
 77
     1
171
     1
175
     1
179
     1
273
     0
  0
ENDSEC
  0
EOF
