  0
SECTION
  2
HEADER
  9
$ACADVER
  1
AC1014
  9
$ACADMAINTVER
 70
     9
  9
$DWGCODEPAGE
  3
ANSI_1250
  9
$INSBASE
 10
0.0
 20
0.0
 30
0.0
  9
$EXTMIN
 10
-54.9735
 20
-33.0706
 30
0.0
  9
$EXTMAX
 10
54.5725
 20
32.9297
 30
0.0
  9
$LIMMIN
 10
0.0
 20
0.0
  9
$LIMMAX
 10
12.0
 20
9.0
  9
$ORTHOMODE
 70
     0
  9
$REGENMODE
 70
     1
  9
$FILLMODE
 70
     1
  9
$QTEXTMODE
 70
     0
  9
$MIRRTEXT
 70
     1
  9
$DRAGMODE
 70
     2
  9
$LTSCALE
 40
1.0
  9
$OSMODE
 70
    37
  9
$ATTMODE
 70
     1
  9
$TEXTSIZE
 40
0.2
  9
$TRACEWID
 40
0.05
  9
$TEXTSTYLE
  7
STANDARD
  9
$CLAYER
  8
0
  9
$CELTYPE
  6
BYLAYER
  9
$CECOLOR
 62
   256
  9
$CELTSCALE
 40
1.0
  9
$DELOBJ
 70
     1
  9
$DISPSILH
 70
     0
  9
$DIMSCALE
 40
1.0
  9
$DIMASZ
 40
0.18
  9
$DIMEXO
 40
0.0625
  9
$DIMDLI
 40
0.38
  9
$DIMRND
 40
0.0
  9
$DIMDLE
 40
0.0
  9
$DIMEXE
 40
0.18
  9
$DIMTP
 40
0.0
  9
$DIMTM
 40
0.0
  9
$DIMTXT
 40
0.18
  9
$DIMCEN
 40
0.09
  9
$DIMTSZ
 40
0.0
  9
$DIMTOL
 70
     0
  9
$DIMLIM
 70
     0
  9
$DIMTIH
 70
     1
  9
$DIMTOH
 70
     1
  9
$DIMSE1
 70
     0
  9
$DIMSE2
 70
     0
  9
$DIMTAD
 70
     0
  9
$DIMZIN
 70
     0
  9
$DIMBLK
  1

  9
$DIMASO
 70
     1
  9
$DIMSHO
 70
     1
  9
$DIMPOST
  1

  9
$DIMAPOST
  1

  9
$DIMALT
 70
     0
  9
$DIMALTD
 70
     2
  9
$DIMALTF
 40
25.4
  9
$DIMLFAC
 40
1.0
  9
$DIMTOFL
 70
     0
  9
$DIMTVP
 40
0.0
  9
$DIMTIX
 70
     0
  9
$DIMSOXD
 70
     0
  9
$DIMSAH
 70
     0
  9
$DIMBLK1
  1

  9
$DIMBLK2
  1

  9
$DIMSTYLE
  2
STANDARD
  9
$DIMCLRD
 70
     0
  9
$DIMCLRE
 70
     0
  9
$DIMCLRT
 70
     0
  9
$DIMTFAC
 40
1.0
  9
$DIMGAP
 40
0.09
  9
$DIMJUST
 70
     0
  9
$DIMSD1
 70
     0
  9
$DIMSD2
 70
     0
  9
$DIMTOLJ
 70
     1
  9
$DIMTZIN
 70
     0
  9
$DIMALTZ
 70
     0
  9
$DIMALTTZ
 70
     0
  9
$DIMFIT
 70
     3
  9
$DIMUPT
 70
     0
  9
$DIMUNIT
 70
     2
  9
$DIMDEC
 70
     4
  9
$DIMTDEC
 70
     4
  9
$DIMALTU
 70
     2
  9
$DIMALTTD
 70
     2
  9
$DIMTXSTY
  7
STANDARD
  9
$DIMAUNIT
 70
     0
  9
$LUNITS
 70
     2
  9
$LUPREC
 70
     4
  9
$SKETCHINC
 40
0.1
  9
$FILLETRAD
 40
0.5
  9
$AUNITS
 70
     0
  9
$AUPREC
 70
     0
  9
$MENU
  1
.
  9
$ELEVATION
 40
0.0
  9
$PELEVATION
 40
0.0
  9
$THICKNESS
 40
0.0
  9
$LIMCHECK
 70
     0
  9
$CHAMFERA
 40
0.5
  9
$CHAMFERB
 40
0.5
  9
$CHAMFERC
 40
1.0
  9
$CHAMFERD
 40
0.0
  9
$SKPOLY
 70
     0
  9
$TDCREATE
 40
2456247.403416308
  9
$TDUPDATE
 40
2456247.403416319
  9
$TDINDWG
 40
0.0000000116
  9
$TDUSRTIMER
 40
0.0000000116
  9
$USRTIMER
 70
     1
  9
$ANGBASE
 50
0.0
  9
$ANGDIR
 70
     0
  9
$PDMODE
 70
     0
  9
$PDSIZE
 40
0.0
  9
$PLINEWID
 40
0.0
  9
$COORDS
 70
     1
  9
$SPLFRAME
 70
     0
  9
$SPLINETYPE
 70
     6
  9
$SPLINESEGS
 70
     8
  9
$ATTDIA
 70
     0
  9
$ATTREQ
 70
     1
  9
$HANDLING
 70
     1
  9
$HANDSEED
  5
D5
  9
$SURFTAB1
 70
     6
  9
$SURFTAB2
 70
     6
  9
$SURFTYPE
 70
     6
  9
$SURFU
 70
     6
  9
$SURFV
 70
     6
  9
$UCSNAME
  2

  9
$UCSORG
 10
0.0
 20
0.0
 30
0.0
  9
$UCSXDIR
 10
1.0
 20
0.0
 30
0.0
  9
$UCSYDIR
 10
0.0
 20
1.0
 30
0.0
  9
$PUCSNAME
  2

  9
$PUCSORG
 10
0.0
 20
0.0
 30
0.0
  9
$PUCSXDIR
 10
1.0
 20
0.0
 30
0.0
  9
$PUCSYDIR
 10
0.0
 20
1.0
 30
0.0
  9
$USERI1
 70
     0
  9
$USERI2
 70
     0
  9
$USERI3
 70
     0
  9
$USERI4
 70
     0
  9
$USERI5
 70
     0
  9
$USERR1
 40
0.0
  9
$USERR2
 40
0.0
  9
$USERR3
 40
0.0
  9
$USERR4
 40
0.0
  9
$USERR5
 40
0.0
  9
$WORLDVIEW
 70
     1
  9
$SHADEDGE
 70
     3
  9
$SHADEDIF
 70
    70
  9
$TILEMODE
 70
     1
  9
$MAXACTVP
 70
    64
  9
$PINSBASE
 10
0.0
 20
0.0
 30
0.0
  9
$PLIMCHECK
 70
     0
  9
$PEXTMIN
 10
1.000000000000000E+20
 20
1.000000000000000E+20
 30
1.000000000000000E+20
  9
$PEXTMAX
 10
-1.000000000000000E+20
 20
-1.000000000000000E+20
 30
-1.000000000000000E+20
  9
$PLIMMIN
 10
0.0
 20
0.0
  9
$PLIMMAX
 10
12.0
 20
9.0
  9
$UNITMODE
 70
     0
  9
$VISRETAIN
 70
     1
  9
$PLINEGEN
 70
     0
  9
$PSLTSCALE
 70
     1
  9
$TREEDEPTH
 70
  3020
  9
$PICKSTYLE
 70
     1
  9
$CMLSTYLE
  2
STANDARD
  9
$CMLJUST
 70
     0
  9
$CMLSCALE
 40
1.0
  9
$PROXYGRAPHICS
 70
     1
  9
$MEASUREMENT
 70
     0
  0
ENDSEC
  0
SECTION
  2
CLASSES
  0
CLASS
  1
ACDBDICTIONARYWDFLT
  2
AcDbDictionaryWithDefault
  3
ObjectDBX Classes
 90
        0
280
     0
281
     0
  0
CLASS
  1
VISUALSTYLE
  2
AcDbVisualStyle
  3
ObjectDBX Classes
 90
     4095
280
     0
281
     0
  0
CLASS
  1
MATERIAL
  2
AcDbMaterial
  3
ObjectDBX Classes
 90
     1153
280
     0
281
     0
  0
CLASS
  1
DICTIONARYVAR
  2
AcDbDictionaryVar
  3
ObjectDBX Classes
 90
        0
280
     0
281
     0
  0
CLASS
  1
XRECORD
  2
AcDbXrecord
  3
AutoCAD 2000
 90
        0
280
     0
281
     0
  0
CLASS
  1
LWPOLYLINE
  2
AcDbPolyline
  3
AutoCAD 2000
 90
        0
280
     0
281
     1
  0
CLASS
  1
HATCH
  2
AcDbHatch
  3
AutoCAD 2000
 90
        0
280
     0
281
     1
  0
CLASS
  1
ACDBPLACEHOLDER
  2
AcDbPlaceHolder
  3
ObjectDBX Classes
 90
        0
280
     0
281
     0
  0
CLASS
  1
LAYOUT
  2
AcDbLayout
  3
ObjectDBX Classes
 90
        0
280
     0
281
     0
  0
ENDSEC
  0
SECTION
  2
TABLES
  0
TABLE
  2
VPORT
  5
8
330
0
100
AcDbSymbolTable
 70
     1
  0
VPORT
  5
29
330
8
100
AcDbSymbolTableRecord
100
AcDbViewportTableRecord
  2
*ACTIVE
 70
     0
 10
0.0
 20
0.0
 11
1.0
 21
1.0
 12
10.42990654205607
 22
4.5
 13
0.0
 23
0.0
 14
0.5
 24
0.5
 15
0.5
 25
0.5
 16
0.0
 26
0.0
 36
1.0
 17
0.0
 27
0.0
 37
0.0
 40
9.0
 41
1.972972972850329
 42
50.0
 43
0.0
 44
0.0
 50
0.0
 51
0.0
 71
     0
 72
   100
 73
     1
 74
     3
 75
     0
 76
     0
 77
     0
 78
     0
  0
ENDTAB
  0
TABLE
  2
LTYPE
  5
5
330
0
100
AcDbSymbolTable
 70
     5
  0
LTYPE
  5
14
330
5
100
AcDbSymbolTableRecord
100
AcDbLinetypeTableRecord
  2
BYBLOCK
 70
     0
  3

 72
    65
 73
     0
 40
0.0
  0
LTYPE
  5
15
330
5
100
AcDbSymbolTableRecord
100
AcDbLinetypeTableRecord
  2
BYLAYER
 70
     0
  3

 72
    65
 73
     0
 40
0.0
  0
LTYPE
  5
16
330
5
100
AcDbSymbolTableRecord
100
AcDbLinetypeTableRecord
  2
CONTINUOUS
 70
     0
  3
Solid line
 72
    65
 73
     0
 40
0.0
  0
LTYPE
  5
72
330
5
100
AcDbSymbolTableRecord
100
AcDbLinetypeTableRecord
  2
NEW_LINE1
 70
     0
  3

 72
    65
 73
     4
 40
1.2
 49
0.5
 74
     4
 75
     0
340
0
 46
1.0
 50
0.0
 44
0.0
 45
0.0
 49
-0.3
 74
     4
 75
     0
340
0
 46
1.0
 50
0.0
 44
0.0
 45
0.0
 49
0.1
 74
     4
 75
     0
340
0
 46
1.0
 50
0.0
 44
0.0
 45
0.0
 49
-0.3
 74
     4
 75
     0
340
0
 46
1.0
 50
0.0
 44
0.0
 45
0.0
  0
LTYPE
  5
74
330
5
100
AcDbSymbolTableRecord
100
AcDbLinetypeTableRecord
  2
NEW_LINE2
 70
     0
  3

 72
    65
 73
     4
 40
1.2
 49
0.5
 74
     4
 75
     0
340
0
 46
1.0
 50
0.0
 44
0.0
 45
0.0
 49
-0.3
 74
     4
 75
     0
340
0
 46
1.0
 50
0.0
 44
0.0
 45
0.0
 49
0.1
 74
     4
 75
     0
340
0
 46
1.0
 50
0.0
 44
0.0
 45
0.0
 49
-0.3
 74
     4
 75
     0
340
0
 46
1.0
 50
0.0
 44
0.0
 45
0.0
  0
LTYPE
  5
76
330
5
100
AcDbSymbolTableRecord
100
AcDbLinetypeTableRecord
  2
NEW_LINE3
 70
     0
  3

 72
    65
 73
     4
 40
1.2
 49
0.5
 74
     4
 75
     0
340
0
 46
1.0
 50
0.0
 44
0.0
 45
0.0
 49
-0.3
 74
     4
 75
     0
340
0
 46
1.0
 50
0.0
 44
0.0
 45
0.0
 49
0.1
 74
     4
 75
     0
340
0
 46
1.0
 50
0.0
 44
0.0
 45
0.0
 49
-0.3
 74
     4
 75
     0
340
0
 46
1.0
 50
0.0
 44
0.0
 45
0.0
  0
LTYPE
  5
78
330
5
100
AcDbSymbolTableRecord
100
AcDbLinetypeTableRecord
  2
NEW_LINE4
 70
     0
  3

 72
    65
 73
     4
 40
1.2
 49
0.5
 74
     4
 75
     0
340
0
 46
1.0
 50
0.0
 44
0.0
 45
0.0
 49
-0.3
 74
     4
 75
     0
340
0
 46
1.0
 50
0.0
 44
0.0
 45
0.0
 49
0.1
 74
     4
 75
     0
340
0
 46
1.0
 50
0.0
 44
0.0
 45
0.0
 49
-0.3
 74
     4
 75
     0
340
0
 46
1.0
 50
0.0
 44
0.0
 45
0.0
  0
ENDTAB
  0
TABLE
  2
LAYER
  5
2
330
0
100
AcDbSymbolTable
 70
     2
  0
LAYER
  5
10
330
2
100
AcDbSymbolTableRecord
100
AcDbLayerTableRecord
  2
0
 70
     0
 62
     7
  6
CONTINUOUS
  0
LAYER
  5
40
330
2
100
AcDbSymbolTableRecord
100
AcDbLayerTableRecord
  2
VRSTVA_1
 70
     0
 62
     7
  6
CONTINUOUS
  0
ENDTAB
  0
TABLE
  2
STYLE
  5
3
330
0
100
AcDbSymbolTable
 70
     1
  0
STYLE
  5
11
330
3
100
AcDbSymbolTableRecord
100
AcDbTextStyleTableRecord
  2
STANDARD
 70
     0
 40
0.0
 41
1.0
 50
0.0
 71
     0
 42
0.2
  3
txt
  4

  0
ENDTAB
  0
TABLE
  2
VIEW
  5
6
330
0
100
AcDbSymbolTable
 70
     0
  0
ENDTAB
  0
TABLE
  2
UCS
  5
7
330
0
100
AcDbSymbolTable
 70
     0
  0
ENDTAB
  0
TABLE
  2
APPID
  5
9
330
0
100
AcDbSymbolTable
 70
     2
  0
APPID
  5
12
330
9
100
AcDbSymbolTableRecord
100
AcDbRegAppTableRecord
  2
ACAD
 70
     0
  0
APPID
  5
3F
330
9
100
AcDbSymbolTableRecord
100
AcDbRegAppTableRecord
  2
ODA
 70
     0
  0
ENDTAB
  0
TABLE
  2
DIMSTYLE
  5
A
330
0
100
AcDbSymbolTable
 70
     1
  0
DIMSTYLE
105
27
330
A
100
AcDbSymbolTableRecord
100
AcDbDimStyleTableRecord
  2
STANDARD
 70
     0
  3

  4

  5

  6

  7

 40
1.0
 41
0.18
 42
0.0625
 43
0.38
 44
0.18
 45
0.0
 46
0.0
 47
0.0
 48
0.0
140
0.18
141
0.09
142
0.0
143
25.4
144
1.0
145
0.0
146
1.0
147
0.09
 71
     0
 72
     0
 73
     1
 74
     1
 75
     0
 76
     0
 77
     0
 78
     0
170
     0
171
     2
172
     0
173
     0
174
     0
175
     0
176
     0
177
     0
178
     0
270
     2
271
     4
272
     4
273
     2
274
     2
340
11
275
     0
280
     0
281
     0
282
     0
283
     1
284
     0
285
     0
286
     0
287
     3
288
     0
  0
ENDTAB
  0
TABLE
  2
BLOCK_RECORD
  5
1
330
0
100
AcDbSymbolTable
 70
     1
  0
BLOCK_RECORD
  5
1F
330
1
100
AcDbSymbolTableRecord
100
AcDbBlockTableRecord
  2
*MODEL_SPACE
  0
BLOCK_RECORD
  5
1B
330
1
100
AcDbSymbolTableRecord
100
AcDbBlockTableRecord
  2
*PAPER_SPACE
  0
ENDTAB
  0
ENDSEC
  0
SECTION
  2
BLOCKS
  0
BLOCK
  5
20
330
1F
100
AcDbEntity
  8
0
100
AcDbBlockBegin
  2
*MODEL_SPACE
 70
     0
 10
0.0
 20
0.0
 30
0.0
  3
*MODEL_SPACE
  1

  0
ENDBLK
  5
21
330
1F
100
AcDbEntity
  8
0
100
AcDbBlockEnd
  0
BLOCK
  5
1C
330
1B
100
AcDbEntity
 67
     1
  8
0
100
AcDbBlockBegin
  2
*PAPER_SPACE
 70
     0
 10
0.0
 20
0.0
 30
0.0
  3
*PAPER_SPACE
  1

  0
ENDBLK
  5
1D
330
1B
100
AcDbEntity
 67
     1
  8
0
100
AcDbBlockEnd
  0
ENDSEC
  0
SECTION
  2
ENTITIES
  0
SPLINE
  5
41
330
1F
100
AcDbEntity
  8
VRSTVA_1
 62
   250
100
AcDbSpline
210
0.0
220
0.0
230
1.0
 70
    11
 71
     3
 72
   120
 73
   116
 74
     0
 42
0.0000000001
 43
0.0000000001
 40
0.0
 40
0.0
 40
0.0
 40
0.0
 40
0.0333333333333333
 40
0.0333333333333333
 40
0.0333333333333333
 40
0.0333333333333333
 40
0.0666666666666667
 40
0.0666666666666667
 40
0.0666666666666667
 40
0.0666666666666667
 40
0.1
 40
0.1
 40
0.1
 40
0.1
 40
0.1333333333333333
 40
0.1333333333333333
 40
0.1333333333333333
 40
0.1333333333333333
 40
0.1666666666666667
 40
0.1666666666666667
 40
0.1666666666666667
 40
0.1666666666666667
 40
0.2
 40
0.2
 40
0.2
 40
0.2
 40
0.2333333333333333
 40
0.2333333333333333
 40
0.2333333333333333
 40
0.2333333333333333
 40
0.2666666666666667
 40
0.2666666666666667
 40
0.2666666666666667
 40
0.2666666666666667
 40
0.3
 40
0.3
 40
0.3
 40
0.3
 40
0.3333333333333333
 40
0.3333333333333333
 40
0.3333333333333333
 40
0.3333333333333333
 40
0.3666666666666666
 40
0.3666666666666666
 40
0.3666666666666666
 40
0.3666666666666666
 40
0.4
 40
0.4
 40
0.4
 40
0.4
 40
0.4333333333333333
 40
0.4333333333333333
 40
0.4333333333333333
 40
0.4333333333333333
 40
0.4666666666666667
 40
0.4666666666666667
 40
0.4666666666666667
 40
0.4666666666666667
 40
0.5
 40
0.5
 40
0.5
 40
0.5
 40
0.5333333333333333
 40
0.5333333333333333
 40
0.5333333333333333
 40
0.5333333333333333
 40
0.5666666666666667
 40
0.5666666666666667
 40
0.5666666666666667
 40
0.5666666666666667
 40
0.6
 40
0.6
 40
0.6
 40
0.6
 40
0.6333333333333333
 40
0.6333333333333333
 40
0.6333333333333333
 40
0.6333333333333333
 40
0.6666666666666666
 40
0.6666666666666666
 40
0.6666666666666666
 40
0.6666666666666666
 40
0.7
 40
0.7
 40
0.7
 40
0.7
 40
0.7333333333333333
 40
0.7333333333333333
 40
0.7333333333333333
 40
0.7333333333333333
 40
0.7666666666666667
 40
0.7666666666666667
 40
0.7666666666666667
 40
0.7666666666666667
 40
0.8
 40
0.8
 40
0.8
 40
0.8
 40
0.8333333333333334
 40
0.8333333333333334
 40
0.8333333333333334
 40
0.8333333333333334
 40
0.8666666666666667
 40
0.8666666666666667
 40
0.8666666666666667
 40
0.8666666666666667
 40
0.9
 40
0.9
 40
0.9
 40
0.9
 40
0.9333333333333333
 40
0.9333333333333333
 40
0.9333333333333333
 40
0.9333333333333333
 40
1.0
 40
1.0
 40
1.0
 40
1.0
 10
-40.6463
 20
31.0368
 30
0.0
 10
-40.6463
 20
31.0368
 30
0.0
 10
-40.6463
 20
31.3916
 30
0.0
 10
-40.6463
 20
31.3916
 30
0.0
 10
-40.6463
 20
31.3916
 30
0.0
 10
-40.6463
 20
31.3916
 30
0.0
 10
-39.3629
 20
31.3938
 30
0.0
 10
-39.3629
 20
31.3938
 30
0.0
 10
-39.3629
 20
31.3938
 30
0.0
 10
-39.3629
 20
31.3938
 30
0.0
 10
-39.3629
 20
30.2698
 30
0.0
 10
-39.3629
 20
30.2698
 30
0.0
 10
-39.3629
 20
30.2698
 30
0.0
 10
-39.5597
 20
30.1125
 30
0.0
 10
-39.7629
 20
29.9947
 30
0.0
 10
-39.9725
 20
29.9149
 30
0.0
 10
-39.9725
 20
29.9149
 30
0.0
 10
-40.182
 20
29.8359
 30
0.0
 10
-40.3972
 20
29.7964
 30
0.0
 10
-40.6173
 20
29.7964
 30
0.0
 10
-40.6173
 20
29.7964
 30
0.0
 10
-40.9151
 20
29.7964
 30
0.0
 10
-41.186
 20
29.8599
 30
0.0
 10
-41.4287
 20
29.9876
 30
0.0
 10
-41.4287
 20
29.9876
 30
0.0
 10
-41.6721
 20
30.1146
 30
0.0
 10
-41.8556
 20
30.2995
 30
0.0
 10
-41.9798
 20
30.54
 30
0.0
 10
-41.9798
 20
30.54
 30
0.0
 10
-42.1039
 20
30.7813
 30
0.0
 10
-42.166
 20
31.0509
 30
0.0
 10
-42.166
 20
31.3486
 30
0.0
 10
-42.166
 20
31.3486
 30
0.0
 10
-42.166
 20
31.6435
 30
0.0
 10
-42.1039
 20
31.9187
 30
0.0
 10
-41.9805
 20
32.1741
 30
0.0
 10
-41.9805
 20
32.1741
 30
0.0
 10
-41.8577
 20
32.4302
 30
0.0
 10
-41.6799
 20
32.62
 30
0.0
 10
-41.4485
 20
32.7442
 30
0.0
 10
-41.4485
 20
32.7442
 30
0.0
 10
-41.2171
 20
32.8677
 30
0.0
 10
-40.9504
 20
32.9297
 30
0.0
 10
-40.6484
 20
32.9297
 30
0.0
 10
-40.6484
 20
32.9297
 30
0.0
 10
-40.4297
 20
32.9297
 30
0.0
 10
-40.2314
 20
32.8945
 30
0.0
 10
-40.0543
 20
32.8232
 30
0.0
 10
-40.0543
 20
32.8232
 30
0.0
 10
-39.8772
 20
32.7526
 30
0.0
 10
-39.7382
 20
32.6539
 30
0.0
 10
-39.638
 20
32.5269
 30
0.0
 10
-39.638
 20
32.5269
 30
0.0
 10
-39.5372
 20
32.3999
 30
0.0
 10
-39.461
 20
32.2348
 30
0.0
 10
-39.408
 20
32.0309
 30
0.0
 10
-39.408
 20
32.0309
 30
0.0
 10
-39.408
 20
32.0309
 30
0.0
 10
-39.77
 20
31.9314
 30
0.0
 10
-39.77
 20
31.9314
 30
0.0
 10
-39.77
 20
31.9314
 30
0.0
 10
-39.8158
 20
32.0859
 30
0.0
 10
-39.8723
 20
32.2073
 30
0.0
 10
-39.9393
 20
32.2955
 30
0.0
 10
-39.9393
 20
32.2955
 30
0.0
 10
-40.007
 20
32.3836
 30
0.0
 10
-40.1037
 20
32.4542
 30
0.0
 10
-40.2293
 20
32.5071
 30
0.0
 10
-40.2293
 20
32.5071
 30
0.0
 10
-40.3542
 20
32.56
 30
0.0
 10
-40.4939
 20
32.5868
 30
0.0
 10
-40.6463
 20
32.5868
 30
0.0
 10
-40.6463
 20
32.5868
 30
0.0
 10
-40.8297
 20
32.5868
 30
0.0
 10
-40.9885
 20
32.5586
 30
0.0
 10
-41.1218
 20
32.5029
 30
0.0
 10
-41.1218
 20
32.5029
 30
0.0
 10
-41.2559
 20
32.4471
 30
0.0
 10
-41.3631
 20
32.3738
 30
0.0
 10
-41.4457
 20
32.2828
 30
0.0
 10
-41.4457
 20
32.2828
 30
0.0
 10
-41.5275
 20
32.1917
 30
0.0
 10
-41.591
 20
32.0923
 30
0.0
 10
-41.6369
 20
31.9829
 30
0.0
 10
-41.6369
 20
31.9829
 30
0.0
 10
-41.7138
 20
31.7959
 30
0.0
 10
-41.7526
 20
31.5927
 30
0.0
 10
-41.7526
 20
31.3733
 30
0.0
 10
-41.7526
 20
31.3733
 30
0.0
 10
-41.7526
 20
31.1031
 30
0.0
 10
-41.706
 20
30.8773
 30
0.0
 10
-41.6129
 20
30.6953
 30
0.0
 10
-41.6129
 20
30.6953
 30
0.0
 10
-41.5197
 20
30.5132
 30
0.0
 10
-41.3843
 20
30.3785
 30
0.0
 10
-41.2065
 20
30.2903
 30
0.0
 10
-41.2065
 20
30.2903
 30
0.0
 10
-41.0287
 20
30.2021
 30
0.0
 10
-40.8403
 20
30.1576
 30
0.0
 10
-40.6406
 20
30.1576
 30
0.0
 10
-40.6406
 20
30.1576
 30
0.0
 10
-40.4664
 20
30.1576
 30
0.0
 10
-40.297
 20
30.1915
 30
0.0
 10
-40.1319
 20
30.2585
 30
0.0
 10
-40.1319
 20
30.2585
 30
0.0
 10
-39.9661
 20
30.3249
 30
0.0
 10
-39.8412
 20
30.3961
 30
0.0
 10
-39.7559
 20
30.4723
 30
0.0
 10
-39.7559
 20
30.4723
 30
0.0
 10
-39.7559
 20
30.4723
 30
0.0
 10
-39.7559
 20
31.0368
 30
0.0
 10
-39.7559
 20
31.0368
 30
0.0
 10
-39.7559
 20
31.0368
 30
0.0
 10
-39.7559
 20
31.0368
 30
0.0
 10
-40.6463
 20
31.0368
 30
0.0
 10
-40.6463
 20
31.0368
 30
0.0
  0
SPLINE
  5
42
330
1F
100
AcDbEntity
  8
VRSTVA_1
 62
   250
100
AcDbSpline
210
0.0
220
0.0
230
1.0
 70
    11
 71
     3
 72
    92
 73
    88
 74
     0
 42
0.0000000001
 43
0.0000000001
 40
0.0
 40
0.0
 40
0.0
 40
0.0
 40
0.0434782608695652
 40
0.0434782608695652
 40
0.0434782608695652
 40
0.0434782608695652
 40
0.0869565217391304
 40
0.0869565217391304
 40
0.0869565217391304
 40
0.0869565217391304
 40
0.1304347826086956
 40
0.1304347826086956
 40
0.1304347826086956
 40
0.1304347826086956
 40
0.1739130434782609
 40
0.1739130434782609
 40
0.1739130434782609
 40
0.1739130434782609
 40
0.2173913043478261
 40
0.2173913043478261
 40
0.2173913043478261
 40
0.2173913043478261
 40
0.2608695652173913
 40
0.2608695652173913
 40
0.2608695652173913
 40
0.2608695652173913
 40
0.3043478260869565
 40
0.3043478260869565
 40
0.3043478260869565
 40
0.3043478260869565
 40
0.3478260869565217
 40
0.3478260869565217
 40
0.3478260869565217
 40
0.3478260869565217
 40
0.391304347826087
 40
0.391304347826087
 40
0.391304347826087
 40
0.391304347826087
 40
0.4347826086956522
 40
0.4347826086956522
 40
0.4347826086956522
 40
0.4347826086956522
 40
0.4782608695652174
 40
0.4782608695652174
 40
0.4782608695652174
 40
0.4782608695652174
 40
0.5217391304347826
 40
0.5217391304347826
 40
0.5217391304347826
 40
0.5217391304347826
 40
0.5652173913043478
 40
0.5652173913043478
 40
0.5652173913043478
 40
0.5652173913043478
 40
0.6086956521739131
 40
0.6086956521739131
 40
0.6086956521739131
 40
0.6086956521739131
 40
0.6521739130434783
 40
0.6521739130434783
 40
0.6521739130434783
 40
0.6521739130434783
 40
0.6956521739130435
 40
0.6956521739130435
 40
0.6956521739130435
 40
0.6956521739130435
 40
0.7391304347826086
 40
0.7391304347826086
 40
0.7391304347826086
 40
0.7391304347826086
 40
0.782608695652174
 40
0.782608695652174
 40
0.782608695652174
 40
0.782608695652174
 40
0.8260869565217391
 40
0.8260869565217391
 40
0.8260869565217391
 40
0.8260869565217391
 40
0.8695652173913043
 40
0.8695652173913043
 40
0.8695652173913043
 40
0.8695652173913043
 40
0.9130434782608695
 40
0.9130434782608695
 40
0.9130434782608695
 40
0.9130434782608695
 40
1.0
 40
1.0
 40
1.0
 40
1.0
 10
-37.7464
 20
30.6416
 30
0.0
 10
-37.7464
 20
30.6416
 30
0.0
 10
-37.3555
 20
30.6748
 30
0.0
 10
-37.3555
 20
30.6748
 30
0.0
 10
-37.3555
 20
30.6748
 30
0.0
 10
-37.3266
 20
30.4843
 30
0.0
 10
-37.2596
 20
30.3418
 30
0.0
 10
-37.1545
 20
30.2458
 30
0.0
 10
-37.1545
 20
30.2458
 30
0.0
 10
-37.0486
 20
30.1499
 30
0.0
 10
-36.9216
 20
30.1019
 30
0.0
 10
-36.7728
 20
30.1019
 30
0.0
 10
-36.7728
 20
30.1019
 30
0.0
 10
-36.5935
 20
30.1019
 30
0.0
 10
-36.4419
 20
30.1696
 30
0.0
 10
-36.3184
 20
30.3044
 30
0.0
 10
-36.3184
 20
30.3044
 30
0.0
 10
-36.1942
 20
30.4399
 30
0.0
 10
-36.1321
 20
30.6191
 30
0.0
 10
-36.1321
 20
30.842
 30
0.0
 10
-36.1321
 20
30.842
 30
0.0
 10
-36.1321
 20
31.0544
 30
0.0
 10
-36.1914
 20
31.2216
 30
0.0
 10
-36.3106
 20
31.3444
 30
0.0
 10
-36.3106
 20
31.3444
 30
0.0
 10
-36.4299
 20
31.4671
 30
0.0
 10
-36.5858
 20
31.5285
 30
0.0
 10
-36.7791
 20
31.5285
 30
0.0
 10
-36.7791
 20
31.5285
 30
0.0
 10
-36.8991
 20
31.5285
 30
0.0
 10
-37.007
 20
31.501
 30
0.0
 10
-37.1037
 20
31.4467
 30
0.0
 10
-37.1037
 20
31.4467
 30
0.0
 10
-37.2003
 20
31.3923
 30
0.0
 10
-37.2758
 20
31.3218
 30
0.0
 10
-37.3308
 20
31.235
 30
0.0
 10
-37.3308
 20
31.235
 30
0.0
 10
-37.3308
 20
31.235
 30
0.0
 10
-37.6801
 20
31.2802
 30
0.0
 10
-37.6801
 20
31.2802
 30
0.0
 10
-37.6801
 20
31.2802
 30
0.0
 10
-37.6801
 20
31.2802
 30
0.0
 10
-37.3866
 20
32.8366
 30
0.0
 10
-37.3866
 20
32.8366
 30
0.0
 10
-37.3866
 20
32.8366
 30
0.0
 10
-37.3866
 20
32.8366
 30
0.0
 10
-35.8795
 20
32.8366
 30
0.0
 10
-35.8795
 20
32.8366
 30
0.0
 10
-35.8795
 20
32.8366
 30
0.0
 10
-35.8795
 20
32.8366
 30
0.0
 10
-35.8795
 20
32.481
 30
0.0
 10
-35.8795
 20
32.481
 30
0.0
 10
-35.8795
 20
32.481
 30
0.0
 10
-35.8795
 20
32.481
 30
0.0
 10
-37.0888
 20
32.481
 30
0.0
 10
-37.0888
 20
32.481
 30
0.0
 10
-37.0888
 20
32.481
 30
0.0
 10
-37.0888
 20
32.481
 30
0.0
 10
-37.2525
 20
31.6668
 30
0.0
 10
-37.2525
 20
31.6668
 30
0.0
 10
-37.2525
 20
31.6668
 30
0.0
 10
-37.0705
 20
31.7938
 30
0.0
 10
-36.8793
 20
31.8573
 30
0.0
 10
-36.6796
 20
31.8573
 30
0.0
 10
-36.6796
 20
31.8573
 30
0.0
 10
-36.415
 20
31.8573
 30
0.0
 10
-36.1921
 20
31.7656
 30
0.0
 10
-36.0101
 20
31.5821
 30
0.0
 10
-36.0101
 20
31.5821
 30
0.0
 10
-35.828
 20
31.3987
 30
0.0
 10
-35.737
 20
31.163
 30
0.0
 10
-35.737
 20
30.8752
 30
0.0
 10
-35.737
 20
30.8752
 30
0.0
 10
-35.737
 20
30.6007
 30
0.0
 10
-35.8174
 20
30.3637
 30
0.0
 10
-35.9769
 20
30.164
 30
0.0
 10
-35.9769
 20
30.164
 30
0.0
 10
-36.1716
 20
29.9192
 30
0.0
 10
-36.4369
 20
29.7964
 30
0.0
 10
-36.7728
 20
29.7964
 30
0.0
 10
-36.7728
 20
29.7964
 30
0.0
 10
-37.0486
 20
29.7964
 30
0.0
 10
-37.2737
 20
29.8733
 30
0.0
 10
-37.448
 20
30.0278
 30
0.0
 10
-37.448
 20
30.0278
 30
0.0
 10
-37.6222
 20
30.1823
 30
0.0
 10
-37.7217
 20
30.3869
 30
0.0
 10
-37.7464
 20
30.6416
 30
0.0
  0
SPLINE
  5
43
330
1F
100
AcDbEntity
  8
VRSTVA_1
 62
   250
100
AcDbSpline
210
0.0
220
0.0
230
1.0
 70
    11
 71
     3
 72
    20
 73
    16
 74
     0
 42
0.0000000001
 43
0.0000000001
 40
0.0
 40
0.0
 40
0.0
 40
0.0
 40
0.2
 40
0.2
 40
0.2
 40
0.2
 40
0.4
 40
0.4
 40
0.4
 40
0.4
 40
0.6
 40
0.6
 40
0.6
 40
0.6
 40
1.0
 40
1.0
 40
1.0
 40
1.0
 10
-35.5677
 20
29.7964
 30
0.0
 10
-35.5677
 20
29.7964
 30
0.0
 10
-34.6893
 20
32.9297
 30
0.0
 10
-34.6893
 20
32.9297
 30
0.0
 10
-34.6893
 20
32.9297
 30
0.0
 10
-34.6893
 20
32.9297
 30
0.0
 10
-34.3915
 20
32.9297
 30
0.0
 10
-34.3915
 20
32.9297
 30
0.0
 10
-34.3915
 20
32.9297
 30
0.0
 10
-34.3915
 20
32.9297
 30
0.0
 10
-35.2678
 20
29.7964
 30
0.0
 10
-35.2678
 20
29.7964
 30
0.0
 10
-35.2678
 20
29.7964
 30
0.0
 10
-35.2678
 20
29.7964
 30
0.0
 10
-35.5677
 20
29.7964
 30
0.0
 10
-35.5677
 20
29.7964
 30
0.0
  0
SPLINE
  5
44
330
1F
100
AcDbEntity
  8
VRSTVA_1
 62
   250
100
AcDbSpline
210
0.0
220
0.0
230
1.0
 70
    11
 71
     3
 72
    48
 73
    44
 74
     0
 42
0.0000000001
 43
0.0000000001
 40
0.0
 40
0.0
 40
0.0
 40
0.0
 40
0.0833333333333333
 40
0.0833333333333333
 40
0.0833333333333333
 40
0.0833333333333333
 40
0.1666666666666667
 40
0.1666666666666667
 40
0.1666666666666667
 40
0.1666666666666667
 40
0.25
 40
0.25
 40
0.25
 40
0.25
 40
0.3333333333333333
 40
0.3333333333333333
 40
0.3333333333333333
 40
0.3333333333333333
 40
0.4166666666666667
 40
0.4166666666666667
 40
0.4166666666666667
 40
0.4166666666666667
 40
0.5
 40
0.5
 40
0.5
 40
0.5
 40
0.5833333333333334
 40
0.5833333333333334
 40
0.5833333333333334
 40
0.5833333333333334
 40
0.6666666666666666
 40
0.6666666666666666
 40
0.6666666666666666
 40
0.6666666666666666
 40
0.75
 40
0.75
 40
0.75
 40
0.75
 40
0.8333333333333334
 40
0.8333333333333334
 40
0.8333333333333334
 40
0.8333333333333334
 40
1.0
 40
1.0
 40
1.0
 40
1.0
 10
-33.0234
 20
29.8479
 30
0.0
 10
-33.0234
 20
29.8479
 30
0.0
 10
-33.0234
 20
30.5732
 30
0.0
 10
-33.0234
 20
30.5732
 30
0.0
 10
-33.0234
 20
30.5732
 30
0.0
 10
-33.0234
 20
30.5732
 30
0.0
 10
-34.3379
 20
30.5732
 30
0.0
 10
-34.3379
 20
30.5732
 30
0.0
 10
-34.3379
 20
30.5732
 30
0.0
 10
-34.3379
 20
30.5732
 30
0.0
 10
-34.3379
 20
30.9147
 30
0.0
 10
-34.3379
 20
30.9147
 30
0.0
 10
-34.3379
 20
30.9147
 30
0.0
 10
-34.3379
 20
30.9147
 30
0.0
 10
-32.955
 20
32.8782
 30
0.0
 10
-32.955
 20
32.8782
 30
0.0
 10
-32.955
 20
32.8782
 30
0.0
 10
-32.955
 20
32.8782
 30
0.0
 10
-32.6509
 20
32.8782
 30
0.0
 10
-32.6509
 20
32.8782
 30
0.0
 10
-32.6509
 20
32.8782
 30
0.0
 10
-32.6509
 20
32.8782
 30
0.0
 10
-32.6509
 20
30.9147
 30
0.0
 10
-32.6509
 20
30.9147
 30
0.0
 10
-32.6509
 20
30.9147
 30
0.0
 10
-32.6509
 20
30.9147
 30
0.0
 10
-32.2417
 20
30.9147
 30
0.0
 10
-32.2417
 20
30.9147
 30
0.0
 10
-32.2417
 20
30.9147
 30
0.0
 10
-32.2417
 20
30.9147
 30
0.0
 10
-32.2417
 20
30.5732
 30
0.0
 10
-32.2417
 20
30.5732
 30
0.0
 10
-32.2417
 20
30.5732
 30
0.0
 10
-32.2417
 20
30.5732
 30
0.0
 10
-32.6509
 20
30.5732
 30
0.0
 10
-32.6509
 20
30.5732
 30
0.0
 10
-32.6509
 20
30.5732
 30
0.0
 10
-32.6509
 20
30.5732
 30
0.0
 10
-32.6509
 20
29.8479
 30
0.0
 10
-32.6509
 20
29.8479
 30
0.0
 10
-32.6509
 20
29.8479
 30
0.0
 10
-32.6509
 20
29.8479
 30
0.0
 10
-33.0234
 20
29.8479
 30
0.0
 10
-33.0234
 20
29.8479
 30
0.0
  0
SPLINE
  5
45
330
1F
100
AcDbEntity
  8
VRSTVA_1
 62
   250
100
AcDbSpline
210
0.0
220
0.0
230
1.0
 70
    11
 71
     3
 72
    16
 73
    12
 74
     0
 42
0.0000000001
 43
0.0000000001
 40
0.0
 40
0.0
 40
0.0
 40
0.0
 40
0.25
 40
0.25
 40
0.25
 40
0.25
 40
0.5
 40
0.5
 40
0.5
 40
0.5
 40
1.0
 40
1.0
 40
1.0
 40
1.0
 10
-33.0234
 20
30.9147
 30
0.0
 10
-33.0234
 20
30.9147
 30
0.0
 10
-33.0234
 20
32.2806
 30
0.0
 10
-33.0234
 20
32.2806
 30
0.0
 10
-33.0234
 20
32.2806
 30
0.0
 10
-33.0234
 20
32.2806
 30
0.0
 10
-33.9717
 20
30.9147
 30
0.0
 10
-33.9717
 20
30.9147
 30
0.0
 10
-33.9717
 20
30.9147
 30
0.0
 10
-33.9717
 20
30.9147
 30
0.0
 10
-33.0234
 20
30.9147
 30
0.0
 10
-33.0234
 20
30.9147
 30
0.0
  0
SPLINE
  5
46
330
1F
100
AcDbEntity
  8
VRSTVA_1
 62
   250
100
AcDbSpline
210
0.0
220
0.0
230
1.0
 70
    11
 71
     3
 72
    28
 73
    24
 74
     0
 42
0.0000000001
 43
0.0000000001
 40
0.0
 40
0.0
 40
0.0
 40
0.0
 40
0.1428571428571428
 40
0.1428571428571428
 40
0.1428571428571428
 40
0.1428571428571428
 40
0.2857142857142857
 40
0.2857142857142857
 40
0.2857142857142857
 40
0.2857142857142857
 40
0.4285714285714285
 40
0.4285714285714285
 40
0.4285714285714285
 40
0.4285714285714285
 40
0.5714285714285714
 40
0.5714285714285714
 40
0.5714285714285714
 40
0.5714285714285714
 40
0.7142857142857143
 40
0.7142857142857143
 40
0.7142857142857143
 40
0.7142857142857143
 40
1.0
 40
1.0
 40
1.0
 40
1.0
 10
-31.7394
 20
31.8051
 30
0.0
 10
-31.7394
 20
31.8051
 30
0.0
 10
-31.8431
 20
32.3822
 30
0.0
 10
-31.8431
 20
32.3822
 30
0.0
 10
-31.8431
 20
32.3822
 30
0.0
 10
-31.8431
 20
32.3822
 30
0.0
 10
-31.8431
 20
32.8782
 30
0.0
 10
-31.8431
 20
32.8782
 30
0.0
 10
-31.8431
 20
32.8782
 30
0.0
 10
-31.8431
 20
32.8782
 30
0.0
 10
-31.419
 20
32.8782
 30
0.0
 10
-31.419
 20
32.8782
 30
0.0
 10
-31.419
 20
32.8782
 30
0.0
 10
-31.419
 20
32.8782
 30
0.0
 10
-31.419
 20
32.3822
 30
0.0
 10
-31.419
 20
32.3822
 30
0.0
 10
-31.419
 20
32.3822
 30
0.0
 10
-31.419
 20
32.3822
 30
0.0
 10
-31.5122
 20
31.8051
 30
0.0
 10
-31.5122
 20
31.8051
 30
0.0
 10
-31.5122
 20
31.8051
 30
0.0
 10
-31.5122
 20
31.8051
 30
0.0
 10
-31.7394
 20
31.8051
 30
0.0
 10
-31.7394
 20
31.8051
 30
0.0
  0
SPLINE
  5
47
330
1F
100
AcDbEntity
  8
VRSTVA_1
 62
   250
100
AcDbSpline
210
0.0
220
0.0
230
1.0
 70
    11
 71
     3
 72
    28
 73
    24
 74
     0
 42
0.0000000001
 43
0.0000000001
 40
0.0
 40
0.0
 40
0.0
 40
0.0
 40
0.1428571428571428
 40
0.1428571428571428
 40
0.1428571428571428
 40
0.1428571428571428
 40
0.2857142857142857
 40
0.2857142857142857
 40
0.2857142857142857
 40
0.2857142857142857
 40
0.4285714285714285
 40
0.4285714285714285
 40
0.4285714285714285
 40
0.4285714285714285
 40
0.5714285714285714
 40
0.5714285714285714
 40
0.5714285714285714
 40
0.5714285714285714
 40
0.7142857142857143
 40
0.7142857142857143
 40
0.7142857142857143
 40
0.7142857142857143
 40
1.0
 40
1.0
 40
1.0
 40
1.0
 10
-31.055
 20
31.8051
 30
0.0
 10
-31.055
 20
31.8051
 30
0.0
 10
-31.1566
 20
32.3822
 30
0.0
 10
-31.1566
 20
32.3822
 30
0.0
 10
-31.1566
 20
32.3822
 30
0.0
 10
-31.1566
 20
32.3822
 30
0.0
 10
-31.1566
 20
32.8782
 30
0.0
 10
-31.1566
 20
32.8782
 30
0.0
 10
-31.1566
 20
32.8782
 30
0.0
 10
-31.1566
 20
32.8782
 30
0.0
 10
-30.7325
 20
32.8782
 30
0.0
 10
-30.7325
 20
32.8782
 30
0.0
 10
-30.7325
 20
32.8782
 30
0.0
 10
-30.7325
 20
32.8782
 30
0.0
 10
-30.7325
 20
32.3822
 30
0.0
 10
-30.7325
 20
32.3822
 30
0.0
 10
-30.7325
 20
32.3822
 30
0.0
 10
-30.7325
 20
32.3822
 30
0.0
 10
-30.832
 20
31.8051
 30
0.0
 10
-30.832
 20
31.8051
 30
0.0
 10
-30.832
 20
31.8051
 30
0.0
 10
-30.832
 20
31.8051
 30
0.0
 10
-31.055
 20
31.8051
 30
0.0
 10
-31.055
 20
31.8051
 30
0.0
  0
SPLINE
  5
48
330
1F
100
AcDbEntity
  8
VRSTVA_1
 62
   250
100
AcDbSpline
210
0.0
220
0.0
230
1.0
 70
    11
 71
     3
 72
    20
 73
    16
 74
     0
 42
0.0000000001
 43
0.0000000001
 40
0.0
 40
0.0
 40
0.0
 40
0.0
 40
0.2
 40
0.2
 40
0.2
 40
0.2
 40
0.4
 40
0.4
 40
0.4
 40
0.4
 40
0.6
 40
0.6
 40
0.6
 40
0.6
 40
1.0
 40
1.0
 40
1.0
 40
1.0
 10
-51.8672
 20
20.6523
 30
0.0
 10
-51.8672
 20
20.6523
 30
0.0
 10
-51.3657
 20
24.2061
 30
0.0
 10
-51.3657
 20
24.2061
 30
0.0
 10
-51.3657
 20
24.2061
 30
0.0
 10
-51.3657
 20
24.2061
 30
0.0
 10
-51.2543
 20
24.2061
 30
0.0
 10
-51.2543
 20
24.2061
 30
0.0
 10
-51.2543
 20
24.2061
 30
0.0
 10
-51.2543
 20
24.2061
 30
0.0
 10
-50.7194
 20
20.6523
 30
0.0
 10
-50.7194
 20
20.6523
 30
0.0
 10
-50.7194
 20
20.6523
 30
0.0
 10
-50.7194
 20
20.6523
 30
0.0
 10
-51.8672
 20
20.6523
 30
0.0
 10
-51.8672
 20
20.6523
 30
0.0
  0
SPLINE
  5
49
330
1F
100
AcDbEntity
  8
VRSTVA_1
 62
   250
100
AcDbSpline
210
0.0
220
0.0
230
1.0
 70
    11
 71
     3
 72
    20
 73
    16
 74
     0
 42
0.0000000001
 43
0.0000000001
 40
0.0
 40
0.0
 40
0.0
 40
0.0
 40
0.2
 40
0.2
 40
0.2
 40
0.2
 40
0.4
 40
0.4
 40
0.4
 40
0.4
 40
0.6
 40
0.6
 40
0.6
 40
0.6
 40
1.0
 40
1.0
 40
1.0
 40
1.0
 10
-47.6584
 20
29.3863
 30
0.0
 10
-47.6584
 20
29.3863
 30
0.0
 10
-44.1046
 20
28.8848
 30
0.0
 10
-44.1046
 20
28.8848
 30
0.0
 10
-44.1046
 20
28.8848
 30
0.0
 10
-44.1046
 20
28.8848
 30
0.0
 10
-44.1046
 20
28.7734
 30
0.0
 10
-44.1046
 20
28.7734
 30
0.0
 10
-44.1046
 20
28.7734
 30
0.0
 10
-44.1046
 20
28.7734
 30
0.0
 10
-47.6584
 20
28.2385
 30
0.0
 10
-47.6584
 20
28.2385
 30
0.0
 10
-47.6584
 20
28.2385
 30
0.0
 10
-47.6584
 20
28.2385
 30
0.0
 10
-47.6584
 20
29.3863
 30
0.0
 10
-47.6584
 20
29.3863
 30
0.0
  0
SPLINE
  5
4A
330
1F
100
AcDbEntity
  8
VRSTVA_1
 62
   250
100
AcDbSpline
210
0.0
220
0.0
230
1.0
 70
    11
 71
     3
 72
    20
 73
    16
 74
     0
 42
0.0000000001
 43
0.0000000001
 40
0.0
 40
0.0
 40
0.0
 40
0.0
 40
0.2
 40
0.2
 40
0.2
 40
0.2
 40
0.4
 40
0.4
 40
0.4
 40
0.4
 40
0.6
 40
0.6
 40
0.6
 40
0.6
 40
1.0
 40
1.0
 40
1.0
 40
1.0
 10
-26.1048
 20
28.2827
 30
0.0
 10
-26.1048
 20
28.2827
 30
0.0
 10
-29.6586
 20
28.7843
 30
0.0
 10
-29.6586
 20
28.7843
 30
0.0
 10
-29.6586
 20
28.7843
 30
0.0
 10
-29.6586
 20
28.7843
 30
0.0
 10
-29.6586
 20
28.8957
 30
0.0
 10
-29.6586
 20
28.8957
 30
0.0
 10
-29.6586
 20
28.8957
 30
0.0
 10
-29.6586
 20
28.8957
 30
0.0
 10
-26.1048
 20
29.4306
 30
0.0
 10
-26.1048
 20
29.4306
 30
0.0
 10
-26.1048
 20
29.4306
 30
0.0
 10
-26.1048
 20
29.4306
 30
0.0
 10
-26.1048
 20
28.2827
 30
0.0
 10
-26.1048
 20
28.2827
 30
0.0
  0
SPLINE
  5
4B
330
1F
100
AcDbEntity
  8
VRSTVA_1
 62
   250
100
AcDbSpline
210
0.0
220
0.0
230
1.0
 70
    11
 71
     3
 72
   116
 73
   112
 74
     0
 42
0.0000000001
 43
0.0000000001
 40
0.0
 40
0.0
 40
0.0
 40
0.0
 40
0.0344827586206897
 40
0.0344827586206897
 40
0.0344827586206897
 40
0.0344827586206897
 40
0.0689655172413793
 40
0.0689655172413793
 40
0.0689655172413793
 40
0.0689655172413793
 40
0.103448275862069
 40
0.103448275862069
 40
0.103448275862069
 40
0.103448275862069
 40
0.1379310344827586
 40
0.1379310344827586
 40
0.1379310344827586
 40
0.1379310344827586
 40
0.1724137931034483
 40
0.1724137931034483
 40
0.1724137931034483
 40
0.1724137931034483
 40
0.2068965517241379
 40
0.2068965517241379
 40
0.2068965517241379
 40
0.2068965517241379
 40
0.2413793103448276
 40
0.2413793103448276
 40
0.2413793103448276
 40
0.2413793103448276
 40
0.2758620689655172
 40
0.2758620689655172
 40
0.2758620689655172
 40
0.2758620689655172
 40
0.3103448275862069
 40
0.3103448275862069
 40
0.3103448275862069
 40
0.3103448275862069
 40
0.3448275862068966
 40
0.3448275862068966
 40
0.3448275862068966
 40
0.3448275862068966
 40
0.3793103448275862
 40
0.3793103448275862
 40
0.3793103448275862
 40
0.3793103448275862
 40
0.4137931034482759
 40
0.4137931034482759
 40
0.4137931034482759
 40
0.4137931034482759
 40
0.4482758620689655
 40
0.4482758620689655
 40
0.4482758620689655
 40
0.4482758620689655
 40
0.4827586206896552
 40
0.4827586206896552
 40
0.4827586206896552
 40
0.4827586206896552
 40
0.5172413793103449
 40
0.5172413793103449
 40
0.5172413793103449
 40
0.5172413793103449
 40
0.5517241379310345
 40
0.5517241379310345
 40
0.5517241379310345
 40
0.5517241379310345
 40
0.5862068965517241
 40
0.5862068965517241
 40
0.5862068965517241
 40
0.5862068965517241
 40
0.6206896551724138
 40
0.6206896551724138
 40
0.6206896551724138
 40
0.6206896551724138
 40
0.6551724137931034
 40
0.6551724137931034
 40
0.6551724137931034
 40
0.6551724137931034
 40
0.6896551724137931
 40
0.6896551724137931
 40
0.6896551724137931
 40
0.6896551724137931
 40
0.7241379310344828
 40
0.7241379310344828
 40
0.7241379310344828
 40
0.7241379310344828
 40
0.7586206896551724
 40
0.7586206896551724
 40
0.7586206896551724
 40
0.7586206896551724
 40
0.7931034482758621
 40
0.7931034482758621
 40
0.7931034482758621
 40
0.7931034482758621
 40
0.8275862068965517
 40
0.8275862068965517
 40
0.8275862068965517
 40
0.8275862068965517
 40
0.8620689655172413
 40
0.8620689655172413
 40
0.8620689655172413
 40
0.8620689655172413
 40
0.896551724137931
 40
0.896551724137931
 40
0.896551724137931
 40
0.896551724137931
 40
0.9310344827586207
 40
0.9310344827586207
 40
0.9310344827586207
 40
0.9310344827586207
 40
1.0
 40
1.0
 40
1.0
 40
1.0
 10
-51.9179
 20
-0.7168
 30
0.0
 10
-51.9179
 20
-0.7168
 30
0.0
 10
-54.1129
 20
-0.7168
 30
0.0
 10
-54.1129
 20
-0.7168
 30
0.0
 10
-54.1129
 20
-0.7168
 30
0.0
 10
-54.1129
 20
-0.7168
 30
0.0
 10
-54.1129
 20
-0.3845
 30
0.0
 10
-54.1129
 20
-0.3845
 30
0.0
 10
-54.1129
 20
-0.3845
 30
0.0
 10
-54.1129
 20
-0.3845
 30
0.0
 10
-53.8052
 20
-0.3845
 30
0.0
 10
-53.8052
 20
-0.3845
 30
0.0
 10
-53.8052
 20
-0.3845
 30
0.0
 10
-53.9125
 20
-0.3153
 30
0.0
 10
-53.9993
 20
-0.2236
 30
0.0
 10
-54.0642
 20
-0.1093
 30
0.0
 10
-54.0642
 20
-0.1093
 30
0.0
 10
-54.1298
 20
0.005
 30
0.0
 10
-54.163
 20
0.1355
 30
0.0
 10
-54.163
 20
0.2816
 30
0.0
 10
-54.163
 20
0.2816
 30
0.0
 10
-54.163
 20
0.4438
 30
0.0
 10
-54.1291
 20
0.5772
 30
0.0
 10
-54.0614
 20
0.6809
 30
0.0
 10
-54.0614
 20
0.6809
 30
0.0
 10
-53.9936
 20
0.7853
 30
0.0
 10
-53.8998
 20
0.8587
 30
0.0
 10
-53.7784
 20
0.901
 30
0.0
 10
-53.7784
 20
0.901
 30
0.0
 10
-54.0346
 20
1.0753
 30
0.0
 10
-54.163
 20
1.3011
 30
0.0
 10
-54.163
 20
1.5791
 30
0.0
 10
-54.163
 20
1.5791
 30
0.0
 10
-54.163
 20
1.7971
 30
0.0
 10
-54.1023
 20
1.9643
 30
0.0
 10
-53.9816
 20
2.0814
 30
0.0
 10
-53.9816
 20
2.0814
 30
0.0
 10
-53.861
 20
2.1985
 30
0.0
 10
-53.6754
 20
2.2571
 30
0.0
 10
-53.425
 20
2.2571
 30
0.0
 10
-53.425
 20
2.2571
 30
0.0
 10
-53.425
 20
2.2571
 30
0.0
 10
-51.9179
 20
2.2571
 30
0.0
 10
-51.9179
 20
2.2571
 30
0.0
 10
-51.9179
 20
2.2571
 30
0.0
 10
-51.9179
 20
2.2571
 30
0.0
 10
-51.9179
 20
1.8874
 30
0.0
 10
-51.9179
 20
1.8874
 30
0.0
 10
-51.9179
 20
1.8874
 30
0.0
 10
-51.9179
 20
1.8874
 30
0.0
 10
-53.3008
 20
1.8874
 30
0.0
 10
-53.3008
 20
1.8874
 30
0.0
 10
-53.3008
 20
1.8874
 30
0.0
 10
-53.4496
 20
1.8874
 30
0.0
 10
-53.5569
 20
1.8754
 30
0.0
 10
-53.6225
 20
1.8514
 30
0.0
 10
-53.6225
 20
1.8514
 30
0.0
 10
-53.6874
 20
1.8267
 30
0.0
 10
-53.7403
 20
1.783
 30
0.0
 10
-53.7806
 20
1.7202
 30
0.0
 10
-53.7806
 20
1.7202
 30
0.0
 10
-53.8201
 20
1.6567
 30
0.0
 10
-53.8405
 20
1.5819
 30
0.0
 10
-53.8405
 20
1.4965
 30
0.0
 10
-53.8405
 20
1.4965
 30
0.0
 10
-53.8405
 20
1.342
 30
0.0
 10
-53.789
 20
1.2143
 30
0.0
 10
-53.686
 20
1.112
 30
0.0
 10
-53.686
 20
1.112
 30
0.0
 10
-53.5837
 20
1.0104
 30
0.0
 10
-53.4193
 20
0.9589
 30
0.0
 10
-53.1935
 20
0.9589
 30
0.0
 10
-53.1935
 20
0.9589
 30
0.0
 10
-53.1935
 20
0.9589
 30
0.0
 10
-51.9179
 20
0.9589
 30
0.0
 10
-51.9179
 20
0.9589
 30
0.0
 10
-51.9179
 20
0.9589
 30
0.0
 10
-51.9179
 20
0.9589
 30
0.0
 10
-51.9179
 20
0.5871
 30
0.0
 10
-51.9179
 20
0.5871
 30
0.0
 10
-51.9179
 20
0.5871
 30
0.0
 10
-51.9179
 20
0.5871
 30
0.0
 10
-53.3438
 20
0.5871
 30
0.0
 10
-53.3438
 20
0.5871
 30
0.0
 10
-53.3438
 20
0.5871
 30
0.0
 10
-53.5096
 20
0.5871
 30
0.0
 10
-53.6338
 20
0.5567
 30
0.0
 10
-53.7163
 20
0.496
 30
0.0
 10
-53.7163
 20
0.496
 30
0.0
 10
-53.7989
 20
0.4354
 30
0.0
 10
-53.8405
 20
0.3366
 30
0.0
 10
-53.8405
 20
0.1983
 30
0.0
 10
-53.8405
 20
0.1983
 30
0.0
 10
-53.8405
 20
0.0939
 30
0.0
 10
-53.813
 20
-0.0028
 30
0.0
 10
-53.7573
 20
-0.0917
 30
0.0
 10
-53.7573
 20
-0.0917
 30
0.0
 10
-53.7022
 20
-0.1806
 30
0.0
 10
-53.6218
 20
-0.2455
 30
0.0
 10
-53.516
 20
-0.285
 30
0.0
 10
-53.516
 20
-0.285
 30
0.0
 10
-53.4094
 20
-0.3252
 30
0.0
 10
-53.2563
 20
-0.345
 30
0.0
 10
-53.0567
 20
-0.345
 30
0.0
 10
-53.0567
 20
-0.345
 30
0.0
 10
-53.0567
 20
-0.345
 30
0.0
 10
-51.9179
 20
-0.345
 30
0.0
 10
-51.9179
 20
-0.345
 30
0.0
 10
-51.9179
 20
-0.345
 30
0.0
 10
-51.9179
 20
-0.345
 30
0.0
 10
-51.9179
 20
-0.7168
 30
0.0
 10
-51.9179
 20
-0.7168
 30
0.0
  0
SPLINE
  5
4C
330
1F
100
AcDbEntity
  8
VRSTVA_1
 62
   250
100
AcDbSpline
210
0.0
220
0.0
230
1.0
 70
    11
 71
     3
 72
   112
 73
   108
 74
     0
 42
0.0000000001
 43
0.0000000001
 40
0.0
 40
0.0
 40
0.0
 40
0.0
 40
0.0357142857142857
 40
0.0357142857142857
 40
0.0357142857142857
 40
0.0357142857142857
 40
0.0714285714285714
 40
0.0714285714285714
 40
0.0714285714285714
 40
0.0714285714285714
 40
0.1071428571428571
 40
0.1071428571428571
 40
0.1071428571428571
 40
0.1071428571428571
 40
0.1428571428571428
 40
0.1428571428571428
 40
0.1428571428571428
 40
0.1428571428571428
 40
0.1785714285714286
 40
0.1785714285714286
 40
0.1785714285714286
 40
0.1785714285714286
 40
0.2142857142857143
 40
0.2142857142857143
 40
0.2142857142857143
 40
0.2142857142857143
 40
0.25
 40
0.25
 40
0.25
 40
0.25
 40
0.2857142857142857
 40
0.2857142857142857
 40
0.2857142857142857
 40
0.2857142857142857
 40
0.3214285714285715
 40
0.3214285714285715
 40
0.3214285714285715
 40
0.3214285714285715
 40
0.3571428571428572
 40
0.3571428571428572
 40
0.3571428571428572
 40
0.3571428571428572
 40
0.3928571428571428
 40
0.3928571428571428
 40
0.3928571428571428
 40
0.3928571428571428
 40
0.4285714285714285
 40
0.4285714285714285
 40
0.4285714285714285
 40
0.4285714285714285
 40
0.4642857142857143
 40
0.4642857142857143
 40
0.4642857142857143
 40
0.4642857142857143
 40
0.5
 40
0.5
 40
0.5
 40
0.5
 40
0.5357142857142857
 40
0.5357142857142857
 40
0.5357142857142857
 40
0.5357142857142857
 40
0.5714285714285714
 40
0.5714285714285714
 40
0.5714285714285714
 40
0.5714285714285714
 40
0.6071428571428571
 40
0.6071428571428571
 40
0.6071428571428571
 40
0.6071428571428571
 40
0.6428571428571429
 40
0.6428571428571429
 40
0.6428571428571429
 40
0.6428571428571429
 40
0.6785714285714286
 40
0.6785714285714286
 40
0.6785714285714286
 40
0.6785714285714286
 40
0.7142857142857143
 40
0.7142857142857143
 40
0.7142857142857143
 40
0.7142857142857143
 40
0.75
 40
0.75
 40
0.75
 40
0.75
 40
0.7857142857142857
 40
0.7857142857142857
 40
0.7857142857142857
 40
0.7857142857142857
 40
0.8214285714285714
 40
0.8214285714285714
 40
0.8214285714285714
 40
0.8214285714285714
 40
0.8571428571428571
 40
0.8571428571428571
 40
0.8571428571428571
 40
0.8571428571428571
 40
0.8928571428571429
 40
0.8928571428571429
 40
0.8928571428571429
 40
0.8928571428571429
 40
0.9285714285714286
 40
0.9285714285714286
 40
0.9285714285714286
 40
0.9285714285714286
 40
1.0
 40
1.0
 40
1.0
 40
1.0
 10
-52.1888
 20
4.2418
 30
0.0
 10
-52.0717
 20
4.1035
 30
0.0
 10
-51.9892
 20
3.9708
 30
0.0
 10
-51.9405
 20
3.8438
 30
0.0
 10
-51.9405
 20
3.8438
 30
0.0
 10
-51.8925
 20
3.7161
 30
0.0
 10
-51.8685
 20
3.5793
 30
0.0
 10
-51.8685
 20
3.4332
 30
0.0
 10
-51.8685
 20
3.4332
 30
0.0
 10
-51.8685
 20
3.1919
 30
0.0
 10
-51.9271
 20
3.0071
 30
0.0
 10
-52.0449
 20
2.8772
 30
0.0
 10
-52.0449
 20
2.8772
 30
0.0
 10
-52.1627
 20
2.7481
 30
0.0
 10
-52.3137
 20
2.6832
 30
0.0
 10
-52.4965
 20
2.6832
 30
0.0
 10
-52.4965
 20
2.6832
 30
0.0
 10
-52.6044
 20
2.6832
 30
0.0
 10
-52.7025
 20
2.7072
 30
0.0
 10
-52.7914
 20
2.7566
 30
0.0
 10
-52.7914
 20
2.7566
 30
0.0
 10
-52.8803
 20
2.8053
 30
0.0
 10
-52.9515
 20
2.8695
 30
0.0
 10
-53.0052
 20
2.9485
 30
0.0
 10
-53.0052
 20
2.9485
 30
0.0
 10
-53.0588
 20
3.0282
 30
0.0
 10
-53.0997
 20
3.1171
 30
0.0
 10
-53.1272
 20
3.2166
 30
0.0
 10
-53.1272
 20
3.2166
 30
0.0
 10
-53.1463
 20
3.2893
 30
0.0
 10
-53.1653
 20
3.3993
 30
0.0
 10
-53.183
 20
3.5468
 30
0.0
 10
-53.183
 20
3.5468
 30
0.0
 10
-53.2189
 20
3.8474
 30
0.0
 10
-53.2613
 20
4.0689
 30
0.0
 10
-53.3114
 20
4.2107
 30
0.0
 10
-53.3114
 20
4.2107
 30
0.0
 10
-53.3622
 20
4.2121
 30
0.0
 10
-53.3946
 20
4.2128
 30
0.0
 10
-53.408
 20
4.2128
 30
0.0
 10
-53.408
 20
4.2128
 30
0.0
 10
-53.5597
 20
4.2128
 30
0.0
 10
-53.667
 20
4.1776
 30
0.0
 10
-53.7283
 20
4.107
 30
0.0
 10
-53.7283
 20
4.107
 30
0.0
 10
-53.813
 20
4.0125
 30
0.0
 10
-53.8546
 20
3.8706
 30
0.0
 10
-53.8546
 20
3.6837
 30
0.0
 10
-53.8546
 20
3.6837
 30
0.0
 10
-53.8546
 20
3.5087
 30
0.0
 10
-53.8243
 20
3.3796
 30
0.0
 10
-53.7629
 20
3.2956
 30
0.0
 10
-53.7629
 20
3.2956
 30
0.0
 10
-53.7015
 20
3.2124
 30
0.0
 10
-53.5929
 20
3.151
 30
0.0
 10
-53.4369
 20
3.1108
 30
0.0
 10
-53.4369
 20
3.1108
 30
0.0
 10
-53.4369
 20
3.1108
 30
0.0
 10
-53.487
 20
2.7474
 30
0.0
 10
-53.487
 20
2.7474
 30
0.0
 10
-53.487
 20
2.7474
 30
0.0
 10
-53.6423
 20
2.7806
 30
0.0
 10
-53.7686
 20
2.8349
 30
0.0
 10
-53.8638
 20
2.9104
 30
0.0
 10
-53.8638
 20
2.9104
 30
0.0
 10
-53.9598
 20
2.9859
 30
0.0
 10
-54.0338
 20
3.096
 30
0.0
 10
-54.0853
 20
3.2392
 30
0.0
 10
-54.0853
 20
3.2392
 30
0.0
 10
-54.1369
 20
3.3824
 30
0.0
 10
-54.163
 20
3.5482
 30
0.0
 10
-54.163
 20
3.7373
 30
0.0
 10
-54.163
 20
3.7373
 30
0.0
 10
-54.163
 20
3.925
 30
0.0
 10
-54.1404
 20
4.0767
 30
0.0
 10
-54.0966
 20
4.1938
 30
0.0
 10
-54.0966
 20
4.1938
 30
0.0
 10
-54.0522
 20
4.3109
 30
0.0
 10
-53.9972
 20
4.397
 30
0.0
 10
-53.9301
 20
4.4527
 30
0.0
 10
-53.9301
 20
4.4527
 30
0.0
 10
-53.8631
 20
4.5078
 30
0.0
 10
-53.7791
 20
4.5459
 30
0.0
 10
-53.6768
 20
4.5684
 30
0.0
 10
-53.6768
 20
4.5684
 30
0.0
 10
-53.6133
 20
4.5804
 30
0.0
 10
-53.499
 20
4.5868
 30
0.0
 10
-53.3339
 20
4.5868
 30
0.0
 10
-53.3339
 20
4.5868
 30
0.0
 10
-53.3339
 20
4.5868
 30
0.0
 10
-52.8379
 20
4.5868
 30
0.0
 10
-52.8379
 20
4.5868
 30
0.0
 10
-52.8379
 20
4.5868
 30
0.0
 10
-52.4915
 20
4.5868
 30
0.0
 10
-52.2728
 20
4.5945
 30
0.0
 10
-52.1818
 20
4.6108
 30
0.0
 10
-52.1818
 20
4.6108
 30
0.0
 10
-52.0901
 20
4.6263
 30
0.0
 10
-52.0019
 20
4.658
 30
0.0
 10
-51.9179
 20
4.7046
 30
0.0
 10
-51.9179
 20
4.7046
 30
0.0
 10
-51.9179
 20
4.7046
 30
0.0
 10
-51.9179
 20
4.3158
 30
0.0
 10
-51.9179
 20
4.3158
 30
0.0
 10
-51.9179
 20
4.3158
 30
0.0
 10
-51.9948
 20
4.2777
 30
0.0
 10
-52.0851
 20
4.2523
 30
0.0
 10
-52.1888
 20
4.2418
 30
0.0
  0
SPLINE
  5
4D
330
1F
100
AcDbEntity
  8
VRSTVA_1
 62
   250
100
AcDbSpline
210
0.0
220
0.0
230
1.0
 70
    11
 71
     3
 72
    44
 73
    40
 74
     0
 42
0.0000000001
 43
0.0000000001
 40
0.0
 40
0.0
 40
0.0
 40
0.0
 40
0.0909090909090909
 40
0.0909090909090909
 40
0.0909090909090909
 40
0.0909090909090909
 40
0.1818181818181818
 40
0.1818181818181818
 40
0.1818181818181818
 40
0.1818181818181818
 40
0.2727272727272727
 40
0.2727272727272727
 40
0.2727272727272727
 40
0.2727272727272727
 40
0.3636363636363636
 40
0.3636363636363636
 40
0.3636363636363636
 40
0.3636363636363636
 40
0.4545454545454545
 40
0.4545454545454545
 40
0.4545454545454545
 40
0.4545454545454545
 40
0.5454545454545454
 40
0.5454545454545454
 40
0.5454545454545454
 40
0.5454545454545454
 40
0.6363636363636364
 40
0.6363636363636364
 40
0.6363636363636364
 40
0.6363636363636364
 40
0.7272727272727273
 40
0.7272727272727273
 40
0.7272727272727273
 40
0.7272727272727273
 40
0.8181818181818182
 40
0.8181818181818182
 40
0.8181818181818182
 40
0.8181818181818182
 40
1.0
 40
1.0
 40
1.0
 40
1.0
 10
-53.02
 20
4.2107
 30
0.0
 10
-52.9642
 20
4.0753
 30
0.0
 10
-52.9177
 20
3.8728
 30
0.0
 10
-52.8789
 20
3.6032
 30
0.0
 10
-52.8789
 20
3.6032
 30
0.0
 10
-52.857
 20
3.4501
 30
0.0
 10
-52.8323
 20
3.3415
 30
0.0
 10
-52.8048
 20
3.2787
 30
0.0
 10
-52.8048
 20
3.2787
 30
0.0
 10
-52.7773
 20
3.2152
 30
0.0
 10
-52.737
 20
3.1658
 30
0.0
 10
-52.6834
 20
3.1319
 30
0.0
 10
-52.6834
 20
3.1319
 30
0.0
 10
-52.6305
 20
3.0974
 30
0.0
 10
-52.5719
 20
3.0797
 30
0.0
 10
-52.507
 20
3.0797
 30
0.0
 10
-52.507
 20
3.0797
 30
0.0
 10
-52.4076
 20
3.0797
 30
0.0
 10
-52.325
 20
3.1178
 30
0.0
 10
-52.2587
 20
3.1926
 30
0.0
 10
-52.2587
 20
3.1926
 30
0.0
 10
-52.1931
 20
3.2674
 30
0.0
 10
-52.1599
 20
3.3775
 30
0.0
 10
-52.1599
 20
3.5221
 30
0.0
 10
-52.1599
 20
3.5221
 30
0.0
 10
-52.1599
 20
3.6653
 30
0.0
 10
-52.1909
 20
3.793
 30
0.0
 10
-52.2537
 20
3.9045
 30
0.0
 10
-52.2537
 20
3.9045
 30
0.0
 10
-52.3165
 20
4.016
 30
0.0
 10
-52.4026
 20
4.0985
 30
0.0
 10
-52.5113
 20
4.1507
 30
0.0
 10
-52.5113
 20
4.1507
 30
0.0
 10
-52.5952
 20
4.191
 30
0.0
 10
-52.7194
 20
4.2107
 30
0.0
 10
-52.8831
 20
4.2107
 30
0.0
 10
-52.8831
 20
4.2107
 30
0.0
 10
-52.8831
 20
4.2107
 30
0.0
 10
-53.02
 20
4.2107
 30
0.0
 10
-53.02
 20
4.2107
 30
0.0
  0
SPLINE
  5
4E
330
1F
100
AcDbEntity
  8
VRSTVA_1
 62
   250
100
AcDbSpline
210
0.0
220
0.0
230
1.0
 70
    11
 71
     3
 72
    64
 73
    60
 74
     0
 42
0.0000000001
 43
0.0000000001
 40
0.0
 40
0.0
 40
0.0
 40
0.0
 40
0.0625
 40
0.0625
 40
0.0625
 40
0.0625
 40
0.125
 40
0.125
 40
0.125
 40
0.125
 40
0.1875
 40
0.1875
 40
0.1875
 40
0.1875
 40
0.25
 40
0.25
 40
0.25
 40
0.25
 40
0.3125
 40
0.3125
 40
0.3125
 40
0.3125
 40
0.375
 40
0.375
 40
0.375
 40
0.375
 40
0.4375
 40
0.4375
 40
0.4375
 40
0.4375
 40
0.5
 40
0.5
 40
0.5
 40
0.5
 40
0.5625
 40
0.5625
 40
0.5625
 40
0.5625
 40
0.625
 40
0.625
 40
0.625
 40
0.625
 40
0.6875
 40
0.6875
 40
0.6875
 40
0.6875
 40
0.75
 40
0.75
 40
0.75
 40
0.75
 40
0.8125
 40
0.8125
 40
0.8125
 40
0.8125
 40
0.875
 40
0.875
 40
0.875
 40
0.875
 40
1.0
 40
1.0
 40
1.0
 40
1.0
 10
-51.9179
 20
4.9155
 30
0.0
 10
-51.9179
 20
4.9155
 30
0.0
 10
-53.0588
 20
5.7178
 30
0.0
 10
-53.0588
 20
5.7178
 30
0.0
 10
-53.0588
 20
5.7178
 30
0.0
 10
-53.0588
 20
5.7178
 30
0.0
 10
-54.1129
 20
4.9755
 30
0.0
 10
-54.1129
 20
4.9755
 30
0.0
 10
-54.1129
 20
4.9755
 30
0.0
 10
-54.1129
 20
4.9755
 30
0.0
 10
-54.1129
 20
5.4405
 30
0.0
 10
-54.1129
 20
5.4405
 30
0.0
 10
-54.1129
 20
5.4405
 30
0.0
 10
-54.1129
 20
5.4405
 30
0.0
 10
-53.5985
 20
5.7777
 30
0.0
 10
-53.5985
 20
5.7777
 30
0.0
 10
-53.5985
 20
5.7777
 30
0.0
 10
-53.5004
 20
5.8405
 30
0.0
 10
-53.4186
 20
5.892
 30
0.0
 10
-53.3523
 20
5.9301
 30
0.0
 10
-53.3523
 20
5.9301
 30
0.0
 10
-53.4433
 20
5.9908
 30
0.0
 10
-53.5237
 20
6.0465
 30
0.0
 10
-53.5943
 20
6.098
 30
0.0
 10
-53.5943
 20
6.098
 30
0.0
 10
-53.5943
 20
6.098
 30
0.0
 10
-54.1129
 20
6.4678
 30
0.0
 10
-54.1129
 20
6.4678
 30
0.0
 10
-54.1129
 20
6.4678
 30
0.0
 10
-54.1129
 20
6.4678
 30
0.0
 10
-54.1129
 20
6.9123
 30
0.0
 10
-54.1129
 20
6.9123
 30
0.0
 10
-54.1129
 20
6.9123
 30
0.0
 10
-54.1129
 20
6.9123
 30
0.0
 10
-53.0792
 20
6.1538
 30
0.0
 10
-53.0792
 20
6.1538
 30
0.0
 10
-53.0792
 20
6.1538
 30
0.0
 10
-53.0792
 20
6.1538
 30
0.0
 10
-51.9179
 20
6.9701
 30
0.0
 10
-51.9179
 20
6.9701
 30
0.0
 10
-51.9179
 20
6.9701
 30
0.0
 10
-51.9179
 20
6.9701
 30
0.0
 10
-51.9179
 20
6.5136
 30
0.0
 10
-51.9179
 20
6.5136
 30
0.0
 10
-51.9179
 20
6.5136
 30
0.0
 10
-51.9179
 20
6.5136
 30
0.0
 10
-52.6002
 20
6.0628
 30
0.0
 10
-52.6002
 20
6.0628
 30
0.0
 10
-52.6002
 20
6.0628
 30
0.0
 10
-52.6002
 20
6.0628
 30
0.0
 10
-52.7843
 20
5.9428
 30
0.0
 10
-52.7843
 20
5.9428
 30
0.0
 10
-52.7843
 20
5.9428
 30
0.0
 10
-52.7843
 20
5.9428
 30
0.0
 10
-51.9179
 20
5.3664
 30
0.0
 10
-51.9179
 20
5.3664
 30
0.0
 10
-51.9179
 20
5.3664
 30
0.0
 10
-51.9179
 20
5.3664
 30
0.0
 10
-51.9179
 20
4.9155
 30
0.0
 10
-51.9179
 20
4.9155
 30
0.0
  0
SPLINE
  5
4F
330
1F
100
AcDbEntity
  8
VRSTVA_1
 62
   250
100
AcDbSpline
210
0.0
220
0.0
230
1.0
 70
    11
 71
     3
 72
    40
 73
    36
 74
     0
 42
0.0000000001
 43
0.0000000001
 40
0.0
 40
0.0
 40
0.0
 40
0.0
 40
0.1
 40
0.1
 40
0.1
 40
0.1
 40
0.2
 40
0.2
 40
0.2
 40
0.2
 40
0.3
 40
0.3
 40
0.3
 40
0.3
 40
0.4
 40
0.4
 40
0.4
 40
0.4
 40
0.5
 40
0.5
 40
0.5
 40
0.5
 40
0.6
 40
0.6
 40
0.6
 40
0.6
 40
0.7
 40
0.7
 40
0.7
 40
0.7
 40
0.8
 40
0.8
 40
0.8
 40
0.8
 40
1.0
 40
1.0
 40
1.0
 40
1.0
 10
-51.9179
 20
9.7543
 30
0.0
 10
-51.9179
 20
9.7543
 30
0.0
 10
-51.9179
 20
9.3825
 30
0.0
 10
-51.9179
 20
9.3825
 30
0.0
 10
-51.9179
 20
9.3825
 30
0.0
 10
-51.9179
 20
9.3825
 30
0.0
 10
-54.2885
 20
9.3825
 30
0.0
 10
-54.2885
 20
9.3825
 30
0.0
 10
-54.2885
 20
9.3825
 30
0.0
 10
-54.2032
 20
9.2929
 30
0.0
 10
-54.1178
 20
9.1758
 30
0.0
 10
-54.0324
 20
9.0304
 30
0.0
 10
-54.0324
 20
9.0304
 30
0.0
 10
-53.9471
 20
8.8844
 30
0.0
 10
-53.8829
 20
8.7538
 30
0.0
 10
-53.8405
 20
8.6381
 30
0.0
 10
-53.8405
 20
8.6381
 30
0.0
 10
-53.8405
 20
8.6381
 30
0.0
 10
-54.1996
 20
8.6381
 30
0.0
 10
-54.1996
 20
8.6381
 30
0.0
 10
-54.1996
 20
8.6381
 30
0.0
 10
-54.2977
 20
8.8463
 30
0.0
 10
-54.4163
 20
9.0283
 30
0.0
 10
-54.5552
 20
9.1842
 30
0.0
 10
-54.5552
 20
9.1842
 30
0.0
 10
-54.6949
 20
9.3394
 30
0.0
 10
-54.8297
 20
9.4502
 30
0.0
 10
-54.9609
 20
9.5151
 30
0.0
 10
-54.9609
 20
9.5151
 30
0.0
 10
-54.9609
 20
9.5151
 30
0.0
 10
-54.9609
 20
9.7543
 30
0.0
 10
-54.9609
 20
9.7543
 30
0.0
 10
-54.9609
 20
9.7543
 30
0.0
 10
-54.9609
 20
9.7543
 30
0.0
 10
-51.9179
 20
9.7543
 30
0.0
 10
-51.9179
 20
9.7543
 30
0.0
  0
SPLINE
  5
50
330
1F
100
AcDbEntity
  8
VRSTVA_1
 62
   250
100
AcDbSpline
210
0.0
220
0.0
230
1.0
 70
    11
 71
     3
 72
    52
 73
    48
 74
     0
 42
0.0000000001
 43
0.0000000001
 40
0.0
 40
0.0
 40
0.0
 40
0.0
 40
0.0769230769230769
 40
0.0769230769230769
 40
0.0769230769230769
 40
0.0769230769230769
 40
0.1538461538461539
 40
0.1538461538461539
 40
0.1538461538461539
 40
0.1538461538461539
 40
0.2307692307692308
 40
0.2307692307692308
 40
0.2307692307692308
 40
0.2307692307692308
 40
0.3076923076923077
 40
0.3076923076923077
 40
0.3076923076923077
 40
0.3076923076923077
 40
0.3846153846153846
 40
0.3846153846153846
 40
0.3846153846153846
 40
0.3846153846153846
 40
0.4615384615384616
 40
0.4615384615384616
 40
0.4615384615384616
 40
0.4615384615384616
 40
0.5384615384615384
 40
0.5384615384615384
 40
0.5384615384615384
 40
0.5384615384615384
 40
0.6153846153846154
 40
0.6153846153846154
 40
0.6153846153846154
 40
0.6153846153846154
 40
0.6923076923076923
 40
0.6923076923076923
 40
0.6923076923076923
 40
0.6923076923076923
 40
0.7692307692307693
 40
0.7692307692307693
 40
0.7692307692307693
 40
0.7692307692307693
 40
0.8461538461538461
 40
0.8461538461538461
 40
0.8461538461538461
 40
0.8461538461538461
 40
1.0
 40
1.0
 40
1.0
 40
1.0
 10
-53.4123
 20
10.7075
 30
0.0
 10
-53.7707
 20
10.7075
 30
0.0
 10
-54.0592
 20
10.7442
 30
0.0
 10
-54.2773
 20
10.8183
 30
0.0
 10
-54.2773
 20
10.8183
 30
0.0
 10
-54.496
 20
10.8916
 30
0.0
 10
-54.6646
 20
11.0017
 30
0.0
 10
-54.7831
 20
11.147
 30
0.0
 10
-54.7831
 20
11.147
 30
0.0
 10
-54.9017
 20
11.2924
 30
0.0
 10
-54.9609
 20
11.4751
 30
0.0
 10
-54.9609
 20
11.6953
 30
0.0
 10
-54.9609
 20
11.6953
 30
0.0
 10
-54.9609
 20
11.8582
 30
0.0
 10
-54.9278
 20
12.0008
 30
0.0
 10
-54.8622
 20
12.1235
 30
0.0
 10
-54.8622
 20
12.1235
 30
0.0
 10
-54.7972
 20
12.2463
 30
0.0
 10
-54.7027
 20
12.3472
 30
0.0
 10
-54.5792
 20
12.4276
 30
0.0
 10
-54.5792
 20
12.4276
 30
0.0
 10
-54.4558
 20
12.5073
 30
0.0
 10
-54.3055
 20
12.5701
 30
0.0
 10
-54.1284
 20
12.6153
 30
0.0
 10
-54.1284
 20
12.6153
 30
0.0
 10
-53.9513
 20
12.6611
 30
0.0
 10
-53.7128
 20
12.6837
 30
0.0
 10
-53.4123
 20
12.6837
 30
0.0
 10
-53.4123
 20
12.6837
 30
0.0
 10
-53.0567
 20
12.6837
 30
0.0
 10
-52.7702
 20
12.647
 30
0.0
 10
-52.5515
 20
12.5744
 30
0.0
 10
-52.5515
 20
12.5744
 30
0.0
 10
-52.3328
 20
12.501
 30
0.0
 10
-52.1641
 20
12.3916
 30
0.0
 10
-52.0449
 20
12.2463
 30
0.0
 10
-52.0449
 20
12.2463
 30
0.0
 10
-51.9257
 20
12.1009
 30
0.0
 10
-51.8664
 20
11.9175
 30
0.0
 10
-51.8664
 20
11.6953
 30
0.0
 10
-51.8664
 20
11.6953
 30
0.0
 10
-51.8664
 20
11.4032
 30
0.0
 10
-51.9708
 20
11.1739
 30
0.0
 10
-52.1804
 20
11.0073
 30
0.0
 10
-52.1804
 20
11.0073
 30
0.0
 10
-52.4322
 20
10.8077
 30
0.0
 10
-52.8436
 20
10.7075
 30
0.0
 10
-53.4123
 20
10.7075
 30
0.0
  0
SPLINE
  5
51
330
1F
100
AcDbEntity
  8
VRSTVA_1
 62
   250
100
AcDbSpline
210
0.0
220
0.0
230
1.0
 70
    11
 71
     3
 72
    36
 73
    32
 74
     0
 42
0.0000000001
 43
0.0000000001
 40
0.0
 40
0.0
 40
0.0
 40
0.0
 40
0.1111111111111111
 40
0.1111111111111111
 40
0.1111111111111111
 40
0.1111111111111111
 40
0.2222222222222222
 40
0.2222222222222222
 40
0.2222222222222222
 40
0.2222222222222222
 40
0.3333333333333333
 40
0.3333333333333333
 40
0.3333333333333333
 40
0.3333333333333333
 40
0.4444444444444444
 40
0.4444444444444444
 40
0.4444444444444444
 40
0.4444444444444444
 40
0.5555555555555556
 40
0.5555555555555556
 40
0.5555555555555556
 40
0.5555555555555556
 40
0.6666666666666666
 40
0.6666666666666666
 40
0.6666666666666666
 40
0.6666666666666666
 40
0.7777777777777778
 40
0.7777777777777778
 40
0.7777777777777778
 40
0.7777777777777778
 40
1.0
 40
1.0
 40
1.0
 40
1.0
 10
-53.4123
 20
11.0899
 30
0.0
 10
-52.9148
 20
11.0899
 30
0.0
 10
-52.5839
 20
11.1485
 30
0.0
 10
-52.4188
 20
11.2649
 30
0.0
 10
-52.4188
 20
11.2649
 30
0.0
 10
-52.2544
 20
11.3813
 30
0.0
 10
-52.1719
 20
11.5245
 30
0.0
 10
-52.1719
 20
11.6953
 30
0.0
 10
-52.1719
 20
11.6953
 30
0.0
 10
-52.1719
 20
11.8667
 30
0.0
 10
-52.2552
 20
12.0099
 30
0.0
 10
-52.4203
 20
12.1263
 30
0.0
 10
-52.4203
 20
12.1263
 30
0.0
 10
-52.5854
 20
12.2428
 30
0.0
 10
-52.9163
 20
12.3013
 30
0.0
 10
-53.4123
 20
12.3013
 30
0.0
 10
-53.4123
 20
12.3013
 30
0.0
 10
-53.9111
 20
12.3013
 30
0.0
 10
-54.2427
 20
12.2428
 30
0.0
 10
-54.4064
 20
12.1263
 30
0.0
 10
-54.4064
 20
12.1263
 30
0.0
 10
-54.5708
 20
12.0099
 30
0.0
 10
-54.6526
 20
11.8653
 30
0.0
 10
-54.6526
 20
11.6917
 30
0.0
 10
-54.6526
 20
11.6917
 30
0.0
 10
-54.6526
 20
11.5203
 30
0.0
 10
-54.5799
 20
11.3841
 30
0.0
 10
-54.4353
 20
11.2818
 30
0.0
 10
-54.4353
 20
11.2818
 30
0.0
 10
-54.2512
 20
11.1541
 30
0.0
 10
-53.9097
 20
11.0899
 30
0.0
 10
-53.4123
 20
11.0899
 30
0.0
  0
SPLINE
  5
52
330
1F
100
AcDbEntity
  8
VRSTVA_1
 62
   250
100
AcDbSpline
210
0.0
220
0.0
230
1.0
 70
    11
 71
     3
 72
    52
 73
    48
 74
     0
 42
0.0000000001
 43
0.0000000001
 40
0.0
 40
0.0
 40
0.0
 40
0.0
 40
0.0769230769230769
 40
0.0769230769230769
 40
0.0769230769230769
 40
0.0769230769230769
 40
0.1538461538461539
 40
0.1538461538461539
 40
0.1538461538461539
 40
0.1538461538461539
 40
0.2307692307692308
 40
0.2307692307692308
 40
0.2307692307692308
 40
0.2307692307692308
 40
0.3076923076923077
 40
0.3076923076923077
 40
0.3076923076923077
 40
0.3076923076923077
 40
0.3846153846153846
 40
0.3846153846153846
 40
0.3846153846153846
 40
0.3846153846153846
 40
0.4615384615384616
 40
0.4615384615384616
 40
0.4615384615384616
 40
0.4615384615384616
 40
0.5384615384615384
 40
0.5384615384615384
 40
0.5384615384615384
 40
0.5384615384615384
 40
0.6153846153846154
 40
0.6153846153846154
 40
0.6153846153846154
 40
0.6153846153846154
 40
0.6923076923076923
 40
0.6923076923076923
 40
0.6923076923076923
 40
0.6923076923076923
 40
0.7692307692307693
 40
0.7692307692307693
 40
0.7692307692307693
 40
0.7692307692307693
 40
0.8461538461538461
 40
0.8461538461538461
 40
0.8461538461538461
 40
0.8461538461538461
 40
1.0
 40
1.0
 40
1.0
 40
1.0
 10
-53.4123
 20
13.0619
 30
0.0
 10
-53.7707
 20
13.0619
 30
0.0
 10
-54.0592
 20
13.0986
 30
0.0
 10
-54.2773
 20
13.1727
 30
0.0
 10
-54.2773
 20
13.1727
 30
0.0
 10
-54.496
 20
13.246
 30
0.0
 10
-54.6646
 20
13.3561
 30
0.0
 10
-54.7831
 20
13.5014
 30
0.0
 10
-54.7831
 20
13.5014
 30
0.0
 10
-54.9017
 20
13.6468
 30
0.0
 10
-54.9609
 20
13.8295
 30
0.0
 10
-54.9609
 20
14.0497
 30
0.0
 10
-54.9609
 20
14.0497
 30
0.0
 10
-54.9609
 20
14.2126
 30
0.0
 10
-54.9278
 20
14.3552
 30
0.0
 10
-54.8622
 20
14.4779
 30
0.0
 10
-54.8622
 20
14.4779
 30
0.0
 10
-54.7972
 20
14.6007
 30
0.0
 10
-54.7027
 20
14.7016
 30
0.0
 10
-54.5792
 20
14.782
 30
0.0
 10
-54.5792
 20
14.782
 30
0.0
 10
-54.4558
 20
14.8617
 30
0.0
 10
-54.3055
 20
14.9245
 30
0.0
 10
-54.1284
 20
14.9697
 30
0.0
 10
-54.1284
 20
14.9697
 30
0.0
 10
-53.9513
 20
15.0155
 30
0.0
 10
-53.7128
 20
15.0381
 30
0.0
 10
-53.4123
 20
15.0381
 30
0.0
 10
-53.4123
 20
15.0381
 30
0.0
 10
-53.0567
 20
15.0381
 30
0.0
 10
-52.7702
 20
15.0014
 30
0.0
 10
-52.5515
 20
14.9288
 30
0.0
 10
-52.5515
 20
14.9288
 30
0.0
 10
-52.3328
 20
14.8554
 30
0.0
 10
-52.1641
 20
14.746
 30
0.0
 10
-52.0449
 20
14.6007
 30
0.0
 10
-52.0449
 20
14.6007
 30
0.0
 10
-51.9257
 20
14.4553
 30
0.0
 10
-51.8664
 20
14.2719
 30
0.0
 10
-51.8664
 20
14.0497
 30
0.0
 10
-51.8664
 20
14.0497
 30
0.0
 10
-51.8664
 20
13.7576
 30
0.0
 10
-51.9708
 20
13.5283
 30
0.0
 10
-52.1804
 20
13.3617
 30
0.0
 10
-52.1804
 20
13.3617
 30
0.0
 10
-52.4322
 20
13.1621
 30
0.0
 10
-52.8436
 20
13.0619
 30
0.0
 10
-53.4123
 20
13.0619
 30
0.0
  0
SPLINE
  5
53
330
1F
100
AcDbEntity
  8
VRSTVA_1
 62
   250
100
AcDbSpline
210
0.0
220
0.0
230
1.0
 70
    11
 71
     3
 72
    36
 73
    32
 74
     0
 42
0.0000000001
 43
0.0000000001
 40
0.0
 40
0.0
 40
0.0
 40
0.0
 40
0.1111111111111111
 40
0.1111111111111111
 40
0.1111111111111111
 40
0.1111111111111111
 40
0.2222222222222222
 40
0.2222222222222222
 40
0.2222222222222222
 40
0.2222222222222222
 40
0.3333333333333333
 40
0.3333333333333333
 40
0.3333333333333333
 40
0.3333333333333333
 40
0.4444444444444444
 40
0.4444444444444444
 40
0.4444444444444444
 40
0.4444444444444444
 40
0.5555555555555556
 40
0.5555555555555556
 40
0.5555555555555556
 40
0.5555555555555556
 40
0.6666666666666666
 40
0.6666666666666666
 40
0.6666666666666666
 40
0.6666666666666666
 40
0.7777777777777778
 40
0.7777777777777778
 40
0.7777777777777778
 40
0.7777777777777778
 40
1.0
 40
1.0
 40
1.0
 40
1.0
 10
-53.4123
 20
13.4443
 30
0.0
 10
-52.9148
 20
13.4443
 30
0.0
 10
-52.5839
 20
13.5029
 30
0.0
 10
-52.4188
 20
13.6193
 30
0.0
 10
-52.4188
 20
13.6193
 30
0.0
 10
-52.2544
 20
13.7357
 30
0.0
 10
-52.1719
 20
13.8789
 30
0.0
 10
-52.1719
 20
14.0497
 30
0.0
 10
-52.1719
 20
14.0497
 30
0.0
 10
-52.1719
 20
14.2211
 30
0.0
 10
-52.2552
 20
14.3643
 30
0.0
 10
-52.4203
 20
14.4807
 30
0.0
 10
-52.4203
 20
14.4807
 30
0.0
 10
-52.5854
 20
14.5972
 30
0.0
 10
-52.9163
 20
14.6557
 30
0.0
 10
-53.4123
 20
14.6557
 30
0.0
 10
-53.4123
 20
14.6557
 30
0.0
 10
-53.9111
 20
14.6557
 30
0.0
 10
-54.2427
 20
14.5972
 30
0.0
 10
-54.4064
 20
14.4807
 30
0.0
 10
-54.4064
 20
14.4807
 30
0.0
 10
-54.5708
 20
14.3643
 30
0.0
 10
-54.6526
 20
14.2197
 30
0.0
 10
-54.6526
 20
14.0461
 30
0.0
 10
-54.6526
 20
14.0461
 30
0.0
 10
-54.6526
 20
13.8747
 30
0.0
 10
-54.5799
 20
13.7385
 30
0.0
 10
-54.4353
 20
13.6362
 30
0.0
 10
-54.4353
 20
13.6362
 30
0.0
 10
-54.2512
 20
13.5085
 30
0.0
 10
-53.9097
 20
13.4443
 30
0.0
 10
-53.4123
 20
13.4443
 30
0.0
  0
SPLINE
  5
54
330
1F
100
AcDbEntity
  8
VRSTVA_1
 62
   250
100
AcDbSpline
210
0.0
220
0.0
230
1.0
 70
    11
 71
     3
 72
    80
 73
    76
 74
     0
 42
0.0000000001
 43
0.0000000001
 40
0.0
 40
0.0
 40
0.0
 40
0.0
 40
0.05
 40
0.05
 40
0.05
 40
0.05
 40
0.1
 40
0.1
 40
0.1
 40
0.1
 40
0.15
 40
0.15
 40
0.15
 40
0.15
 40
0.2
 40
0.2
 40
0.2
 40
0.2
 40
0.25
 40
0.25
 40
0.25
 40
0.25
 40
0.3
 40
0.3
 40
0.3
 40
0.3
 40
0.35
 40
0.35
 40
0.35
 40
0.35
 40
0.4
 40
0.4
 40
0.4
 40
0.4
 40
0.45
 40
0.45
 40
0.45
 40
0.45
 40
0.5
 40
0.5
 40
0.5
 40
0.5
 40
0.55
 40
0.55
 40
0.55
 40
0.55
 40
0.6
 40
0.6
 40
0.6
 40
0.6
 40
0.65
 40
0.65
 40
0.65
 40
0.65
 40
0.7
 40
0.7
 40
0.7
 40
0.7
 40
0.75
 40
0.75
 40
0.75
 40
0.75
 40
0.8
 40
0.8
 40
0.8
 40
0.8
 40
0.85
 40
0.85
 40
0.85
 40
0.85
 40
0.9
 40
0.9
 40
0.9
 40
0.9
 40
1.0
 40
1.0
 40
1.0
 40
1.0
 10
-54.2186
 20
-21.486
 30
0.0
 10
-54.2186
 20
-21.486
 30
0.0
 10
-54.1897
 20
-21.8557
 30
0.0
 10
-54.1897
 20
-21.8557
 30
0.0
 10
-54.1897
 20
-21.8557
 30
0.0
 10
-54.3357
 20
-21.8889
 30
0.0
 10
-54.4423
 20
-21.9355
 30
0.0
 10
-54.5079
 20
-21.9961
 30
0.0
 10
-54.5079
 20
-21.9961
 30
0.0
 10
-54.6144
 20
-22.097
 30
0.0
 10
-54.6673
 20
-22.2212
 30
0.0
 10
-54.6673
 20
-22.3687
 30
0.0
 10
-54.6673
 20
-22.3687
 30
0.0
 10
-54.6673
 20
-22.4872
 30
0.0
 10
-54.6342
 20
-22.5909
 30
0.0
 10
-54.5678
 20
-22.6805
 30
0.0
 10
-54.5678
 20
-22.6805
 30
0.0
 10
-54.4825
 20
-22.7977
 30
0.0
 10
-54.3576
 20
-22.8901
 30
0.0
 10
-54.1939
 20
-22.9578
 30
0.0
 10
-54.1939
 20
-22.9578
 30
0.0
 10
-54.0302
 20
-23.0248
 30
0.0
 10
-53.7967
 20
-23.0601
 30
0.0
 10
-53.4933
 20
-23.0629
 30
0.0
 10
-53.4933
 20
-23.0629
 30
0.0
 10
-53.6295
 20
-22.9733
 30
0.0
 10
-53.7311
 20
-22.864
 30
0.0
 10
-53.7974
 20
-22.7342
 30
0.0
 10
-53.7974
 20
-22.7342
 30
0.0
 10
-53.863
 20
-22.605
 30
0.0
 10
-53.8962
 20
-22.4689
 30
0.0
 10
-53.8962
 20
-22.327
 30
0.0
 10
-53.8962
 20
-22.327
 30
0.0
 10
-53.8962
 20
-22.0787
 30
0.0
 10
-53.8051
 20
-21.8677
 30
0.0
 10
-53.6224
 20
-21.6935
 30
0.0
 10
-53.6224
 20
-21.6935
 30
0.0
 10
-53.4397
 20
-21.5192
 30
0.0
 10
-53.204
 20
-21.4317
 30
0.0
 10
-52.9147
 20
-21.4317
 30
0.0
 10
-52.9147
 20
-21.4317
 30
0.0
 10
-52.7242
 20
-21.4317
 30
0.0
 10
-52.5479
 20
-21.4733
 30
0.0
 10
-52.3842
 20
-21.5552
 30
0.0
 10
-52.3842
 20
-21.5552
 30
0.0
 10
-52.2212
 20
-21.637
 30
0.0
 10
-52.0956
 20
-21.7499
 30
0.0
 10
-52.0088
 20
-21.8931
 30
0.0
 10
-52.0088
 20
-21.8931
 30
0.0
 10
-51.922
 20
-22.0364
 30
0.0
 10
-51.879
 20
-22.1986
 30
0.0
 10
-51.879
 20
-22.3807
 30
0.0
 10
-51.879
 20
-22.3807
 30
0.0
 10
-51.879
 20
-22.6911
 30
0.0
 10
-51.9926
 20
-22.9437
 30
0.0
 10
-52.2212
 20
-23.1391
 30
0.0
 10
-52.2212
 20
-23.1391
 30
0.0
 10
-52.4491
 20
-23.3353
 30
0.0
 10
-52.8251
 20
-23.4326
 30
0.0
 10
-53.3487
 20
-23.4326
 30
0.0
 10
-53.3487
 20
-23.4326
 30
0.0
 10
-53.9343
 20
-23.4326
 30
0.0
 10
-54.3597
 20
-23.3247
 30
0.0
 10
-54.6257
 20
-23.1081
 30
0.0
 10
-54.6257
 20
-23.1081
 30
0.0
 10
-54.8571
 20
-22.9197
 30
0.0
 10
-54.9735
 20
-22.6657
 30
0.0
 10
-54.9735
 20
-22.3454
 30
0.0
 10
-54.9735
 20
-22.3454
 30
0.0
 10
-54.9735
 20
-22.1076
 30
0.0
 10
-54.9065
 20
-21.9122
 30
0.0
 10
-54.7725
 20
-21.7598
 30
0.0
 10
-54.7725
 20
-21.7598
 30
0.0
 10
-54.6391
 20
-21.6074
 30
0.0
 10
-54.4543
 20
-21.5164
 30
0.0
 10
-54.2186
 20
-21.486
 30
0.0
  0
SPLINE
  5
55
330
1F
100
AcDbEntity
  8
VRSTVA_1
 62
   250
100
AcDbSpline
210
0.0
220
0.0
230
1.0
 70
    11
 71
     3
 72
    40
 73
    36
 74
     0
 42
0.0000000001
 43
0.0000000001
 40
0.0
 40
0.0
 40
0.0
 40
0.0
 40
0.1
 40
0.1
 40
0.1
 40
0.1
 40
0.2
 40
0.2
 40
0.2
 40
0.2
 40
0.3
 40
0.3
 40
0.3
 40
0.3
 40
0.4
 40
0.4
 40
0.4
 40
0.4
 40
0.5
 40
0.5
 40
0.5
 40
0.5
 40
0.6
 40
0.6
 40
0.6
 40
0.6
 40
0.7
 40
0.7
 40
0.7
 40
0.7
 40
0.8
 40
0.8
 40
0.8
 40
0.8
 40
1.0
 40
1.0
 40
1.0
 40
1.0
 10
-52.9126
 20
-23.0051
 30
0.0
 10
-52.7842
 20
-23.0051
 30
0.0
 10
-52.6614
 20
-22.9776
 30
0.0
 10
-52.5443
 20
-22.9232
 30
0.0
 10
-52.5443
 20
-22.9232
 30
0.0
 10
-52.4272
 20
-22.8689
 30
0.0
 10
-52.3383
 20
-22.7927
 30
0.0
 10
-52.2769
 20
-22.6953
 30
0.0
 10
-52.2769
 20
-22.6953
 30
0.0
 10
-52.2155
 20
-22.5973
 30
0.0
 10
-52.1845
 20
-22.4943
 30
0.0
 10
-52.1845
 20
-22.387
 30
0.0
 10
-52.1845
 20
-22.387
 30
0.0
 10
-52.1845
 20
-22.2297
 30
0.0
 10
-52.248
 20
-22.0949
 30
0.0
 10
-52.375
 20
-21.982
 30
0.0
 10
-52.375
 20
-21.982
 30
0.0
 10
-52.502
 20
-21.8691
 30
0.0
 10
-52.6741
 20
-21.8127
 30
0.0
 10
-52.8915
 20
-21.8127
 30
0.0
 10
-52.8915
 20
-21.8127
 30
0.0
 10
-53.101
 20
-21.8127
 30
0.0
 10
-53.2661
 20
-21.8684
 30
0.0
 10
-53.3868
 20
-21.9799
 30
0.0
 10
-53.3868
 20
-21.9799
 30
0.0
 10
-53.5074
 20
-22.0914
 30
0.0
 10
-53.5674
 20
-22.2318
 30
0.0
 10
-53.5674
 20
-22.4011
 30
0.0
 10
-53.5674
 20
-22.4011
 30
0.0
 10
-53.5674
 20
-22.5698
 30
0.0
 10
-53.5074
 20
-22.7123
 30
0.0
 10
-53.3868
 20
-22.8294
 30
0.0
 10
-53.3868
 20
-22.8294
 30
0.0
 10
-53.2661
 20
-22.9465
 30
0.0
 10
-53.1081
 20
-23.0051
 30
0.0
 10
-52.9126
 20
-23.0051
 30
0.0
  0
SPLINE
  5
56
330
1F
100
AcDbEntity
  8
VRSTVA_1
 62
   250
100
AcDbSpline
210
0.0
220
0.0
230
1.0
 70
    11
 71
     3
 72
    68
 73
    64
 74
     0
 42
0.0000000001
 43
0.0000000001
 40
0.0
 40
0.0
 40
0.0
 40
0.0
 40
0.0588235294117647
 40
0.0588235294117647
 40
0.0588235294117647
 40
0.0588235294117647
 40
0.1176470588235294
 40
0.1176470588235294
 40
0.1176470588235294
 40
0.1176470588235294
 40
0.1764705882352941
 40
0.1764705882352941
 40
0.1764705882352941
 40
0.1764705882352941
 40
0.2352941176470588
 40
0.2352941176470588
 40
0.2352941176470588
 40
0.2352941176470588
 40
0.2941176470588235
 40
0.2941176470588235
 40
0.2941176470588235
 40
0.2941176470588235
 40
0.3529411764705883
 40
0.3529411764705883
 40
0.3529411764705883
 40
0.3529411764705883
 40
0.4117647058823529
 40
0.4117647058823529
 40
0.4117647058823529
 40
0.4117647058823529
 40
0.4705882352941176
 40
0.4705882352941176
 40
0.4705882352941176
 40
0.4705882352941176
 40
0.5294117647058824
 40
0.5294117647058824
 40
0.5294117647058824
 40
0.5294117647058824
 40
0.5882352941176471
 40
0.5882352941176471
 40
0.5882352941176471
 40
0.5882352941176471
 40
0.6470588235294118
 40
0.6470588235294118
 40
0.6470588235294118
 40
0.6470588235294118
 40
0.7058823529411765
 40
0.7058823529411765
 40
0.7058823529411765
 40
0.7058823529411765
 40
0.7647058823529411
 40
0.7647058823529411
 40
0.7647058823529411
 40
0.7647058823529411
 40
0.8235294117647058
 40
0.8235294117647058
 40
0.8235294117647058
 40
0.8235294117647058
 40
0.8823529411764706
 40
0.8823529411764706
 40
0.8823529411764706
 40
0.8823529411764706
 40
1.0
 40
1.0
 40
1.0
 40
1.0
 10
-53.5737
 20
-20.4891
 30
0.0
 10
-53.6302
 20
-20.6436
 30
0.0
 10
-53.7106
 20
-20.7579
 30
0.0
 10
-53.8157
 20
-20.8327
 30
0.0
 10
-53.8157
 20
-20.8327
 30
0.0
 10
-53.9202
 20
-20.9068
 30
0.0
 10
-54.0457
 20
-20.9442
 30
0.0
 10
-54.1918
 20
-20.9442
 30
0.0
 10
-54.1918
 20
-20.9442
 30
0.0
 10
-54.4126
 20
-20.9442
 30
0.0
 10
-54.5975
 20
-20.8652
 30
0.0
 10
-54.7478
 20
-20.7064
 30
0.0
 10
-54.7478
 20
-20.7064
 30
0.0
 10
-54.898
 20
-20.5477
 30
0.0
 10
-54.9735
 20
-20.3374
 30
0.0
 10
-54.9735
 20
-20.0742
 30
0.0
 10
-54.9735
 20
-20.0742
 30
0.0
 10
-54.9735
 20
-19.8097
 30
0.0
 10
-54.8966
 20
-19.5966
 30
0.0
 10
-54.7428
 20
-19.435
 30
0.0
 10
-54.7428
 20
-19.435
 30
0.0
 10
-54.589
 20
-19.2742
 30
0.0
 10
-54.402
 20
-19.1937
 30
0.0
 10
-54.1812
 20
-19.1937
 30
0.0
 10
-54.1812
 20
-19.1937
 30
0.0
 10
-54.0408
 20
-19.1937
 30
0.0
 10
-53.9187
 20
-19.2304
 30
0.0
 10
-53.8143
 20
-19.3038
 30
0.0
 10
-53.8143
 20
-19.3038
 30
0.0
 10
-53.7106
 20
-19.3779
 30
0.0
 10
-53.6302
 20
-19.4893
 30
0.0
 10
-53.5737
 20
-19.6396
 30
0.0
 10
-53.5737
 20
-19.6396
 30
0.0
 10
-53.513
 20
-19.4541
 30
0.0
 10
-53.4157
 20
-19.3123
 30
0.0
 10
-53.2802
 20
-19.2149
 30
0.0
 10
-53.2802
 20
-19.2149
 30
0.0
 10
-53.1455
 20
-19.1182
 30
0.0
 10
-52.9839
 20
-19.0695
 30
0.0
 10
-52.7969
 20
-19.0695
 30
0.0
 10
-52.7969
 20
-19.0695
 30
0.0
 10
-52.5373
 20
-19.0695
 30
0.0
 10
-52.32
 20
-19.1613
 30
0.0
 10
-52.1436
 20
-19.344
 30
0.0
 10
-52.1436
 20
-19.344
 30
0.0
 10
-51.9672
 20
-19.5274
 30
0.0
 10
-51.879
 20
-19.7687
 30
0.0
 10
-51.879
 20
-20.0679
 30
0.0
 10
-51.879
 20
-20.0679
 30
0.0
 10
-51.879
 20
-20.3671
 30
0.0
 10
-51.9672
 20
-20.6076
 30
0.0
 10
-52.1443
 20
-20.7911
 30
0.0
 10
-52.1443
 20
-20.7911
 30
0.0
 10
-52.3214
 20
-20.9745
 30
0.0
 10
-52.5422
 20
-21.0663
 30
0.0
 10
-52.8068
 20
-21.0663
 30
0.0
 10
-52.8068
 20
-21.0663
 30
0.0
 10
-53.0036
 20
-21.0663
 30
0.0
 10
-53.1687
 20
-21.0162
 30
0.0
 10
-53.3021
 20
-20.916
 30
0.0
 10
-53.3021
 20
-20.916
 30
0.0
 10
-53.4347
 20
-20.8165
 30
0.0
 10
-53.5257
 20
-20.674
 30
0.0
 10
-53.5737
 20
-20.4891
 30
0.0
  0
SPLINE
  5
57
330
1F
100
AcDbEntity
  8
VRSTVA_1
 62
   250
100
AcDbSpline
210
0.0
220
0.0
230
1.0
 70
    11
 71
     3
 72
    36
 73
    32
 74
     0
 42
0.0000000001
 43
0.0000000001
 40
0.0
 40
0.0
 40
0.0
 40
0.0
 40
0.1111111111111111
 40
0.1111111111111111
 40
0.1111111111111111
 40
0.1111111111111111
 40
0.2222222222222222
 40
0.2222222222222222
 40
0.2222222222222222
 40
0.2222222222222222
 40
0.3333333333333333
 40
0.3333333333333333
 40
0.3333333333333333
 40
0.3333333333333333
 40
0.4444444444444444
 40
0.4444444444444444
 40
0.4444444444444444
 40
0.4444444444444444
 40
0.5555555555555556
 40
0.5555555555555556
 40
0.5555555555555556
 40
0.5555555555555556
 40
0.6666666666666666
 40
0.6666666666666666
 40
0.6666666666666666
 40
0.6666666666666666
 40
0.7777777777777778
 40
0.7777777777777778
 40
0.7777777777777778
 40
0.7777777777777778
 40
1.0
 40
1.0
 40
1.0
 40
1.0
 10
-54.2045
 20
-20.5639
 30
0.0
 10
-54.0613
 20
-20.5639
 30
0.0
 10
-53.9441
 20
-20.5173
 30
0.0
 10
-53.8531
 20
-20.4256
 30
0.0
 10
-53.8531
 20
-20.4256
 30
0.0
 10
-53.7621
 20
-20.3332
 30
0.0
 10
-53.7162
 20
-20.2132
 30
0.0
 10
-53.7162
 20
-20.0658
 30
0.0
 10
-53.7162
 20
-20.0658
 30
0.0
 10
-53.7162
 20
-19.9226
 30
0.0
 10
-53.7614
 20
-19.8047
 30
0.0
 10
-53.8517
 20
-19.713
 30
0.0
 10
-53.8517
 20
-19.713
 30
0.0
 10
-53.942
 20
-19.6213
 30
0.0
 10
-54.0528
 20
-19.5761
 30
0.0
 10
-54.1833
 20
-19.5761
 30
0.0
 10
-54.1833
 20
-19.5761
 30
0.0
 10
-54.3202
 20
-19.5761
 30
0.0
 10
-54.4345
 20
-19.6227
 30
0.0
 10
-54.5276
 20
-19.7172
 30
0.0
 10
-54.5276
 20
-19.7172
 30
0.0
 10
-54.6208
 20
-19.8118
 30
0.0
 10
-54.6673
 20
-19.9289
 30
0.0
 10
-54.6673
 20
-20.07
 30
0.0
 10
-54.6673
 20
-20.07
 30
0.0
 10
-54.6673
 20
-20.2118
 30
0.0
 10
-54.6215
 20
-20.3297
 30
0.0
 10
-54.5312
 20
-20.4235
 30
0.0
 10
-54.5312
 20
-20.4235
 30
0.0
 10
-54.4401
 20
-20.5173
 30
0.0
 10
-54.3308
 20
-20.5639
 30
0.0
 10
-54.2045
 20
-20.5639
 30
0.0
  0
SPLINE
  5
58
330
1F
100
AcDbEntity
  8
VRSTVA_1
 62
   250
100
AcDbSpline
210
0.0
220
0.0
230
1.0
 70
    11
 71
     3
 72
    40
 73
    36
 74
     0
 42
0.0000000001
 43
0.0000000001
 40
0.0
 40
0.0
 40
0.0
 40
0.0
 40
0.1
 40
0.1
 40
0.1
 40
0.1
 40
0.2
 40
0.2
 40
0.2
 40
0.2
 40
0.3
 40
0.3
 40
0.3
 40
0.3
 40
0.4
 40
0.4
 40
0.4
 40
0.4
 40
0.5
 40
0.5
 40
0.5
 40
0.5
 40
0.6
 40
0.6
 40
0.6
 40
0.6
 40
0.7
 40
0.7
 40
0.7
 40
0.7
 40
0.8
 40
0.8
 40
0.8
 40
0.8
 40
1.0
 40
1.0
 40
1.0
 40
1.0
 10
-52.8047
 20
-20.6838
 30
0.0
 10
-52.6988
 20
-20.6838
 30
0.0
 10
-52.5958
 20
-20.6584
 30
0.0
 10
-52.4971
 20
-20.6083
 30
0.0
 10
-52.4971
 20
-20.6083
 30
0.0
 10
-52.3976
 20
-20.5583
 30
0.0
 10
-52.3207
 20
-20.4835
 30
0.0
 10
-52.2663
 20
-20.384
 30
0.0
 10
-52.2663
 20
-20.384
 30
0.0
 10
-52.212
 20
-20.2845
 30
0.0
 10
-52.1845
 20
-20.178
 30
0.0
 10
-52.1845
 20
-20.0637
 30
0.0
 10
-52.1845
 20
-20.0637
 30
0.0
 10
-52.1845
 20
-19.8859
 30
0.0
 10
-52.2416
 20
-19.7391
 30
0.0
 10
-52.3567
 20
-19.6234
 30
0.0
 10
-52.3567
 20
-19.6234
 30
0.0
 10
-52.471
 20
-19.5077
 30
0.0
 10
-52.6163
 20
-19.4498
 30
0.0
 10
-52.7927
 20
-19.4498
 30
0.0
 10
-52.7927
 20
-19.4498
 30
0.0
 10
-52.9719
 20
-19.4498
 30
0.0
 10
-53.1201
 20
-19.5091
 30
0.0
 10
-53.2372
 20
-19.6283
 30
0.0
 10
-53.2372
 20
-19.6283
 30
0.0
 10
-53.3543
 20
-19.7476
 30
0.0
 10
-53.4129
 20
-19.8972
 30
0.0
 10
-53.4129
 20
-20.0764
 30
0.0
 10
-53.4129
 20
-20.0764
 30
0.0
 10
-53.4129
 20
-20.2513
 30
0.0
 10
-53.355
 20
-20.396
 30
0.0
 10
-53.2393
 20
-20.511
 30
0.0
 10
-53.2393
 20
-20.511
 30
0.0
 10
-53.1229
 20
-20.626
 30
0.0
 10
-52.9782
 20
-20.6838
 30
0.0
 10
-52.8047
 20
-20.6838
 30
0.0
  0
SPLINE
  5
59
330
1F
100
AcDbEntity
  8
VRSTVA_1
 62
   250
100
AcDbSpline
210
0.0
220
0.0
230
1.0
 70
    11
 71
     3
 72
    20
 73
    16
 74
     0
 42
0.0000000001
 43
0.0000000001
 40
0.0
 40
0.0
 40
0.0
 40
0.0
 40
0.2
 40
0.2
 40
0.2
 40
0.2
 40
0.4
 40
0.4
 40
0.4
 40
0.4
 40
0.6
 40
0.6
 40
0.6
 40
0.6
 40
1.0
 40
1.0
 40
1.0
 40
1.0
 10
-50.7155
 20
-6.2515
 30
0.0
 10
-50.7155
 20
-6.2515
 30
0.0
 10
-51.2171
 20
-9.8054
 30
0.0
 10
-51.2171
 20
-9.8054
 30
0.0
 10
-51.2171
 20
-9.8054
 30
0.0
 10
-51.2171
 20
-9.8054
 30
0.0
 10
-51.3285
 20
-9.8054
 30
0.0
 10
-51.3285
 20
-9.8054
 30
0.0
 10
-51.3285
 20
-9.8054
 30
0.0
 10
-51.3285
 20
-9.8054
 30
0.0
 10
-51.8634
 20
-6.2515
 30
0.0
 10
-51.8634
 20
-6.2515
 30
0.0
 10
-51.8634
 20
-6.2515
 30
0.0
 10
-51.8634
 20
-6.2515
 30
0.0
 10
-50.7155
 20
-6.2515
 30
0.0
 10
-50.7155
 20
-6.2515
 30
0.0
  0
SPLINE
  5
5A
330
1F
100
AcDbEntity
  8
VRSTVA_1
 62
   250
100
AcDbSpline
210
0.0
220
0.0
230
1.0
 70
    11
 71
     3
 72
    20
 73
    16
 74
     0
 42
0.0000000001
 43
0.0000000001
 40
0.0
 40
0.0
 40
0.0
 40
0.0
 40
0.2
 40
0.2
 40
0.2
 40
0.2
 40
0.4
 40
0.4
 40
0.4
 40
0.4
 40
0.6
 40
0.6
 40
0.6
 40
0.6
 40
1.0
 40
1.0
 40
1.0
 40
1.0
 10
-50.6901
 20
-29.1849
 30
0.0
 10
-50.6901
 20
-29.1849
 30
0.0
 10
-51.1916
 20
-32.7387
 30
0.0
 10
-51.1916
 20
-32.7387
 30
0.0
 10
-51.1916
 20
-32.7387
 30
0.0
 10
-51.1916
 20
-32.7387
 30
0.0
 10
-51.303
 20
-32.7387
 30
0.0
 10
-51.303
 20
-32.7387
 30
0.0
 10
-51.303
 20
-32.7387
 30
0.0
 10
-51.303
 20
-32.7387
 30
0.0
 10
-51.8379
 20
-29.1849
 30
0.0
 10
-51.8379
 20
-29.1849
 30
0.0
 10
-51.8379
 20
-29.1849
 30
0.0
 10
-51.8379
 20
-29.1849
 30
0.0
 10
-50.6901
 20
-29.1849
 30
0.0
 10
-50.6901
 20
-29.1849
 30
0.0
  0
SPLINE
  5
5B
330
1F
100
AcDbEntity
  8
VRSTVA_1
 62
   250
100
AcDbSpline
210
0.0
220
0.0
230
1.0
 70
    11
 71
     3
 72
    20
 73
    16
 74
     0
 42
0.0000000001
 43
0.0000000001
 40
0.0
 40
0.0
 40
0.0
 40
0.0
 40
0.2
 40
0.2
 40
0.2
 40
0.2
 40
0.4
 40
0.4
 40
0.4
 40
0.4
 40
0.6
 40
0.6
 40
0.6
 40
0.6
 40
1.0
 40
1.0
 40
1.0
 40
1.0
 10
-51.8259
 20
-13.517
 30
0.0
 10
-51.8259
 20
-13.517
 30
0.0
 10
-51.3244
 20
-9.9632
 30
0.0
 10
-51.3244
 20
-9.9632
 30
0.0
 10
-51.3244
 20
-9.9632
 30
0.0
 10
-51.3244
 20
-9.9632
 30
0.0
 10
-51.213
 20
-9.9632
 30
0.0
 10
-51.213
 20
-9.9632
 30
0.0
 10
-51.213
 20
-9.9632
 30
0.0
 10
-51.213
 20
-9.9632
 30
0.0
 10
-50.6781
 20
-13.517
 30
0.0
 10
-50.6781
 20
-13.517
 30
0.0
 10
-50.6781
 20
-13.517
 30
0.0
 10
-50.6781
 20
-13.517
 30
0.0
 10
-51.8259
 20
-13.517
 30
0.0
 10
-51.8259
 20
-13.517
 30
0.0
  0
SPLINE
  5
5C
330
1F
100
AcDbEntity
  8
VRSTVA_1
 62
   250
100
AcDbSpline
210
0.0
220
0.0
230
1.0
 70
    11
 71
     3
 72
   116
 73
   112
 74
     0
 42
0.0000000001
 43
0.0000000001
 40
0.0
 40
0.0
 40
0.0
 40
0.0
 40
0.0344827586206897
 40
0.0344827586206897
 40
0.0344827586206897
 40
0.0344827586206897
 40
0.0689655172413793
 40
0.0689655172413793
 40
0.0689655172413793
 40
0.0689655172413793
 40
0.103448275862069
 40
0.103448275862069
 40
0.103448275862069
 40
0.103448275862069
 40
0.1379310344827586
 40
0.1379310344827586
 40
0.1379310344827586
 40
0.1379310344827586
 40
0.1724137931034483
 40
0.1724137931034483
 40
0.1724137931034483
 40
0.1724137931034483
 40
0.2068965517241379
 40
0.2068965517241379
 40
0.2068965517241379
 40
0.2068965517241379
 40
0.2413793103448276
 40
0.2413793103448276
 40
0.2413793103448276
 40
0.2413793103448276
 40
0.2758620689655172
 40
0.2758620689655172
 40
0.2758620689655172
 40
0.2758620689655172
 40
0.3103448275862069
 40
0.3103448275862069
 40
0.3103448275862069
 40
0.3103448275862069
 40
0.3448275862068966
 40
0.3448275862068966
 40
0.3448275862068966
 40
0.3448275862068966
 40
0.3793103448275862
 40
0.3793103448275862
 40
0.3793103448275862
 40
0.3793103448275862
 40
0.4137931034482759
 40
0.4137931034482759
 40
0.4137931034482759
 40
0.4137931034482759
 40
0.4482758620689655
 40
0.4482758620689655
 40
0.4482758620689655
 40
0.4482758620689655
 40
0.4827586206896552
 40
0.4827586206896552
 40
0.4827586206896552
 40
0.4827586206896552
 40
0.5172413793103449
 40
0.5172413793103449
 40
0.5172413793103449
 40
0.5172413793103449
 40
0.5517241379310345
 40
0.5517241379310345
 40
0.5517241379310345
 40
0.5517241379310345
 40
0.5862068965517241
 40
0.5862068965517241
 40
0.5862068965517241
 40
0.5862068965517241
 40
0.6206896551724138
 40
0.6206896551724138
 40
0.6206896551724138
 40
0.6206896551724138
 40
0.6551724137931034
 40
0.6551724137931034
 40
0.6551724137931034
 40
0.6551724137931034
 40
0.6896551724137931
 40
0.6896551724137931
 40
0.6896551724137931
 40
0.6896551724137931
 40
0.7241379310344828
 40
0.7241379310344828
 40
0.7241379310344828
 40
0.7241379310344828
 40
0.7586206896551724
 40
0.7586206896551724
 40
0.7586206896551724
 40
0.7586206896551724
 40
0.7931034482758621
 40
0.7931034482758621
 40
0.7931034482758621
 40
0.7931034482758621
 40
0.8275862068965517
 40
0.8275862068965517
 40
0.8275862068965517
 40
0.8275862068965517
 40
0.8620689655172413
 40
0.8620689655172413
 40
0.8620689655172413
 40
0.8620689655172413
 40
0.896551724137931
 40
0.896551724137931
 40
0.896551724137931
 40
0.896551724137931
 40
0.9310344827586207
 40
0.9310344827586207
 40
0.9310344827586207
 40
0.9310344827586207
 40
1.0
 40
1.0
 40
1.0
 40
1.0
 10
-1.2623
 20
9.0102
 30
0.0
 10
-1.2623
 20
9.0102
 30
0.0
 10
-1.2623
 20
11.2052
 30
0.0
 10
-1.2623
 20
11.2052
 30
0.0
 10
-1.2623
 20
11.2052
 30
0.0
 10
-1.2623
 20
11.2052
 30
0.0
 10
-0.93
 20
11.2052
 30
0.0
 10
-0.93
 20
11.2052
 30
0.0
 10
-0.93
 20
11.2052
 30
0.0
 10
-0.93
 20
11.2052
 30
0.0
 10
-0.93
 20
10.8975
 30
0.0
 10
-0.93
 20
10.8975
 30
0.0
 10
-0.93
 20
10.8975
 30
0.0
 10
-0.8608
 20
11.0048
 30
0.0
 10
-0.7691
 20
11.0916
 30
0.0
 10
-0.6548
 20
11.1565
 30
0.0
 10
-0.6548
 20
11.1565
 30
0.0
 10
-0.5405
 20
11.2221
 30
0.0
 10
-0.41
 20
11.2553
 30
0.0
 10
-0.2639
 20
11.2553
 30
0.0
 10
-0.2639
 20
11.2553
 30
0.0
 10
-0.1017
 20
11.2553
 30
0.0
 10
0.0317
 20
11.2214
 30
0.0
 10
0.1354
 20
11.1537
 30
0.0
 10
0.1354
 20
11.1537
 30
0.0
 10
0.2398
 20
11.0859
 30
0.0
 10
0.3132
 20
10.9921
 30
0.0
 10
0.3555
 20
10.8707
 30
0.0
 10
0.3555
 20
10.8707
 30
0.0
 10
0.5298
 20
11.1269
 30
0.0
 10
0.7556
 20
11.2553
 30
0.0
 10
1.0336
 20
11.2553
 30
0.0
 10
1.0336
 20
11.2553
 30
0.0
 10
1.2516
 20
11.2553
 30
0.0
 10
1.4188
 20
11.1946
 30
0.0
 10
1.5359
 20
11.0739
 30
0.0
 10
1.5359
 20
11.0739
 30
0.0
 10
1.653
 20
10.9533
 30
0.0
 10
1.7116
 20
10.7677
 30
0.0
 10
1.7116
 20
10.5173
 30
0.0
 10
1.7116
 20
10.5173
 30
0.0
 10
1.7116
 20
10.5173
 30
0.0
 10
1.7116
 20
9.0102
 30
0.0
 10
1.7116
 20
9.0102
 30
0.0
 10
1.7116
 20
9.0102
 30
0.0
 10
1.7116
 20
9.0102
 30
0.0
 10
1.3419
 20
9.0102
 30
0.0
 10
1.3419
 20
9.0102
 30
0.0
 10
1.3419
 20
9.0102
 30
0.0
 10
1.3419
 20
9.0102
 30
0.0
 10
1.3419
 20
10.3931
 30
0.0
 10
1.3419
 20
10.3931
 30
0.0
 10
1.3419
 20
10.3931
 30
0.0
 10
1.3419
 20
10.5419
 30
0.0
 10
1.3299
 20
10.6492
 30
0.0
 10
1.3059
 20
10.7148
 30
0.0
 10
1.3059
 20
10.7148
 30
0.0
 10
1.2812
 20
10.7797
 30
0.0
 10
1.2375
 20
10.8326
 30
0.0
 10
1.1747
 20
10.8729
 30
0.0
 10
1.1747
 20
10.8729
 30
0.0
 10
1.1112
 20
10.9124
 30
0.0
 10
1.0364
 20
10.9328
 30
0.0
 10
0.951
 20
10.9328
 30
0.0
 10
0.951
 20
10.9328
 30
0.0
 10
0.7965
 20
10.9328
 30
0.0
 10
0.6688
 20
10.8813
 30
0.0
 10
0.5665
 20
10.7783
 30
0.0
 10
0.5665
 20
10.7783
 30
0.0
 10
0.4649
 20
10.676
 30
0.0
 10
0.4134
 20
10.5116
 30
0.0
 10
0.4134
 20
10.2858
 30
0.0
 10
0.4134
 20
10.2858
 30
0.0
 10
0.4134
 20
10.2858
 30
0.0
 10
0.4134
 20
9.0102
 30
0.0
 10
0.4134
 20
9.0102
 30
0.0
 10
0.4134
 20
9.0102
 30
0.0
 10
0.4134
 20
9.0102
 30
0.0
 10
0.0416
 20
9.0102
 30
0.0
 10
0.0416
 20
9.0102
 30
0.0
 10
0.0416
 20
9.0102
 30
0.0
 10
0.0416
 20
9.0102
 30
0.0
 10
0.0416
 20
10.4361
 30
0.0
 10
0.0416
 20
10.4361
 30
0.0
 10
0.0416
 20
10.4361
 30
0.0
 10
0.0416
 20
10.6019
 30
0.0
 10
0.0112
 20
10.7261
 30
0.0
 10
-0.0495
 20
10.8086
 30
0.0
 10
-0.0495
 20
10.8086
 30
0.0
 10
-0.1101
 20
10.8912
 30
0.0
 10
-0.2089
 20
10.9328
 30
0.0
 10
-0.3472
 20
10.9328
 30
0.0
 10
-0.3472
 20
10.9328
 30
0.0
 10
-0.4516
 20
10.9328
 30
0.0
 10
-0.5483
 20
10.9053
 30
0.0
 10
-0.6372
 20
10.8496
 30
0.0
 10
-0.6372
 20
10.8496
 30
0.0
 10
-0.7261
 20
10.7945
 30
0.0
 10
-0.791
 20
10.7141
 30
0.0
 10
-0.8305
 20
10.6083
 30
0.0
 10
-0.8305
 20
10.6083
 30
0.0
 10
-0.8707
 20
10.5017
 30
0.0
 10
-0.8905
 20
10.3486
 30
0.0
 10
-0.8905
 20
10.149
 30
0.0
 10
-0.8905
 20
10.149
 30
0.0
 10
-0.8905
 20
10.149
 30
0.0
 10
-0.8905
 20
9.0102
 30
0.0
 10
-0.8905
 20
9.0102
 30
0.0
 10
-0.8905
 20
9.0102
 30
0.0
 10
-0.8905
 20
9.0102
 30
0.0
 10
-1.2623
 20
9.0102
 30
0.0
 10
-1.2623
 20
9.0102
 30
0.0
  0
SPLINE
  5
5D
330
1F
100
AcDbEntity
  8
VRSTVA_1
 62
   250
100
AcDbSpline
210
0.0
220
0.0
230
1.0
 70
    11
 71
     3
 72
   112
 73
   108
 74
     0
 42
0.0000000001
 43
0.0000000001
 40
0.0
 40
0.0
 40
0.0
 40
0.0
 40
0.0357142857142857
 40
0.0357142857142857
 40
0.0357142857142857
 40
0.0357142857142857
 40
0.0714285714285714
 40
0.0714285714285714
 40
0.0714285714285714
 40
0.0714285714285714
 40
0.1071428571428571
 40
0.1071428571428571
 40
0.1071428571428571
 40
0.1071428571428571
 40
0.1428571428571428
 40
0.1428571428571428
 40
0.1428571428571428
 40
0.1428571428571428
 40
0.1785714285714286
 40
0.1785714285714286
 40
0.1785714285714286
 40
0.1785714285714286
 40
0.2142857142857143
 40
0.2142857142857143
 40
0.2142857142857143
 40
0.2142857142857143
 40
0.25
 40
0.25
 40
0.25
 40
0.25
 40
0.2857142857142857
 40
0.2857142857142857
 40
0.2857142857142857
 40
0.2857142857142857
 40
0.3214285714285715
 40
0.3214285714285715
 40
0.3214285714285715
 40
0.3214285714285715
 40
0.3571428571428572
 40
0.3571428571428572
 40
0.3571428571428572
 40
0.3571428571428572
 40
0.3928571428571428
 40
0.3928571428571428
 40
0.3928571428571428
 40
0.3928571428571428
 40
0.4285714285714285
 40
0.4285714285714285
 40
0.4285714285714285
 40
0.4285714285714285
 40
0.4642857142857143
 40
0.4642857142857143
 40
0.4642857142857143
 40
0.4642857142857143
 40
0.5
 40
0.5
 40
0.5
 40
0.5
 40
0.5357142857142857
 40
0.5357142857142857
 40
0.5357142857142857
 40
0.5357142857142857
 40
0.5714285714285714
 40
0.5714285714285714
 40
0.5714285714285714
 40
0.5714285714285714
 40
0.6071428571428571
 40
0.6071428571428571
 40
0.6071428571428571
 40
0.6071428571428571
 40
0.6428571428571429
 40
0.6428571428571429
 40
0.6428571428571429
 40
0.6428571428571429
 40
0.6785714285714286
 40
0.6785714285714286
 40
0.6785714285714286
 40
0.6785714285714286
 40
0.7142857142857143
 40
0.7142857142857143
 40
0.7142857142857143
 40
0.7142857142857143
 40
0.75
 40
0.75
 40
0.75
 40
0.75
 40
0.7857142857142857
 40
0.7857142857142857
 40
0.7857142857142857
 40
0.7857142857142857
 40
0.8214285714285714
 40
0.8214285714285714
 40
0.8214285714285714
 40
0.8214285714285714
 40
0.8571428571428571
 40
0.8571428571428571
 40
0.8571428571428571
 40
0.8571428571428571
 40
0.8928571428571429
 40
0.8928571428571429
 40
0.8928571428571429
 40
0.8928571428571429
 40
0.9285714285714286
 40
0.9285714285714286
 40
0.9285714285714286
 40
0.9285714285714286
 40
1.0
 40
1.0
 40
1.0
 40
1.0
 10
3.6963
 20
9.2811
 30
0.0
 10
3.558
 20
9.164
 30
0.0
 10
3.4253
 20
9.0815
 30
0.0
 10
3.2983
 20
9.0328
 30
0.0
 10
3.2983
 20
9.0328
 30
0.0
 10
3.1706
 20
8.9848
 30
0.0
 10
3.0338
 20
8.9608
 30
0.0
 10
2.8877
 20
8.9608
 30
0.0
 10
2.8877
 20
8.9608
 30
0.0
 10
2.6464
 20
8.9608
 30
0.0
 10
2.4616
 20
9.0194
 30
0.0
 10
2.3317
 20
9.1372
 30
0.0
 10
2.3317
 20
9.1372
 30
0.0
 10
2.2026
 20
9.255
 30
0.0
 10
2.1377
 20
9.406
 30
0.0
 10
2.1377
 20
9.5888
 30
0.0
 10
2.1377
 20
9.5888
 30
0.0
 10
2.1377
 20
9.6967
 30
0.0
 10
2.1617
 20
9.7948
 30
0.0
 10
2.2111
 20
9.8837
 30
0.0
 10
2.2111
 20
9.8837
 30
0.0
 10
2.2598
 20
9.9726
 30
0.0
 10
2.324
 20
10.0438
 30
0.0
 10
2.403
 20
10.0975
 30
0.0
 10
2.403
 20
10.0975
 30
0.0
 10
2.4827
 20
10.1511
 30
0.0
 10
2.5716
 20
10.192
 30
0.0
 10
2.6711
 20
10.2195
 30
0.0
 10
2.6711
 20
10.2195
 30
0.0
 10
2.7438
 20
10.2386
 30
0.0
 10
2.8538
 20
10.2576
 30
0.0
 10
3.0013
 20
10.2753
 30
0.0
 10
3.0013
 20
10.2753
 30
0.0
 10
3.3019
 20
10.3112
 30
0.0
 10
3.5234
 20
10.3536
 30
0.0
 10
3.6652
 20
10.4037
 30
0.0
 10
3.6652
 20
10.4037
 30
0.0
 10
3.6666
 20
10.4545
 30
0.0
 10
3.6673
 20
10.4869
 30
0.0
 10
3.6673
 20
10.5003
 30
0.0
 10
3.6673
 20
10.5003
 30
0.0
 10
3.6673
 20
10.652
 30
0.0
 10
3.6321
 20
10.7593
 30
0.0
 10
3.5615
 20
10.8206
 30
0.0
 10
3.5615
 20
10.8206
 30
0.0
 10
3.467
 20
10.9053
 30
0.0
 10
3.3251
 20
10.9469
 30
0.0
 10
3.1382
 20
10.9469
 30
0.0
 10
3.1382
 20
10.9469
 30
0.0
 10
2.9632
 20
10.9469
 30
0.0
 10
2.8341
 20
10.9166
 30
0.0
 10
2.7501
 20
10.8552
 30
0.0
 10
2.7501
 20
10.8552
 30
0.0
 10
2.6669
 20
10.7938
 30
0.0
 10
2.6055
 20
10.6852
 30
0.0
 10
2.5653
 20
10.5292
 30
0.0
 10
2.5653
 20
10.5292
 30
0.0
 10
2.5653
 20
10.5292
 30
0.0
 10
2.2019
 20
10.5793
 30
0.0
 10
2.2019
 20
10.5793
 30
0.0
 10
2.2019
 20
10.5793
 30
0.0
 10
2.2351
 20
10.7346
 30
0.0
 10
2.2894
 20
10.8609
 30
0.0
 10
2.3649
 20
10.9561
 30
0.0
 10
2.3649
 20
10.9561
 30
0.0
 10
2.4404
 20
11.0521
 30
0.0
 10
2.5505
 20
11.1261
 30
0.0
 10
2.6937
 20
11.1776
 30
0.0
 10
2.6937
 20
11.1776
 30
0.0
 10
2.8369
 20
11.2292
 30
0.0
 10
3.0027
 20
11.2553
 30
0.0
 10
3.1918
 20
11.2553
 30
0.0
 10
3.1918
 20
11.2553
 30
0.0
 10
3.3795
 20
11.2553
 30
0.0
 10
3.5312
 20
11.2327
 30
0.0
 10
3.6483
 20
11.1889
 30
0.0
 10
3.6483
 20
11.1889
 30
0.0
 10
3.7654
 20
11.1445
 30
0.0
 10
3.8515
 20
11.0895
 30
0.0
 10
3.9072
 20
11.0224
 30
0.0
 10
3.9072
 20
11.0224
 30
0.0
 10
3.9623
 20
10.9554
 30
0.0
 10
4.0004
 20
10.8714
 30
0.0
 10
4.0229
 20
10.7691
 30
0.0
 10
4.0229
 20
10.7691
 30
0.0
 10
4.0349
 20
10.7056
 30
0.0
 10
4.0413
 20
10.5913
 30
0.0
 10
4.0413
 20
10.4262
 30
0.0
 10
4.0413
 20
10.4262
 30
0.0
 10
4.0413
 20
10.4262
 30
0.0
 10
4.0413
 20
9.9302
 30
0.0
 10
4.0413
 20
9.9302
 30
0.0
 10
4.0413
 20
9.9302
 30
0.0
 10
4.0413
 20
9.5838
 30
0.0
 10
4.049
 20
9.3651
 30
0.0
 10
4.0653
 20
9.2741
 30
0.0
 10
4.0653
 20
9.2741
 30
0.0
 10
4.0808
 20
9.1824
 30
0.0
 10
4.1125
 20
9.0942
 30
0.0
 10
4.1591
 20
9.0102
 30
0.0
 10
4.1591
 20
9.0102
 30
0.0
 10
4.1591
 20
9.0102
 30
0.0
 10
3.7703
 20
9.0102
 30
0.0
 10
3.7703
 20
9.0102
 30
0.0
 10
3.7703
 20
9.0102
 30
0.0
 10
3.7322
 20
9.0871
 30
0.0
 10
3.7068
 20
9.1774
 30
0.0
 10
3.6963
 20
9.2811
 30
0.0
  0
SPLINE
  5
5E
330
1F
100
AcDbEntity
  8
VRSTVA_1
 62
   250
100
AcDbSpline
210
0.0
220
0.0
230
1.0
 70
    11
 71
     3
 72
    44
 73
    40
 74
     0
 42
0.0000000001
 43
0.0000000001
 40
0.0
 40
0.0
 40
0.0
 40
0.0
 40
0.0909090909090909
 40
0.0909090909090909
 40
0.0909090909090909
 40
0.0909090909090909
 40
0.1818181818181818
 40
0.1818181818181818
 40
0.1818181818181818
 40
0.1818181818181818
 40
0.2727272727272727
 40
0.2727272727272727
 40
0.2727272727272727
 40
0.2727272727272727
 40
0.3636363636363636
 40
0.3636363636363636
 40
0.3636363636363636
 40
0.3636363636363636
 40
0.4545454545454545
 40
0.4545454545454545
 40
0.4545454545454545
 40
0.4545454545454545
 40
0.5454545454545454
 40
0.5454545454545454
 40
0.5454545454545454
 40
0.5454545454545454
 40
0.6363636363636364
 40
0.6363636363636364
 40
0.6363636363636364
 40
0.6363636363636364
 40
0.7272727272727273
 40
0.7272727272727273
 40
0.7272727272727273
 40
0.7272727272727273
 40
0.8181818181818182
 40
0.8181818181818182
 40
0.8181818181818182
 40
0.8181818181818182
 40
1.0
 40
1.0
 40
1.0
 40
1.0
 10
3.6652
 20
10.1123
 30
0.0
 10
3.5298
 20
10.0565
 30
0.0
 10
3.3273
 20
10.01
 30
0.0
 10
3.0577
 20
9.9712
 30
0.0
 10
3.0577
 20
9.9712
 30
0.0
 10
2.9046
 20
9.9493
 30
0.0
 10
2.796
 20
9.9246
 30
0.0
 10
2.7332
 20
9.8971
 30
0.0
 10
2.7332
 20
9.8971
 30
0.0
 10
2.6697
 20
9.8696
 30
0.0
 10
2.6203
 20
9.8293
 30
0.0
 10
2.5864
 20
9.7757
 30
0.0
 10
2.5864
 20
9.7757
 30
0.0
 10
2.5519
 20
9.7228
 30
0.0
 10
2.5342
 20
9.6642
 30
0.0
 10
2.5342
 20
9.5993
 30
0.0
 10
2.5342
 20
9.5993
 30
0.0
 10
2.5342
 20
9.4999
 30
0.0
 10
2.5723
 20
9.4173
 30
0.0
 10
2.6471
 20
9.351
 30
0.0
 10
2.6471
 20
9.351
 30
0.0
 10
2.7219
 20
9.2854
 30
0.0
 10
2.832
 20
9.2522
 30
0.0
 10
2.9766
 20
9.2522
 30
0.0
 10
2.9766
 20
9.2522
 30
0.0
 10
3.1198
 20
9.2522
 30
0.0
 10
3.2475
 20
9.2832
 30
0.0
 10
3.359
 20
9.346
 30
0.0
 10
3.359
 20
9.346
 30
0.0
 10
3.4705
 20
9.4088
 30
0.0
 10
3.553
 20
9.4949
 30
0.0
 10
3.6052
 20
9.6036
 30
0.0
 10
3.6052
 20
9.6036
 30
0.0
 10
3.6455
 20
9.6875
 30
0.0
 10
3.6652
 20
9.8117
 30
0.0
 10
3.6652
 20
9.9754
 30
0.0
 10
3.6652
 20
9.9754
 30
0.0
 10
3.6652
 20
9.9754
 30
0.0
 10
3.6652
 20
10.1123
 30
0.0
 10
3.6652
 20
10.1123
 30
0.0
  0
SPLINE
  5
5F
330
1F
100
AcDbEntity
  8
VRSTVA_1
 62
   250
100
AcDbSpline
210
0.0
220
0.0
230
1.0
 70
    11
 71
     3
 72
    64
 73
    60
 74
     0
 42
0.0000000001
 43
0.0000000001
 40
0.0
 40
0.0
 40
0.0
 40
0.0
 40
0.0625
 40
0.0625
 40
0.0625
 40
0.0625
 40
0.125
 40
0.125
 40
0.125
 40
0.125
 40
0.1875
 40
0.1875
 40
0.1875
 40
0.1875
 40
0.25
 40
0.25
 40
0.25
 40
0.25
 40
0.3125
 40
0.3125
 40
0.3125
 40
0.3125
 40
0.375
 40
0.375
 40
0.375
 40
0.375
 40
0.4375
 40
0.4375
 40
0.4375
 40
0.4375
 40
0.5
 40
0.5
 40
0.5
 40
0.5
 40
0.5625
 40
0.5625
 40
0.5625
 40
0.5625
 40
0.625
 40
0.625
 40
0.625
 40
0.625
 40
0.6875
 40
0.6875
 40
0.6875
 40
0.6875
 40
0.75
 40
0.75
 40
0.75
 40
0.75
 40
0.8125
 40
0.8125
 40
0.8125
 40
0.8125
 40
0.875
 40
0.875
 40
0.875
 40
0.875
 40
1.0
 40
1.0
 40
1.0
 40
1.0
 10
4.37
 20
9.0102
 30
0.0
 10
4.37
 20
9.0102
 30
0.0
 10
5.1723
 20
10.1511
 30
0.0
 10
5.1723
 20
10.1511
 30
0.0
 10
5.1723
 20
10.1511
 30
0.0
 10
5.1723
 20
10.1511
 30
0.0
 10
4.43
 20
11.2052
 30
0.0
 10
4.43
 20
11.2052
 30
0.0
 10
4.43
 20
11.2052
 30
0.0
 10
4.43
 20
11.2052
 30
0.0
 10
4.895
 20
11.2052
 30
0.0
 10
4.895
 20
11.2052
 30
0.0
 10
4.895
 20
11.2052
 30
0.0
 10
4.895
 20
11.2052
 30
0.0
 10
5.2322
 20
10.6908
 30
0.0
 10
5.2322
 20
10.6908
 30
0.0
 10
5.2322
 20
10.6908
 30
0.0
 10
5.295
 20
10.5927
 30
0.0
 10
5.3465
 20
10.5109
 30
0.0
 10
5.3846
 20
10.4446
 30
0.0
 10
5.3846
 20
10.4446
 30
0.0
 10
5.4453
 20
10.5356
 30
0.0
 10
5.501
 20
10.616
 30
0.0
 10
5.5525
 20
10.6866
 30
0.0
 10
5.5525
 20
10.6866
 30
0.0
 10
5.5525
 20
10.6866
 30
0.0
 10
5.9223
 20
11.2052
 30
0.0
 10
5.9223
 20
11.2052
 30
0.0
 10
5.9223
 20
11.2052
 30
0.0
 10
5.9223
 20
11.2052
 30
0.0
 10
6.3668
 20
11.2052
 30
0.0
 10
6.3668
 20
11.2052
 30
0.0
 10
6.3668
 20
11.2052
 30
0.0
 10
6.3668
 20
11.2052
 30
0.0
 10
5.6083
 20
10.1715
 30
0.0
 10
5.6083
 20
10.1715
 30
0.0
 10
5.6083
 20
10.1715
 30
0.0
 10
5.6083
 20
10.1715
 30
0.0
 10
6.4246
 20
9.0102
 30
0.0
 10
6.4246
 20
9.0102
 30
0.0
 10
6.4246
 20
9.0102
 30
0.0
 10
6.4246
 20
9.0102
 30
0.0
 10
5.9681
 20
9.0102
 30
0.0
 10
5.9681
 20
9.0102
 30
0.0
 10
5.9681
 20
9.0102
 30
0.0
 10
5.9681
 20
9.0102
 30
0.0
 10
5.5173
 20
9.6925
 30
0.0
 10
5.5173
 20
9.6925
 30
0.0
 10
5.5173
 20
9.6925
 30
0.0
 10
5.5173
 20
9.6925
 30
0.0
 10
5.3973
 20
9.8766
 30
0.0
 10
5.3973
 20
9.8766
 30
0.0
 10
5.3973
 20
9.8766
 30
0.0
 10
5.3973
 20
9.8766
 30
0.0
 10
4.8209
 20
9.0102
 30
0.0
 10
4.8209
 20
9.0102
 30
0.0
 10
4.8209
 20
9.0102
 30
0.0
 10
4.8209
 20
9.0102
 30
0.0
 10
4.37
 20
9.0102
 30
0.0
 10
4.37
 20
9.0102
 30
0.0
  0
SPLINE
  5
60
330
1F
100
AcDbEntity
  8
VRSTVA_1
 62
   250
100
AcDbSpline
210
0.0
220
0.0
230
1.0
 70
    11
 71
     3
 72
    92
 73
    88
 74
     0
 42
0.0000000001
 43
0.0000000001
 40
0.0
 40
0.0
 40
0.0
 40
0.0
 40
0.0434782608695652
 40
0.0434782608695652
 40
0.0434782608695652
 40
0.0434782608695652
 40
0.0869565217391304
 40
0.0869565217391304
 40
0.0869565217391304
 40
0.0869565217391304
 40
0.1304347826086956
 40
0.1304347826086956
 40
0.1304347826086956
 40
0.1304347826086956
 40
0.1739130434782609
 40
0.1739130434782609
 40
0.1739130434782609
 40
0.1739130434782609
 40
0.2173913043478261
 40
0.2173913043478261
 40
0.2173913043478261
 40
0.2173913043478261
 40
0.2608695652173913
 40
0.2608695652173913
 40
0.2608695652173913
 40
0.2608695652173913
 40
0.3043478260869565
 40
0.3043478260869565
 40
0.3043478260869565
 40
0.3043478260869565
 40
0.3478260869565217
 40
0.3478260869565217
 40
0.3478260869565217
 40
0.3478260869565217
 40
0.391304347826087
 40
0.391304347826087
 40
0.391304347826087
 40
0.391304347826087
 40
0.4347826086956522
 40
0.4347826086956522
 40
0.4347826086956522
 40
0.4347826086956522
 40
0.4782608695652174
 40
0.4782608695652174
 40
0.4782608695652174
 40
0.4782608695652174
 40
0.5217391304347826
 40
0.5217391304347826
 40
0.5217391304347826
 40
0.5217391304347826
 40
0.5652173913043478
 40
0.5652173913043478
 40
0.5652173913043478
 40
0.5652173913043478
 40
0.6086956521739131
 40
0.6086956521739131
 40
0.6086956521739131
 40
0.6086956521739131
 40
0.6521739130434783
 40
0.6521739130434783
 40
0.6521739130434783
 40
0.6521739130434783
 40
0.6956521739130435
 40
0.6956521739130435
 40
0.6956521739130435
 40
0.6956521739130435
 40
0.7391304347826086
 40
0.7391304347826086
 40
0.7391304347826086
 40
0.7391304347826086
 40
0.782608695652174
 40
0.782608695652174
 40
0.782608695652174
 40
0.782608695652174
 40
0.8260869565217391
 40
0.8260869565217391
 40
0.8260869565217391
 40
0.8260869565217391
 40
0.8695652173913043
 40
0.8695652173913043
 40
0.8695652173913043
 40
0.8695652173913043
 40
0.9130434782608695
 40
0.9130434782608695
 40
0.9130434782608695
 40
0.9130434782608695
 40
1.0
 40
1.0
 40
1.0
 40
1.0
 10
9.7634
 20
9.3679
 30
0.0
 10
9.7634
 20
9.3679
 30
0.0
 10
9.7634
 20
9.0102
 30
0.0
 10
9.7634
 20
9.0102
 30
0.0
 10
9.7634
 20
9.0102
 30
0.0
 10
9.7634
 20
9.0102
 30
0.0
 10
7.7603
 20
9.0102
 30
0.0
 10
7.7603
 20
9.0102
 30
0.0
 10
7.7603
 20
9.0102
 30
0.0
 10
7.7575
 20
9.0998
 30
0.0
 10
7.7716
 20
9.1859
 30
0.0
 10
7.8033
 20
9.2684
 30
0.0
 10
7.8033
 20
9.2684
 30
0.0
 10
7.8541
 20
9.4053
 30
0.0
 10
7.936
 20
9.5394
 30
0.0
 10
8.0482
 20
9.672
 30
0.0
 10
8.0482
 20
9.672
 30
0.0
 10
8.1611
 20
9.8039
 30
0.0
 10
8.3233
 20
9.957
 30
0.0
 10
8.535
 20
10.1306
 30
0.0
 10
8.535
 20
10.1306
 30
0.0
 10
8.8645
 20
10.4008
 30
0.0
 10
9.0874
 20
10.6146
 30
0.0
 10
9.2032
 20
10.7727
 30
0.0
 10
9.2032
 20
10.7727
 30
0.0
 10
9.3189
 20
10.93
 30
0.0
 10
9.3767
 20
11.0796
 30
0.0
 10
9.3767
 20
11.22
 30
0.0
 10
9.3767
 20
11.22
 30
0.0
 10
9.3767
 20
11.3674
 30
0.0
 10
9.3238
 20
11.4916
 30
0.0
 10
9.2187
 20
11.5932
 30
0.0
 10
9.2187
 20
11.5932
 30
0.0
 10
9.1128
 20
11.6941
 30
0.0
 10
8.9753
 20
11.7449
 30
0.0
 10
8.8059
 20
11.7449
 30
0.0
 10
8.8059
 20
11.7449
 30
0.0
 10
8.6267
 20
11.7449
 30
0.0
 10
8.4835
 20
11.6913
 30
0.0
 10
8.3763
 20
11.5833
 30
0.0
 10
8.3763
 20
11.5833
 30
0.0
 10
8.2683
 20
11.4761
 30
0.0
 10
8.214
 20
11.3272
 30
0.0
 10
8.2126
 20
11.1374
 30
0.0
 10
8.2126
 20
11.1374
 30
0.0
 10
8.2126
 20
11.1374
 30
0.0
 10
7.8302
 20
11.1762
 30
0.0
 10
7.8302
 20
11.1762
 30
0.0
 10
7.8302
 20
11.1762
 30
0.0
 10
7.8563
 20
11.462
 30
0.0
 10
7.955
 20
11.6793
 30
0.0
 10
8.1258
 20
11.8289
 30
0.0
 10
8.1258
 20
11.8289
 30
0.0
 10
8.2965
 20
11.9784
 30
0.0
 10
8.5265
 20
12.0532
 30
0.0
 10
8.8144
 20
12.0532
 30
0.0
 10
8.8144
 20
12.0532
 30
0.0
 10
9.1051
 20
12.0532
 30
0.0
 10
9.3351
 20
11.9721
 30
0.0
 10
9.5044
 20
11.8112
 30
0.0
 10
9.5044
 20
11.8112
 30
0.0
 10
9.6745
 20
11.6497
 30
0.0
 10
9.7591
 20
11.45
 30
0.0
 10
9.7591
 20
11.2115
 30
0.0
 10
9.7591
 20
11.2115
 30
0.0
 10
9.7591
 20
11.0902
 30
0.0
 10
9.7344
 20
10.9709
 30
0.0
 10
9.6843
 20
10.8538
 30
0.0
 10
9.6843
 20
10.8538
 30
0.0
 10
9.635
 20
10.7367
 30
0.0
 10
9.5524
 20
10.6132
 30
0.0
 10
9.4374
 20
10.4841
 30
0.0
 10
9.4374
 20
10.4841
 30
0.0
 10
9.3224
 20
10.3543
 30
0.0
 10
9.1312
 20
10.1765
 30
0.0
 10
8.8638
 20
9.9507
 30
0.0
 10
8.8638
 20
9.9507
 30
0.0
 10
8.6408
 20
9.763
 30
0.0
 10
8.4976
 20
9.636
 30
0.0
 10
8.4341
 20
9.569
 30
0.0
 10
8.4341
 20
9.569
 30
0.0
 10
8.3706
 20
9.5027
 30
0.0
 10
8.3184
 20
9.4356
 30
0.0
 10
8.2768
 20
9.3679
 30
0.0
 10
8.2768
 20
9.3679
 30
0.0
 10
8.2768
 20
9.3679
 30
0.0
 10
9.7634
 20
9.3679
 30
0.0
 10
9.7634
 20
9.3679
 30
0.0
  0
SPLINE
  5
61
330
1F
100
AcDbEntity
  8
VRSTVA_1
 62
   250
100
AcDbSpline
210
0.0
220
0.0
230
1.0
 70
    11
 71
     3
 72
    92
 73
    88
 74
     0
 42
0.0000000001
 43
0.0000000001
 40
0.0
 40
0.0
 40
0.0
 40
0.0
 40
0.0434782608695652
 40
0.0434782608695652
 40
0.0434782608695652
 40
0.0434782608695652
 40
0.0869565217391304
 40
0.0869565217391304
 40
0.0869565217391304
 40
0.0869565217391304
 40
0.1304347826086956
 40
0.1304347826086956
 40
0.1304347826086956
 40
0.1304347826086956
 40
0.1739130434782609
 40
0.1739130434782609
 40
0.1739130434782609
 40
0.1739130434782609
 40
0.2173913043478261
 40
0.2173913043478261
 40
0.2173913043478261
 40
0.2173913043478261
 40
0.2608695652173913
 40
0.2608695652173913
 40
0.2608695652173913
 40
0.2608695652173913
 40
0.3043478260869565
 40
0.3043478260869565
 40
0.3043478260869565
 40
0.3043478260869565
 40
0.3478260869565217
 40
0.3478260869565217
 40
0.3478260869565217
 40
0.3478260869565217
 40
0.391304347826087
 40
0.391304347826087
 40
0.391304347826087
 40
0.391304347826087
 40
0.4347826086956522
 40
0.4347826086956522
 40
0.4347826086956522
 40
0.4347826086956522
 40
0.4782608695652174
 40
0.4782608695652174
 40
0.4782608695652174
 40
0.4782608695652174
 40
0.5217391304347826
 40
0.5217391304347826
 40
0.5217391304347826
 40
0.5217391304347826
 40
0.5652173913043478
 40
0.5652173913043478
 40
0.5652173913043478
 40
0.5652173913043478
 40
0.6086956521739131
 40
0.6086956521739131
 40
0.6086956521739131
 40
0.6086956521739131
 40
0.6521739130434783
 40
0.6521739130434783
 40
0.6521739130434783
 40
0.6521739130434783
 40
0.6956521739130435
 40
0.6956521739130435
 40
0.6956521739130435
 40
0.6956521739130435
 40
0.7391304347826086
 40
0.7391304347826086
 40
0.7391304347826086
 40
0.7391304347826086
 40
0.782608695652174
 40
0.782608695652174
 40
0.782608695652174
 40
0.782608695652174
 40
0.8260869565217391
 40
0.8260869565217391
 40
0.8260869565217391
 40
0.8260869565217391
 40
0.8695652173913043
 40
0.8695652173913043
 40
0.8695652173913043
 40
0.8695652173913043
 40
0.9130434782608695
 40
0.9130434782608695
 40
0.9130434782608695
 40
0.9130434782608695
 40
1.0
 40
1.0
 40
1.0
 40
1.0
 10
10.2177
 20
9.7108
 30
0.0
 10
10.2177
 20
9.7108
 30
0.0
 10
10.5754
 20
9.744
 30
0.0
 10
10.5754
 20
9.744
 30
0.0
 10
10.5754
 20
9.744
 30
0.0
 10
10.6058
 20
9.5761
 30
0.0
 10
10.6636
 20
9.454
 30
0.0
 10
10.749
 20
9.3778
 30
0.0
 10
10.749
 20
9.3778
 30
0.0
 10
10.8344
 20
9.3023
 30
0.0
 10
10.9437
 20
9.2642
 30
0.0
 10
11.0778
 20
9.2642
 30
0.0
 10
11.0778
 20
9.2642
 30
0.0
 10
11.1921
 20
9.2642
 30
0.0
 10
11.2923
 20
9.2903
 30
0.0
 10
11.3784
 20
9.3432
 30
0.0
 10
11.3784
 20
9.3432
 30
0.0
 10
11.4644
 20
9.3954
 30
0.0
 10
11.535
 20
9.4653
 30
0.0
 10
11.59
 20
9.5528
 30
0.0
 10
11.59
 20
9.5528
 30
0.0
 10
11.6458
 20
9.6403
 30
0.0
 10
11.6916
 20
9.7588
 30
0.0
 10
11.729
 20
9.907
 30
0.0
 10
11.729
 20
9.907
 30
0.0
 10
11.7657
 20
10.0558
 30
0.0
 10
11.7847
 20
10.2075
 30
0.0
 10
11.7847
 20
10.362
 30
0.0
 10
11.7847
 20
10.362
 30
0.0
 10
11.7847
 20
10.3783
 30
0.0
 10
11.784
 20
10.4037
 30
0.0
 10
11.7826
 20
10.4361
 30
0.0
 10
11.7826
 20
10.4361
 30
0.0
 10
11.7078
 20
10.3183
 30
0.0
 10
11.6062
 20
10.2216
 30
0.0
 10
11.4778
 20
10.1483
 30
0.0
 10
11.4778
 20
10.1483
 30
0.0
 10
11.3487
 20
10.0742
 30
0.0
 10
11.209
 20
10.0375
 30
0.0
 10
11.0594
 20
10.0375
 30
0.0
 10
11.0594
 20
10.0375
 30
0.0
 10
10.8083
 20
10.0375
 30
0.0
 10
10.5959
 20
10.1285
 30
0.0
 10
10.4223
 20
10.3105
 30
0.0
 10
10.4223
 20
10.3105
 30
0.0
 10
10.2488
 20
10.4926
 30
0.0
 10
10.162
 20
10.7317
 30
0.0
 10
10.162
 20
11.0295
 30
0.0
 10
10.162
 20
11.0295
 30
0.0
 10
10.162
 20
11.3371
 30
0.0
 10
10.2523
 20
11.584
 30
0.0
 10
10.4336
 20
11.7717
 30
0.0
 10
10.4336
 20
11.7717
 30
0.0
 10
10.6149
 20
11.9594
 30
0.0
 10
10.8421
 20
12.0532
 30
0.0
 10
11.1152
 20
12.0532
 30
0.0
 10
11.1152
 20
12.0532
 30
0.0
 10
11.312
 20
12.0532
 30
0.0
 10
11.4919
 20
11.9996
 30
0.0
 10
11.6556
 20
11.8938
 30
0.0
 10
11.6556
 20
11.8938
 30
0.0
 10
11.8186
 20
11.788
 30
0.0
 10
11.9428
 20
11.6363
 30
0.0
 10
12.0275
 20
11.4401
 30
0.0
 10
12.0275
 20
11.4401
 30
0.0
 10
12.1121
 20
11.244
 30
0.0
 10
12.1545
 20
10.9596
 30
0.0
 10
12.1545
 20
10.5871
 30
0.0
 10
12.1545
 20
10.5871
 30
0.0
 10
12.1545
 20
10.2005
 30
0.0
 10
12.1128
 20
9.8921
 30
0.0
 10
12.0289
 20
9.6621
 30
0.0
 10
12.0289
 20
9.6621
 30
0.0
 10
11.9442
 20
9.4328
 30
0.0
 10
11.8193
 20
9.2586
 30
0.0
 10
11.6535
 20
9.1386
 30
0.0
 10
11.6535
 20
9.1386
 30
0.0
 10
11.487
 20
9.0187
 30
0.0
 10
11.293
 20
8.9587
 30
0.0
 10
11.0693
 20
8.9587
 30
0.0
 10
11.0693
 20
8.9587
 30
0.0
 10
10.8323
 20
8.9587
 30
0.0
 10
10.6389
 20
9.0243
 30
0.0
 10
10.4887
 20
9.1562
 30
0.0
 10
10.4887
 20
9.1562
 30
0.0
 10
10.3384
 20
9.2875
 30
0.0
 10
10.2481
 20
9.4723
 30
0.0
 10
10.2177
 20
9.7108
 30
0.0
  0
SPLINE
  5
62
330
1F
100
AcDbEntity
  8
VRSTVA_1
 62
   250
100
AcDbSpline
210
0.0
220
0.0
230
1.0
 70
    11
 71
     3
 72
    36
 73
    32
 74
     0
 42
0.0000000001
 43
0.0000000001
 40
0.0
 40
0.0
 40
0.0
 40
0.0
 40
0.1111111111111111
 40
0.1111111111111111
 40
0.1111111111111111
 40
0.1111111111111111
 40
0.2222222222222222
 40
0.2222222222222222
 40
0.2222222222222222
 40
0.2222222222222222
 40
0.3333333333333333
 40
0.3333333333333333
 40
0.3333333333333333
 40
0.3333333333333333
 40
0.4444444444444444
 40
0.4444444444444444
 40
0.4444444444444444
 40
0.4444444444444444
 40
0.5555555555555556
 40
0.5555555555555556
 40
0.5555555555555556
 40
0.5555555555555556
 40
0.6666666666666666
 40
0.6666666666666666
 40
0.6666666666666666
 40
0.6666666666666666
 40
0.7777777777777778
 40
0.7777777777777778
 40
0.7777777777777778
 40
0.7777777777777778
 40
1.0
 40
1.0
 40
1.0
 40
1.0
 10
11.741
 20
11.0485
 30
0.0
 10
11.741
 20
11.2616
 30
0.0
 10
11.6846
 20
11.4316
 30
0.0
 10
11.571
 20
11.5565
 30
0.0
 10
11.571
 20
11.5565
 30
0.0
 10
11.4567
 20
11.6821
 30
0.0
 10
11.3205
 20
11.7449
 30
0.0
 10
11.1603
 20
11.7449
 30
0.0
 10
11.1603
 20
11.7449
 30
0.0
 10
10.9952
 20
11.7449
 30
0.0
 10
10.8513
 20
11.6772
 30
0.0
 10
10.7285
 20
11.5424
 30
0.0
 10
10.7285
 20
11.5424
 30
0.0
 10
10.6058
 20
11.407
 30
0.0
 10
10.5444
 20
11.232
 30
0.0
 10
10.5444
 20
11.0175
 30
0.0
 10
10.5444
 20
11.0175
 30
0.0
 10
10.5444
 20
10.8242
 30
0.0
 10
10.603
 20
10.6675
 30
0.0
 10
10.7194
 20
10.5469
 30
0.0
 10
10.7194
 20
10.5469
 30
0.0
 10
10.8358
 20
10.4262
 30
0.0
 10
10.979
 20
10.3663
 30
0.0
 10
11.1498
 20
10.3663
 30
0.0
 10
11.1498
 20
10.3663
 30
0.0
 10
11.3226
 20
10.3663
 30
0.0
 10
11.4637
 20
10.4262
 30
0.0
 10
11.5745
 20
10.5469
 30
0.0
 10
11.5745
 20
10.5469
 30
0.0
 10
11.686
 20
10.6675
 30
0.0
 10
11.741
 20
10.8348
 30
0.0
 10
11.741
 20
11.0485
 30
0.0
  0
SPLINE
  5
63
330
1F
100
AcDbEntity
  8
VRSTVA_1
 62
   250
100
AcDbSpline
210
0.0
220
0.0
230
1.0
 70
    11
 71
     3
 72
    92
 73
    88
 74
     0
 42
0.0000000001
 43
0.0000000001
 40
0.0
 40
0.0
 40
0.0
 40
0.0
 40
0.0434782608695652
 40
0.0434782608695652
 40
0.0434782608695652
 40
0.0434782608695652
 40
0.0869565217391304
 40
0.0869565217391304
 40
0.0869565217391304
 40
0.0869565217391304
 40
0.1304347826086956
 40
0.1304347826086956
 40
0.1304347826086956
 40
0.1304347826086956
 40
0.1739130434782609
 40
0.1739130434782609
 40
0.1739130434782609
 40
0.1739130434782609
 40
0.2173913043478261
 40
0.2173913043478261
 40
0.2173913043478261
 40
0.2173913043478261
 40
0.2608695652173913
 40
0.2608695652173913
 40
0.2608695652173913
 40
0.2608695652173913
 40
0.3043478260869565
 40
0.3043478260869565
 40
0.3043478260869565
 40
0.3043478260869565
 40
0.3478260869565217
 40
0.3478260869565217
 40
0.3478260869565217
 40
0.3478260869565217
 40
0.391304347826087
 40
0.391304347826087
 40
0.391304347826087
 40
0.391304347826087
 40
0.4347826086956522
 40
0.4347826086956522
 40
0.4347826086956522
 40
0.4347826086956522
 40
0.4782608695652174
 40
0.4782608695652174
 40
0.4782608695652174
 40
0.4782608695652174
 40
0.5217391304347826
 40
0.5217391304347826
 40
0.5217391304347826
 40
0.5217391304347826
 40
0.5652173913043478
 40
0.5652173913043478
 40
0.5652173913043478
 40
0.5652173913043478
 40
0.6086956521739131
 40
0.6086956521739131
 40
0.6086956521739131
 40
0.6086956521739131
 40
0.6521739130434783
 40
0.6521739130434783
 40
0.6521739130434783
 40
0.6521739130434783
 40
0.6956521739130435
 40
0.6956521739130435
 40
0.6956521739130435
 40
0.6956521739130435
 40
0.7391304347826086
 40
0.7391304347826086
 40
0.7391304347826086
 40
0.7391304347826086
 40
0.782608695652174
 40
0.782608695652174
 40
0.782608695652174
 40
0.782608695652174
 40
0.8260869565217391
 40
0.8260869565217391
 40
0.8260869565217391
 40
0.8260869565217391
 40
0.8695652173913043
 40
0.8695652173913043
 40
0.8695652173913043
 40
0.8695652173913043
 40
0.9130434782608695
 40
0.9130434782608695
 40
0.9130434782608695
 40
0.9130434782608695
 40
1.0
 40
1.0
 40
1.0
 40
1.0
 10
12.5164
 20
9.8039
 30
0.0
 10
12.5164
 20
9.8039
 30
0.0
 10
12.9073
 20
9.8371
 30
0.0
 10
12.9073
 20
9.8371
 30
0.0
 10
12.9073
 20
9.8371
 30
0.0
 10
12.9362
 20
9.6466
 30
0.0
 10
13.0032
 20
9.5041
 30
0.0
 10
13.1083
 20
9.4081
 30
0.0
 10
13.1083
 20
9.4081
 30
0.0
 10
13.2142
 20
9.3122
 30
0.0
 10
13.3412
 20
9.2642
 30
0.0
 10
13.49
 20
9.2642
 30
0.0
 10
13.49
 20
9.2642
 30
0.0
 10
13.6693
 20
9.2642
 30
0.0
 10
13.8209
 20
9.3319
 30
0.0
 10
13.9444
 20
9.4667
 30
0.0
 10
13.9444
 20
9.4667
 30
0.0
 10
14.0686
 20
9.6022
 30
0.0
 10
14.1307
 20
9.7814
 30
0.0
 10
14.1307
 20
10.0043
 30
0.0
 10
14.1307
 20
10.0043
 30
0.0
 10
14.1307
 20
10.2167
 30
0.0
 10
14.0714
 20
10.3839
 30
0.0
 10
13.9522
 20
10.5067
 30
0.0
 10
13.9522
 20
10.5067
 30
0.0
 10
13.8329
 20
10.6294
 30
0.0
 10
13.677
 20
10.6908
 30
0.0
 10
13.4837
 20
10.6908
 30
0.0
 10
13.4837
 20
10.6908
 30
0.0
 10
13.3637
 20
10.6908
 30
0.0
 10
13.2558
 20
10.6633
 30
0.0
 10
13.1591
 20
10.609
 30
0.0
 10
13.1591
 20
10.609
 30
0.0
 10
13.0625
 20
10.5546
 30
0.0
 10
12.987
 20
10.4841
 30
0.0
 10
12.932
 20
10.3973
 30
0.0
 10
12.932
 20
10.3973
 30
0.0
 10
12.932
 20
10.3973
 30
0.0
 10
12.5827
 20
10.4425
 30
0.0
 10
12.5827
 20
10.4425
 30
0.0
 10
12.5827
 20
10.4425
 30
0.0
 10
12.5827
 20
10.4425
 30
0.0
 10
12.8762
 20
11.9989
 30
0.0
 10
12.8762
 20
11.9989
 30
0.0
 10
12.8762
 20
11.9989
 30
0.0
 10
12.8762
 20
11.9989
 30
0.0
 10
14.3833
 20
11.9989
 30
0.0
 10
14.3833
 20
11.9989
 30
0.0
 10
14.3833
 20
11.9989
 30
0.0
 10
14.3833
 20
11.9989
 30
0.0
 10
14.3833
 20
11.6433
 30
0.0
 10
14.3833
 20
11.6433
 30
0.0
 10
14.3833
 20
11.6433
 30
0.0
 10
14.3833
 20
11.6433
 30
0.0
 10
13.174
 20
11.6433
 30
0.0
 10
13.174
 20
11.6433
 30
0.0
 10
13.174
 20
11.6433
 30
0.0
 10
13.174
 20
11.6433
 30
0.0
 10
13.0103
 20
10.8291
 30
0.0
 10
13.0103
 20
10.8291
 30
0.0
 10
13.0103
 20
10.8291
 30
0.0
 10
13.1923
 20
10.9561
 30
0.0
 10
13.3835
 20
11.0196
 30
0.0
 10
13.5832
 20
11.0196
 30
0.0
 10
13.5832
 20
11.0196
 30
0.0
 10
13.8478
 20
11.0196
 30
0.0
 10
14.0707
 20
10.9279
 30
0.0
 10
14.2527
 20
10.7444
 30
0.0
 10
14.2527
 20
10.7444
 30
0.0
 10
14.4348
 20
10.561
 30
0.0
 10
14.5258
 20
10.3253
 30
0.0
 10
14.5258
 20
10.0375
 30
0.0
 10
14.5258
 20
10.0375
 30
0.0
 10
14.5258
 20
9.763
 30
0.0
 10
14.4454
 20
9.526
 30
0.0
 10
14.2859
 20
9.3263
 30
0.0
 10
14.2859
 20
9.3263
 30
0.0
 10
14.0912
 20
9.0815
 30
0.0
 10
13.8259
 20
8.9587
 30
0.0
 10
13.49
 20
8.9587
 30
0.0
 10
13.49
 20
8.9587
 30
0.0
 10
13.2142
 20
8.9587
 30
0.0
 10
12.9891
 20
9.0356
 30
0.0
 10
12.8148
 20
9.1901
 30
0.0
 10
12.8148
 20
9.1901
 30
0.0
 10
12.6406
 20
9.3446
 30
0.0
 10
12.5411
 20
9.5492
 30
0.0
 10
12.5164
 20
9.8039
 30
0.0
  0
SPLINE
  5
64
330
1F
100
AcDbEntity
  8
VRSTVA_1
 62
   250
100
AcDbSpline
210
0.0
220
0.0
230
1.0
 70
    11
 71
     3
 72
    20
 73
    16
 74
     0
 42
0.0000000001
 43
0.0000000001
 40
0.0
 40
0.0
 40
0.0
 40
0.0
 40
0.2
 40
0.2
 40
0.2
 40
0.2
 40
0.4
 40
0.4
 40
0.4
 40
0.4
 40
0.6
 40
0.6
 40
0.6
 40
0.6
 40
1.0
 40
1.0
 40
1.0
 40
1.0
 10
47.8797
 20
8.4672
 30
0.0
 10
47.8797
 20
8.4672
 30
0.0
 10
51.4335
 20
7.9656
 30
0.0
 10
51.4335
 20
7.9656
 30
0.0
 10
51.4335
 20
7.9656
 30
0.0
 10
51.4335
 20
7.9656
 30
0.0
 10
51.4335
 20
7.8542
 30
0.0
 10
51.4335
 20
7.8542
 30
0.0
 10
51.4335
 20
7.8542
 30
0.0
 10
51.4335
 20
7.8542
 30
0.0
 10
47.8797
 20
7.3194
 30
0.0
 10
47.8797
 20
7.3194
 30
0.0
 10
47.8797
 20
7.3194
 30
0.0
 10
47.8797
 20
7.3194
 30
0.0
 10
47.8797
 20
8.4672
 30
0.0
 10
47.8797
 20
8.4672
 30
0.0
  0
SPLINE
  5
65
330
1F
100
AcDbEntity
  8
VRSTVA_1
 62
   250
100
AcDbSpline
210
0.0
220
0.0
230
1.0
 70
    11
 71
     3
 72
    20
 73
    16
 74
     0
 42
0.0000000001
 43
0.0000000001
 40
0.0
 40
0.0
 40
0.0
 40
0.0
 40
0.2
 40
0.2
 40
0.2
 40
0.2
 40
0.4
 40
0.4
 40
0.4
 40
0.4
 40
0.6
 40
0.6
 40
0.6
 40
0.6
 40
1.0
 40
1.0
 40
1.0
 40
1.0
 10
-33.3163
 20
7.3186
 30
0.0
 10
-33.3163
 20
7.3186
 30
0.0
 10
-36.8701
 20
7.8202
 30
0.0
 10
-36.8701
 20
7.8202
 30
0.0
 10
-36.8701
 20
7.8202
 30
0.0
 10
-36.8701
 20
7.8202
 30
0.0
 10
-36.8701
 20
7.9316
 30
0.0
 10
-36.8701
 20
7.9316
 30
0.0
 10
-36.8701
 20
7.9316
 30
0.0
 10
-36.8701
 20
7.9316
 30
0.0
 10
-33.3163
 20
8.4665
 30
0.0
 10
-33.3163
 20
8.4665
 30
0.0
 10
-33.3163
 20
8.4665
 30
0.0
 10
-33.3163
 20
8.4665
 30
0.0
 10
-33.3163
 20
7.3186
 30
0.0
 10
-33.3163
 20
7.3186
 30
0.0
  0
SPLINE
  5
66
330
1F
100
AcDbEntity
  8
VRSTVA_1
 62
   250
100
AcDbSpline
210
0.0
220
0.0
230
1.0
 70
    24
 71
     3
 72
     8
 73
     4
 74
     0
 42
0.0000000001
 43
0.0000000001
 40
0.0
 40
0.0
 40
0.0
 40
0.0
 40
1.0
 40
1.0
 40
1.0
 40
1.0
 10
-42.0459
 20
-32.9295
 30
0.0
 10
-42.0459
 20
-32.9295
 30
0.0
 10
-52.2406
 20
-32.9295
 30
0.0
 10
-52.2406
 20
-32.9295
 30
0.0
  0
SPLINE
  5
67
330
1F
100
AcDbEntity
  8
VRSTVA_1
 62
   250
100
AcDbSpline
210
0.0
220
0.0
230
1.0
 70
    24
 71
     3
 72
     8
 73
     4
 74
     0
 42
0.0000000001
 43
0.0000000001
 40
0.0
 40
0.0
 40
0.0
 40
0.0
 40
1.0
 40
1.0
 40
1.0
 40
1.0
 10
-21.1812
 20
-9.9086
 30
0.0
 10
-21.1812
 20
-9.9086
 30
0.0
 10
-52.1884
 20
-9.9086
 30
0.0
 10
-52.1884
 20
-9.9086
 30
0.0
  0
SPLINE
  5
68
330
1F
100
AcDbEntity
  8
VRSTVA_1
 62
   250
100
AcDbSpline
210
0.0
220
0.0
230
1.0
 70
    24
 71
     3
 72
     8
 73
     4
 74
     0
 42
0.0000000001
 43
0.0000000001
 40
0.0
 40
0.0
 40
0.0
 40
0.0
 40
1.0
 40
1.0
 40
1.0
 40
1.0
 10
-51.2497
 20
22.8216
 30
0.0
 10
-51.2497
 20
22.8216
 30
0.0
 10
-51.2497
 20
-32.5769
 30
0.0
 10
-51.2497
 20
-32.5769
 30
0.0
  0
SPLINE
  5
69
330
1F
100
AcDbEntity
  8
VRSTVA_1
 62
   250
100
AcDbSpline
210
0.0
220
0.0
230
1.0
 70
    24
 71
     3
 72
     8
 73
     4
 74
     0
 42
0.0000000001
 43
0.0000000001
 40
0.0
 40
0.0
 40
0.0
 40
0.0
 40
1.0
 40
1.0
 40
1.0
 40
1.0
 10
-46.6586
 20
24.2486
 30
0.0
 10
-46.6586
 20
24.2486
 30
0.0
 10
-52.1362
 20
24.2486
 30
0.0
 10
-52.1362
 20
24.2486
 30
0.0
  0
SPLINE
  5
6A
330
1F
100
AcDbEntity
  8
VRSTVA_1
 62
   250
100
AcDbSpline
210
0.0
220
0.0
230
1.0
 70
    24
 71
     3
 72
     8
 73
     4
 74
     0
 42
0.0000000001
 43
0.0000000001
 40
0.0
 40
0.0
 40
0.0
 40
0.0
 40
1.0
 40
1.0
 40
1.0
 40
1.0
 10
-29.8014
 20
24.8082
 30
0.0
 10
-29.8014
 20
24.8082
 30
0.0
 10
-29.8014
 20
29.549
 30
0.0
 10
-29.8014
 20
29.549
 30
0.0
  0
SPLINE
  5
6B
330
1F
100
AcDbEntity
  8
VRSTVA_1
 62
   250
100
AcDbSpline
210
0.0
220
0.0
230
1.0
 70
    24
 71
     3
 72
     8
 73
     4
 74
     0
 42
0.0000000001
 43
0.0000000001
 40
0.0
 40
0.0
 40
0.0
 40
0.0
 40
1.0
 40
1.0
 40
1.0
 40
1.0
 10
-44.0146
 20
24.6925
 30
0.0
 10
-44.0146
 20
24.6925
 30
0.0
 10
-44.0146
 20
29.4968
 30
0.0
 10
-44.0146
 20
29.4968
 30
0.0
  0
SPLINE
  5
6C
330
1F
100
AcDbEntity
  8
VRSTVA_1
 62
   250
100
AcDbSpline
210
0.0
220
0.0
230
1.0
 70
    24
 71
     3
 72
     8
 73
     4
 74
     0
 42
0.0000000001
 43
0.0000000001
 40
0.0
 40
0.0
 40
0.0
 40
0.0
 40
1.0
 40
1.0
 40
1.0
 40
1.0
 10
-48.8482
 20
28.8445
 30
0.0
 10
-48.8482
 20
28.8445
 30
0.0
 10
-24.7215
 20
28.8445
 30
0.0
 10
-24.7215
 20
28.8445
 30
0.0
  0
SPLINE
  5
6D
330
1F
100
AcDbEntity
  8
VRSTVA_1
 62
   250
100
AcDbSpline
210
0.0
220
0.0
230
1.0
 70
    24
 71
     3
 72
     8
 73
     4
 74
     0
 42
0.0000000001
 43
0.0000000001
 40
0.0
 40
0.0
 40
0.0
 40
0.0
 40
1.0
 40
1.0
 40
1.0
 40
1.0
 10
51.5257
 20
-3.5604
 30
0.0
 10
51.5257
 20
-3.5604
 30
0.0
 10
51.5257
 20
8.4167
 30
0.0
 10
51.5257
 20
8.4167
 30
0.0
  0
SPLINE
  5
6E
330
1F
100
AcDbEntity
  8
VRSTVA_1
 62
   250
100
AcDbSpline
210
0.0
220
0.0
230
1.0
 70
    24
 71
     3
 72
     8
 73
     4
 74
     0
 42
0.0000000001
 43
0.0000000001
 40
0.0
 40
0.0
 40
0.0
 40
0.0
 40
1.0
 40
1.0
 40
1.0
 40
1.0
 10
-35.6834
 20
7.8933
 30
0.0
 10
-35.6834
 20
7.8933
 30
0.0
 10
51.0788
 20
7.8933
 30
0.0
 10
51.0788
 20
7.8933
 30
0.0
  0
SPLINE
  5
6F
330
1F
100
AcDbEntity
  8
VRSTVA_1
 62
   250
100
AcDbSpline
210
0.0
220
0.0
230
1.0
 70
    27
 71
     3
 72
    12
 73
     8
 74
     0
 42
0.0000000001
 43
0.0000000001
 40
0.0
 40
0.0
 40
0.0
 40
0.0
 40
0.3333333333333333
 40
0.3333333333333333
 40
0.3333333333333333
 40
0.3333333333333333
 40
1.0
 40
1.0
 40
1.0
 40
1.0
 10
-31.5184
 20
19.1569
 30
0.0
 10
-31.5184
 20
19.1569
 30
0.0
 10
-31.5539
 20
-8.9199
 30
0.0
 10
-31.5539
 20
-8.9199
 30
0.0
 10
-31.5539
 20
-8.9199
 30
0.0
 10
-31.5539
 20
-8.9199
 30
0.0
 10
-31.5184
 20
19.1569
 30
0.0
 10
-31.5184
 20
19.1569
 30
0.0
  0
SPLINE
  5
70
330
1F
100
AcDbEntity
  8
VRSTVA_1
 62
   250
100
AcDbSpline
210
0.0
220
0.0
230
1.0
 70
    27
 71
     3
 72
    12
 73
     8
 74
     0
 42
0.0000000001
 43
0.0000000001
 40
0.0
 40
0.0
 40
0.0
 40
0.0
 40
0.3333333333333333
 40
0.3333333333333333
 40
0.3333333333333333
 40
0.3333333333333333
 40
1.0
 40
1.0
 40
1.0
 40
1.0
 10
-42.2878
 20
19.1569
 30
0.0
 10
-42.2878
 20
19.1569
 30
0.0
 10
-42.2523
 20
-8.9199
 30
0.0
 10
-42.2523
 20
-8.9199
 30
0.0
 10
-42.2523
 20
-8.9199
 30
0.0
 10
-42.2523
 20
-8.9199
 30
0.0
 10
-42.2878
 20
19.1569
 30
0.0
 10
-42.2878
 20
19.1569
 30
0.0
  0
SPLINE
  5
71
330
1F
100
AcDbEntity
  8
VRSTVA_1
  6
NEW_LINE1
 62
   250
100
AcDbSpline
210
0.0
220
0.0
230
1.0
 70
    24
 71
     3
 72
     8
 73
     4
 74
     0
 42
0.0000000001
 43
0.0000000001
 40
0.0
 40
0.0
 40
0.0
 40
0.0
 40
1.0
 40
1.0
 40
1.0
 40
1.0
 10
-36.9032
 20
-27.9178
 30
0.0
 10
-36.9032
 20
-27.9178
 30
0.0
 10
-36.9032
 20
25.2088
 30
0.0
 10
-36.9032
 20
25.2088
 30
0.0
  0
SPLINE
  5
73
330
1F
100
AcDbEntity
  8
VRSTVA_1
  6
NEW_LINE2
 62
   250
100
AcDbSpline
210
0.0
220
0.0
230
1.0
 70
    24
 71
     3
 72
     8
 73
     4
 74
     0
 42
0.0000000001
 43
0.0000000001
 40
0.0
 40
0.0
 40
0.0
 40
0.0
 40
1.0
 40
1.0
 40
1.0
 40
1.0
 10
-39.1684
 20
-25.3691
 30
0.0
 10
-39.1684
 20
-25.3691
 30
0.0
 10
-15.8525
 20
-25.3691
 30
0.0
 10
-15.8525
 20
-25.3691
 30
0.0
  0
SPLINE
  5
75
330
1F
100
AcDbEntity
  8
VRSTVA_1
  6
NEW_LINE3
 62
   250
100
AcDbSpline
210
0.0
220
0.0
230
1.0
 70
    24
 71
     3
 72
     8
 73
     4
 74
     0
 42
0.0000000001
 43
0.0000000001
 40
0.0
 40
0.0
 40
0.0
 40
0.0
 40
1.0
 40
1.0
 40
1.0
 40
1.0
 10
-18.0447
 20
-6.6965
 30
0.0
 10
-18.0447
 20
-6.6965
 30
0.0
 10
-18.0447
 20
-26.8991
 30
0.0
 10
-18.0447
 20
-26.8991
 30
0.0
  0
SPLINE
  5
77
330
1F
100
AcDbEntity
  8
VRSTVA_1
  6
NEW_LINE4
 62
   250
100
AcDbSpline
210
0.0
220
0.0
230
1.0
 70
    24
 71
     3
 72
     8
 73
     4
 74
     0
 42
0.0000000001
 43
0.0000000001
 40
0.0
 40
0.0
 40
0.0
 40
0.0
 40
1.0
 40
1.0
 40
1.0
 40
1.0
 10
-19.5049
 20
-9.9086
 30
0.0
 10
-19.5049
 20
-9.9086
 30
0.0
 10
54.9735
 20
-9.9086
 30
0.0
 10
54.9735
 20
-9.9086
 30
0.0
  0
SPLINE
  5
79
330
1F
100
AcDbEntity
  8
VRSTVA_1
 62
   250
100
AcDbSpline
210
0.0
220
0.0
230
1.0
 70
     8
 71
     3
 72
     8
 73
     4
 74
     0
 42
0.0000000001
 43
0.0000000001
 40
0.0
 40
0.0
 40
0.0
 40
0.0
 40
1.0
 40
1.0
 40
1.0
 40
1.0
 10
-18.0446
 20
-2.3482
 30
0.0
 10
-22.22
 20
-2.3482
 30
0.0
 10
-25.605
 20
-5.733
 30
0.0
 10
-25.605
 20
-9.9086
 30
0.0
  0
SPLINE
  5
7A
330
1F
100
AcDbEntity
  8
VRSTVA_1
 62
   250
100
AcDbSpline
210
0.0
220
0.0
230
1.0
 70
     8
 71
     3
 72
    48
 73
    44
 74
     0
 42
0.0000000001
 43
0.0000000001
 40
0.0
 40
0.0
 40
0.0
 40
0.0
 40
0.0833333333333333
 40
0.0833333333333333
 40
0.0833333333333333
 40
0.0833333333333333
 40
0.1666666666666667
 40
0.1666666666666667
 40
0.1666666666666667
 40
0.1666666666666667
 40
0.25
 40
0.25
 40
0.25
 40
0.25
 40
0.3333333333333333
 40
0.3333333333333333
 40
0.3333333333333333
 40
0.3333333333333333
 40
0.4166666666666667
 40
0.4166666666666667
 40
0.4166666666666667
 40
0.4166666666666667
 40
0.5
 40
0.5
 40
0.5
 40
0.5
 40
0.5833333333333334
 40
0.5833333333333334
 40
0.5833333333333334
 40
0.5833333333333334
 40
0.6666666666666666
 40
0.6666666666666666
 40
0.6666666666666666
 40
0.6666666666666666
 40
0.75
 40
0.75
 40
0.75
 40
0.75
 40
0.8333333333333334
 40
0.8333333333333334
 40
0.8333333333333334
 40
0.8333333333333334
 40
1.0
 40
1.0
 40
1.0
 40
1.0
 10
-18.0446
 20
-9.9086
 30
0.0
 10
-18.0446
 20
-9.9086
 30
0.0
 10
-16.7487
 20
-11.2045
 30
0.0
 10
-16.7487
 20
-11.2045
 30
0.0
 10
-16.7487
 20
-11.2045
 30
0.0
 10
-16.7487
 20
-11.2045
 30
0.0
 10
-15.7177
 20
-12.2355
 30
0.0
 10
-15.7177
 20
-12.2355
 30
0.0
 10
-15.7177
 20
-12.2355
 30
0.0
 10
-15.7177
 20
-12.2355
 30
0.0
 10
-14.6887
 20
-13.2645
 30
0.0
 10
-14.6887
 20
-13.2645
 30
0.0
 10
-14.6887
 20
-13.2645
 30
0.0
 10
-14.6887
 20
-13.2645
 30
0.0
 10
-13.6821
 20
-14.2711
 30
0.0
 10
-13.6821
 20
-14.2711
 30
0.0
 10
-13.6821
 20
-14.2711
 30
0.0
 10
-13.6821
 20
-14.2711
 30
0.0
 10
-12.7773
 20
-15.1759
 30
0.0
 10
-12.7773
 20
-15.1759
 30
0.0
 10
-12.7773
 20
-15.1759
 30
0.0
 10
-12.7773
 20
-15.1759
 30
0.0
 10
-12.0236
 20
-15.9296
 30
0.0
 10
-12.0236
 20
-15.9296
 30
0.0
 10
-12.0236
 20
-15.9296
 30
0.0
 10
-12.0236
 20
-15.9296
 30
0.0
 10
-11.4412
 20
-16.5121
 30
0.0
 10
-11.4412
 20
-16.5121
 30
0.0
 10
-11.4412
 20
-16.5121
 30
0.0
 10
-11.4412
 20
-16.5121
 30
0.0
 10
-11.0109
 20
-16.9423
 30
0.0
 10
-11.0109
 20
-16.9423
 30
0.0
 10
-11.0109
 20
-16.9423
 30
0.0
 10
-11.0109
 20
-16.9423
 30
0.0
 10
-10.7164
 20
-17.2367
 30
0.0
 10
-10.7164
 20
-17.2367
 30
0.0
 10
-10.7164
 20
-17.2367
 30
0.0
 10
-10.7164
 20
-17.2367
 30
0.0
 10
-10.5421
 20
-17.4111
 30
0.0
 10
-10.5421
 20
-17.4111
 30
0.0
 10
-10.5421
 20
-17.4111
 30
0.0
 10
-10.5421
 20
-17.4111
 30
0.0
 10
-10.4842
 20
-17.469
 30
0.0
 10
-10.4842
 20
-17.469
 30
0.0
  0
SPLINE
  5
7B
330
1F
100
AcDbEntity
  8
VRSTVA_1
 62
   250
100
AcDbSpline
210
0.0
220
0.0
230
1.0
 70
     8
 71
     3
 72
     8
 73
     4
 74
     0
 42
0.0000000001
 43
0.0000000001
 40
0.0
 40
0.0
 40
0.0
 40
0.0
 40
1.0
 40
1.0
 40
1.0
 40
1.0
 10
-44.4635
 20
-25.3691
 30
0.0
 10
-44.4635
 20
-29.5445
 30
0.0
 10
-41.0785
 20
-32.9295
 30
0.0
 10
-36.9031
 20
-32.9295
 30
0.0
  0
SPLINE
  5
7C
330
1F
100
AcDbEntity
  8
VRSTVA_1
 62
   250
100
AcDbSpline
210
0.0
220
0.0
230
1.0
 70
     8
 71
     3
 72
    24
 73
    20
 74
     0
 42
0.0000000001
 43
0.0000000001
 40
0.0
 40
0.0
 40
0.0
 40
0.0
 40
0.1666666666666667
 40
0.1666666666666667
 40
0.1666666666666667
 40
0.1666666666666667
 40
0.3333333333333333
 40
0.3333333333333333
 40
0.3333333333333333
 40
0.3333333333333333
 40
0.5
 40
0.5
 40
0.5
 40
0.5
 40
0.6666666666666666
 40
0.6666666666666666
 40
0.6666666666666666
 40
0.6666666666666666
 40
1.0
 40
1.0
 40
1.0
 40
1.0
 10
-45.076
 20
-14.1531
 30
0.0
 10
-45.076
 20
-14.1531
 30
0.0
 10
-45.1104
 20
-15.0841
 30
0.0
 10
-45.1104
 20
-15.0841
 30
0.0
 10
-45.1104
 20
-15.0841
 30
0.0
 10
-45.1104
 20
-15.0841
 30
0.0
 10
-44.4635
 20
-15.5151
 30
0.0
 10
-44.4635
 20
-15.5151
 30
0.0
 10
-44.4635
 20
-15.5151
 30
0.0
 10
-44.4635
 20
-15.5151
 30
0.0
 10
-29.3427
 20
-15.5151
 30
0.0
 10
-29.3427
 20
-15.5151
 30
0.0
 10
-29.3427
 20
-15.5151
 30
0.0
 10
-29.3427
 20
-15.5151
 30
0.0
 10
-28.7312
 20
-15.2221
 30
0.0
 10
-28.7312
 20
-15.2221
 30
0.0
 10
-28.7312
 20
-15.2221
 30
0.0
 10
-28.7312
 20
-15.2221
 30
0.0
 10
-28.7312
 20
-14.1877
 30
0.0
 10
-28.7312
 20
-14.1877
 30
0.0
  0
SPLINE
  5
7D
330
1F
100
AcDbEntity
  8
VRSTVA_1
 62
   250
100
AcDbSpline
210
0.0
220
0.0
230
1.0
 70
     8
 71
     3
 72
    48
 73
    44
 74
     0
 42
0.0000000001
 43
0.0000000001
 40
0.0
 40
0.0
 40
0.0
 40
0.0
 40
0.0833333333333333
 40
0.0833333333333333
 40
0.0833333333333333
 40
0.0833333333333333
 40
0.1666666666666667
 40
0.1666666666666667
 40
0.1666666666666667
 40
0.1666666666666667
 40
0.25
 40
0.25
 40
0.25
 40
0.25
 40
0.3333333333333333
 40
0.3333333333333333
 40
0.3333333333333333
 40
0.3333333333333333
 40
0.4166666666666667
 40
0.4166666666666667
 40
0.4166666666666667
 40
0.4166666666666667
 40
0.5
 40
0.5
 40
0.5
 40
0.5
 40
0.5833333333333334
 40
0.5833333333333334
 40
0.5833333333333334
 40
0.5833333333333334
 40
0.6666666666666666
 40
0.6666666666666666
 40
0.6666666666666666
 40
0.6666666666666666
 40
0.75
 40
0.75
 40
0.75
 40
0.75
 40
0.8333333333333334
 40
0.8333333333333334
 40
0.8333333333333334
 40
0.8333333333333334
 40
1.0
 40
1.0
 40
1.0
 40
1.0
 10
-36.9031
 20
-25.3691
 30
0.0
 10
-36.9031
 20
-25.3691
 30
0.0
 10
-35.6196
 20
-24.0856
 30
0.0
 10
-35.6196
 20
-24.0856
 30
0.0
 10
-35.6196
 20
-24.0856
 30
0.0
 10
-35.6196
 20
-24.0856
 30
0.0
 10
-34.6035
 20
-23.0695
 30
0.0
 10
-34.6035
 20
-23.0695
 30
0.0
 10
-34.6035
 20
-23.0695
 30
0.0
 10
-34.6035
 20
-23.0695
 30
0.0
 10
-33.584
 20
-22.05
 30
0.0
 10
-33.584
 20
-22.05
 30
0.0
 10
-33.584
 20
-22.05
 30
0.0
 10
-33.584
 20
-22.05
 30
0.0
 10
-32.5761
 20
-21.0421
 30
0.0
 10
-32.5761
 20
-21.0421
 30
0.0
 10
-32.5761
 20
-21.0421
 30
0.0
 10
-32.5761
 20
-21.0421
 30
0.0
 10
-31.6632
 20
-20.1292
 30
0.0
 10
-31.6632
 20
-20.1292
 30
0.0
 10
-31.6632
 20
-20.1292
 30
0.0
 10
-31.6632
 20
-20.1292
 30
0.0
 10
-30.8999
 20
-19.3659
 30
0.0
 10
-30.8999
 20
-19.3659
 30
0.0
 10
-30.8999
 20
-19.3659
 30
0.0
 10
-30.8999
 20
-19.3659
 30
0.0
 10
-30.3104
 20
-18.7763
 30
0.0
 10
-30.3104
 20
-18.7763
 30
0.0
 10
-30.3104
 20
-18.7763
 30
0.0
 10
-30.3104
 20
-18.7763
 30
0.0
 10
-29.8751
 20
-18.3411
 30
0.0
 10
-29.8751
 20
-18.3411
 30
0.0
 10
-29.8751
 20
-18.3411
 30
0.0
 10
-29.8751
 20
-18.3411
 30
0.0
 10
-29.5774
 20
-18.0434
 30
0.0
 10
-29.5774
 20
-18.0434
 30
0.0
 10
-29.5774
 20
-18.0434
 30
0.0
 10
-29.5774
 20
-18.0434
 30
0.0
 10
-29.4012
 20
-17.8671
 30
0.0
 10
-29.4012
 20
-17.8671
 30
0.0
 10
-29.4012
 20
-17.8671
 30
0.0
 10
-29.4012
 20
-17.8671
 30
0.0
 10
-29.3427
 20
-17.8087
 30
0.0
 10
-29.3427
 20
-17.8087
 30
0.0
  0
SPLINE
  5
7E
330
1F
100
AcDbEntity
  8
VRSTVA_1
 62
   250
100
AcDbSpline
210
0.0
220
0.0
230
1.0
 70
    11
 71
     3
 72
    52
 73
    48
 74
     0
 42
0.0000000001
 43
0.0000000001
 40
0.0
 40
0.0
 40
0.0
 40
0.0
 40
0.0769230769230769
 40
0.0769230769230769
 40
0.0769230769230769
 40
0.0769230769230769
 40
0.1538461538461539
 40
0.1538461538461539
 40
0.1538461538461539
 40
0.1538461538461539
 40
0.2307692307692308
 40
0.2307692307692308
 40
0.2307692307692308
 40
0.2307692307692308
 40
0.3076923076923077
 40
0.3076923076923077
 40
0.3076923076923077
 40
0.3076923076923077
 40
0.3846153846153846
 40
0.3846153846153846
 40
0.3846153846153846
 40
0.3846153846153846
 40
0.4615384615384616
 40
0.4615384615384616
 40
0.4615384615384616
 40
0.4615384615384616
 40
0.5384615384615384
 40
0.5384615384615384
 40
0.5384615384615384
 40
0.5384615384615384
 40
0.6153846153846154
 40
0.6153846153846154
 40
0.6153846153846154
 40
0.6153846153846154
 40
0.6923076923076923
 40
0.6923076923076923
 40
0.6923076923076923
 40
0.6923076923076923
 40
0.7692307692307693
 40
0.7692307692307693
 40
0.7692307692307693
 40
0.7692307692307693
 40
0.8461538461538461
 40
0.8461538461538461
 40
0.8461538461538461
 40
0.8461538461538461
 40
1.0
 40
1.0
 40
1.0
 40
1.0
 10
-8.1907
 20
-2.3482
 30
0.0
 10
-8.1907
 20
-2.3482
 30
0.0
 10
-8.1907
 20
-17.469
 30
0.0
 10
-8.1907
 20
-17.469
 30
0.0
 10
-8.1907
 20
-17.469
 30
0.0
 10
-8.1907
 20
-17.469
 30
0.0
 10
-10.4842
 20
-17.469
 30
0.0
 10
-10.4842
 20
-17.469
 30
0.0
 10
-10.4842
 20
-17.469
 30
0.0
 10
-10.4842
 20
-17.469
 30
0.0
 10
-10.4842
 20
-32.9295
 30
0.0
 10
-10.4842
 20
-32.9295
 30
0.0
 10
-10.4842
 20
-32.9295
 30
0.0
 10
-10.4842
 20
-32.9295
 30
0.0
 10
-36.9031
 20
-32.9295
 30
0.0
 10
-36.9031
 20
-32.9295
 30
0.0
 10
-36.9031
 20
-32.9295
 30
0.0
 10
-36.9031
 20
-32.9295
 30
0.0
 10
-10.4842
 20
-32.9295
 30
0.0
 10
-10.4842
 20
-32.9295
 30
0.0
 10
-10.4842
 20
-32.9295
 30
0.0
 10
-10.4842
 20
-32.9295
 30
0.0
 10
-10.4842
 20
-17.469
 30
0.0
 10
-10.4842
 20
-17.469
 30
0.0
 10
-10.4842
 20
-17.469
 30
0.0
 10
-10.4842
 20
-17.469
 30
0.0
 10
-8.1907
 20
-17.469
 30
0.0
 10
-8.1907
 20
-17.469
 30
0.0
 10
-8.1907
 20
-17.469
 30
0.0
 10
-8.1907
 20
-17.469
 30
0.0
 10
-8.1907
 20
-2.3482
 30
0.0
 10
-8.1907
 20
-2.3482
 30
0.0
 10
-8.1907
 20
-2.3482
 30
0.0
 10
-8.1907
 20
-2.3482
 30
0.0
 10
-17.9024
 20
-2.3482
 30
0.0
 10
-17.9024
 20
-2.3482
 30
0.0
 10
-17.9024
 20
-2.3482
 30
0.0
 10
-17.9024
 20
-2.3482
 30
0.0
 10
-18.0446
 20
-2.3482
 30
0.0
 10
-18.0446
 20
-2.3482
 30
0.0
 10
-18.0446
 20
-2.3482
 30
0.0
 10
-18.0446
 20
-2.3482
 30
0.0
 10
-17.9024
 20
-2.3482
 30
0.0
 10
-17.9024
 20
-2.3482
 30
0.0
 10
-17.9024
 20
-2.3482
 30
0.0
 10
-17.9024
 20
-2.3482
 30
0.0
 10
-8.1907
 20
-2.3482
 30
0.0
 10
-8.1907
 20
-2.3482
 30
0.0
  0
SPLINE
  5
7F
330
1F
100
AcDbEntity
  8
VRSTVA_1
 62
   250
100
AcDbSpline
210
0.0
220
0.0
230
1.0
 70
    11
 71
     3
 72
    28
 73
    24
 74
     0
 42
0.0000000001
 43
0.0000000001
 40
0.0
 40
0.0
 40
0.0
 40
0.0
 40
0.1428571428571428
 40
0.1428571428571428
 40
0.1428571428571428
 40
0.1428571428571428
 40
0.2857142857142857
 40
0.2857142857142857
 40
0.2857142857142857
 40
0.2857142857142857
 40
0.4285714285714285
 40
0.4285714285714285
 40
0.4285714285714285
 40
0.4285714285714285
 40
0.5714285714285714
 40
0.5714285714285714
 40
0.5714285714285714
 40
0.5714285714285714
 40
0.7142857142857143
 40
0.7142857142857143
 40
0.7142857142857143
 40
0.7142857142857143
 40
1.0
 40
1.0
 40
1.0
 40
1.0
 10
-25.605
 20
-17.8087
 30
0.0
 10
-25.605
 20
-17.8087
 30
0.0
 10
-25.605
 20
-9.9086
 30
0.0
 10
-25.605
 20
-9.9086
 30
0.0
 10
-25.605
 20
-9.9086
 30
0.0
 10
-25.605
 20
-9.9086
 30
0.0
 10
-25.605
 20
-17.8087
 30
0.0
 10
-25.605
 20
-17.8087
 30
0.0
 10
-25.605
 20
-17.8087
 30
0.0
 10
-25.605
 20
-17.8087
 30
0.0
 10
-29.3427
 20
-17.8087
 30
0.0
 10
-29.3427
 20
-17.8087
 30
0.0
 10
-29.3427
 20
-17.8087
 30
0.0
 10
-29.3427
 20
-17.8087
 30
0.0
 10
-29.3427
 20
-15.5151
 30
0.0
 10
-29.3427
 20
-15.5151
 30
0.0
 10
-29.3427
 20
-15.5151
 30
0.0
 10
-29.3427
 20
-15.5151
 30
0.0
 10
-29.3427
 20
-17.8087
 30
0.0
 10
-29.3427
 20
-17.8087
 30
0.0
 10
-29.3427
 20
-17.8087
 30
0.0
 10
-29.3427
 20
-17.8087
 30
0.0
 10
-25.605
 20
-17.8087
 30
0.0
 10
-25.605
 20
-17.8087
 30
0.0
  0
SPLINE
  5
80
330
1F
100
AcDbEntity
  8
VRSTVA_1
 62
   250
100
AcDbSpline
210
0.0
220
0.0
230
1.0
 70
    27
 71
     3
 72
    12
 73
     8
 74
     0
 42
0.0000000001
 43
0.0000000001
 40
0.0
 40
0.0
 40
0.0
 40
0.0
 40
0.3333333333333333
 40
0.3333333333333333
 40
0.3333333333333333
 40
0.3333333333333333
 40
1.0
 40
1.0
 40
1.0
 40
1.0
 10
-10.4842
 20
-32.9295
 30
0.0
 10
-10.4842
 20
-32.9295
 30
0.0
 10
-25.605
 20
-17.8087
 30
0.0
 10
-25.605
 20
-17.8087
 30
0.0
 10
-25.605
 20
-17.8087
 30
0.0
 10
-25.605
 20
-17.8087
 30
0.0
 10
-10.4842
 20
-32.9295
 30
0.0
 10
-10.4842
 20
-32.9295
 30
0.0
  0
SPLINE
  5
81
330
1F
100
AcDbEntity
  8
VRSTVA_1
 62
   250
100
AcDbSpline
210
0.0
220
0.0
230
1.0
 70
    27
 71
     3
 72
    12
 73
     8
 74
     0
 42
0.0000000001
 43
0.0000000001
 40
0.0
 40
0.0
 40
0.0
 40
0.0
 40
0.3333333333333333
 40
0.3333333333333333
 40
0.3333333333333333
 40
0.3333333333333333
 40
1.0
 40
1.0
 40
1.0
 40
1.0
 10
-44.4635
 20
-25.3691
 30
0.0
 10
-44.4635
 20
-25.3691
 30
0.0
 10
-44.4635
 20
-15.5151
 30
0.0
 10
-44.4635
 20
-15.5151
 30
0.0
 10
-44.4635
 20
-15.5151
 30
0.0
 10
-44.4635
 20
-15.5151
 30
0.0
 10
-44.4635
 20
-25.3691
 30
0.0
 10
-44.4635
 20
-25.3691
 30
0.0
  0
SPLINE
  5
82
330
1F
100
AcDbEntity
  8
VRSTVA_1
 62
   250
100
AcDbSpline
210
0.0
220
0.0
230
1.0
 70
     8
 71
     3
 72
    24
 73
    20
 74
     0
 42
0.0000000001
 43
0.0000000001
 40
0.0
 40
0.0
 40
0.0
 40
0.0
 40
0.1666666666666667
 40
0.1666666666666667
 40
0.1666666666666667
 40
0.1666666666666667
 40
0.3333333333333333
 40
0.3333333333333333
 40
0.3333333333333333
 40
0.3333333333333333
 40
0.5
 40
0.5
 40
0.5
 40
0.5
 40
0.6666666666666666
 40
0.6666666666666666
 40
0.6666666666666666
 40
0.6666666666666666
 40
1.0
 40
1.0
 40
1.0
 40
1.0
 10
-7.2027
 20
-18.0638
 30
0.0
 10
-7.2027
 20
-18.0638
 30
0.0
 10
-7.8636
 20
-18.0982
 30
0.0
 10
-7.8636
 20
-18.0982
 30
0.0
 10
-7.8636
 20
-18.0982
 30
0.0
 10
-7.8636
 20
-18.0982
 30
0.0
 10
-8.1696
 20
-17.4513
 30
0.0
 10
-8.1696
 20
-17.4513
 30
0.0
 10
-8.1696
 20
-17.4513
 30
0.0
 10
-8.1696
 20
-17.4513
 30
0.0
 10
-8.1696
 20
-2.3305
 30
0.0
 10
-8.1696
 20
-2.3305
 30
0.0
 10
-8.1696
 20
-2.3305
 30
0.0
 10
-8.1696
 20
-2.3305
 30
0.0
 10
-7.9616
 20
-1.719
 30
0.0
 10
-7.9616
 20
-1.719
 30
0.0
 10
-7.9616
 20
-1.719
 30
0.0
 10
-7.9616
 20
-1.719
 30
0.0
 10
-7.2273
 20
-1.719
 30
0.0
 10
-7.2273
 20
-1.719
 30
0.0
  0
SPLINE
  5
83
330
1F
100
AcDbEntity
  8
VRSTVA_1
 62
   250
100
AcDbSpline
210
0.0
220
0.0
230
1.0
 70
     8
 71
     3
 72
    28
 73
    24
 74
     0
 42
0.0000000001
 43
0.0000000001
 40
0.0
 40
0.0
 40
0.0
 40
0.0
 40
0.1428571428571428
 40
0.1428571428571428
 40
0.1428571428571428
 40
0.1428571428571428
 40
0.2857142857142857
 40
0.2857142857142857
 40
0.2857142857142857
 40
0.2857142857142857
 40
0.4285714285714285
 40
0.4285714285714285
 40
0.4285714285714285
 40
0.4285714285714285
 40
0.5714285714285714
 40
0.5714285714285714
 40
0.5714285714285714
 40
0.5714285714285714
 40
0.7142857142857143
 40
0.7142857142857143
 40
0.7142857142857143
 40
0.7142857142857143
 40
1.0
 40
1.0
 40
1.0
 40
1.0
 10
-45.1201
 20
19.8303
 30
0.0
 10
-45.1201
 20
19.4536
 30
0.0
 10
-44.8149
 20
19.1482
 30
0.0
 10
-44.4383
 20
19.1482
 30
0.0
 10
-44.4383
 20
19.1482
 30
0.0
 10
-44.4383
 20
19.1482
 30
0.0
 10
-29.382
 20
19.1406
 30
0.0
 10
-29.382
 20
19.1406
 30
0.0
 10
-29.382
 20
19.1406
 30
0.0
 10
-29.382
 20
19.1406
 30
0.0
 10
-29.1195
 20
19.2191
 30
0.0
 10
-29.1195
 20
19.2191
 30
0.0
 10
-29.1195
 20
19.2191
 30
0.0
 10
-29.1195
 20
19.2191
 30
0.0
 10
-28.9571
 20
19.3729
 30
0.0
 10
-28.9571
 20
19.3729
 30
0.0
 10
-28.9571
 20
19.3729
 30
0.0
 10
-28.9571
 20
19.3729
 30
0.0
 10
-28.7946
 20
19.5901
 30
0.0
 10
-28.7946
 20
19.5901
 30
0.0
 10
-28.7946
 20
19.5901
 30
0.0
 10
-28.7946
 20
19.5901
 30
0.0
 10
-28.7134
 20
19.8162
 30
0.0
 10
-28.7134
 20
19.8162
 30
0.0
  0
SPLINE
  5
84
330
1F
100
AcDbEntity
  8
VRSTVA_1
 62
   250
100
AcDbSpline
210
0.0
220
0.0
230
1.0
 70
    11
 71
     3
 72
    88
 73
    84
 74
     0
 42
0.0000000001
 43
0.0000000001
 40
0.0
 40
0.0
 40
0.0
 40
0.0
 40
0.0454545454545455
 40
0.0454545454545455
 40
0.0454545454545455
 40
0.0454545454545455
 40
0.0909090909090909
 40
0.0909090909090909
 40
0.0909090909090909
 40
0.0909090909090909
 40
0.1363636363636364
 40
0.1363636363636364
 40
0.1363636363636364
 40
0.1363636363636364
 40
0.1818181818181818
 40
0.1818181818181818
 40
0.1818181818181818
 40
0.1818181818181818
 40
0.2272727272727273
 40
0.2272727272727273
 40
0.2272727272727273
 40
0.2272727272727273
 40
0.2727272727272727
 40
0.2727272727272727
 40
0.2727272727272727
 40
0.2727272727272727
 40
0.3181818181818182
 40
0.3181818181818182
 40
0.3181818181818182
 40
0.3181818181818182
 40
0.3636363636363636
 40
0.3636363636363636
 40
0.3636363636363636
 40
0.3636363636363636
 40
0.4090909090909091
 40
0.4090909090909091
 40
0.4090909090909091
 40
0.4090909090909091
 40
0.4545454545454545
 40
0.4545454545454545
 40
0.4545454545454545
 40
0.4545454545454545
 40
0.5
 40
0.5
 40
0.5
 40
0.5
 40
0.5454545454545454
 40
0.5454545454545454
 40
0.5454545454545454
 40
0.5454545454545454
 40
0.5909090909090909
 40
0.5909090909090909
 40
0.5909090909090909
 40
0.5909090909090909
 40
0.6363636363636364
 40
0.6363636363636364
 40
0.6363636363636364
 40
0.6363636363636364
 40
0.6818181818181818
 40
0.6818181818181818
 40
0.6818181818181818
 40
0.6818181818181818
 40
0.7272727272727273
 40
0.7272727272727273
 40
0.7272727272727273
 40
0.7272727272727273
 40
0.7727272727272727
 40
0.7727272727272727
 40
0.7727272727272727
 40
0.7727272727272727
 40
0.8181818181818182
 40
0.8181818181818182
 40
0.8181818181818182
 40
0.8181818181818182
 40
0.8636363636363636
 40
0.8636363636363636
 40
0.8636363636363636
 40
0.8636363636363636
 40
0.9090909090909091
 40
0.9090909090909091
 40
0.9090909090909091
 40
0.9090909090909091
 40
1.0
 40
1.0
 40
1.0
 40
1.0
 10
-41.9001
 20
22.876
 30
0.0
 10
-41.9001
 20
22.876
 30
0.0
 10
-41.9602
 20
23.1175
 30
0.0
 10
-41.9602
 20
23.1175
 30
0.0
 10
-41.9602
 20
23.1175
 30
0.0
 10
-41.9602
 20
23.1175
 30
0.0
 10
-42.1289
 20
23.3833
 30
0.0
 10
-42.1289
 20
23.3833
 30
0.0
 10
-42.1289
 20
23.3833
 30
0.0
 10
-42.1289
 20
23.3833
 30
0.0
 10
-42.3215
 20
23.5039
 30
0.0
 10
-42.3215
 20
23.5039
 30
0.0
 10
-42.3215
 20
23.5039
 30
0.0
 10
-42.3215
 20
23.5039
 30
0.0
 10
-42.5673
 20
23.5495
 30
0.0
 10
-42.5673
 20
23.5495
 30
0.0
 10
-42.5673
 20
23.5495
 30
0.0
 10
-42.5673
 20
23.5495
 30
0.0
 10
-42.702
 20
23.5327
 30
0.0
 10
-42.702
 20
23.5327
 30
0.0
 10
-42.702
 20
23.5327
 30
0.0
 10
-42.702
 20
23.5327
 30
0.0
 10
-42.8336
 20
23.4818
 30
0.0
 10
-42.8336
 20
23.4818
 30
0.0
 10
-42.8336
 20
23.4818
 30
0.0
 10
-42.8336
 20
23.4818
 30
0.0
 10
-42.9518
 20
23.4
 30
0.0
 10
-42.9518
 20
23.4
 30
0.0
 10
-42.9518
 20
23.4
 30
0.0
 10
-42.9518
 20
23.4
 30
0.0
 10
-43.0495
 20
23.2934
 30
0.0
 10
-43.0495
 20
23.2934
 30
0.0
 10
-43.0495
 20
23.2934
 30
0.0
 10
-43.0495
 20
23.2934
 30
0.0
 10
-43.1245
 20
23.1642
 30
0.0
 10
-43.1245
 20
23.1642
 30
0.0
 10
-43.1245
 20
23.1642
 30
0.0
 10
-43.1245
 20
23.1642
 30
0.0
 10
-43.172
 20
23.0182
 30
0.0
 10
-43.172
 20
23.0182
 30
0.0
 10
-43.172
 20
23.0182
 30
0.0
 10
-43.172
 20
23.0182
 30
0.0
 10
-43.1877
 20
22.8676
 30
0.0
 10
-43.1877
 20
22.8676
 30
0.0
 10
-43.1877
 20
22.8676
 30
0.0
 10
-43.1877
 20
22.8676
 30
0.0
 10
-43.213
 20
20.4859
 30
0.0
 10
-43.213
 20
20.4859
 30
0.0
 10
-43.213
 20
20.4859
 30
0.0
 10
-43.213
 20
20.4859
 30
0.0
 10
-43.1288
 20
20.2323
 30
0.0
 10
-43.1288
 20
20.2323
 30
0.0
 10
-43.1288
 20
20.2323
 30
0.0
 10
-43.1288
 20
20.2323
 30
0.0
 10
-42.9963
 20
20.003
 30
0.0
 10
-42.9963
 20
20.003
 30
0.0
 10
-42.9963
 20
20.003
 30
0.0
 10
-42.9963
 20
20.003
 30
0.0
 10
-42.7673
 20
19.8098
 30
0.0
 10
-42.7673
 20
19.8098
 30
0.0
 10
-42.7673
 20
19.8098
 30
0.0
 10
-42.7673
 20
19.8098
 30
0.0
 10
-42.4783
 20
19.7857
 30
0.0
 10
-42.4783
 20
19.7857
 30
0.0
 10
-42.4783
 20
19.7857
 30
0.0
 10
-42.4783
 20
19.7857
 30
0.0
 10
-42.2252
 20
19.8702
 30
0.0
 10
-42.2252
 20
19.8702
 30
0.0
 10
-42.2252
 20
19.8702
 30
0.0
 10
-42.2252
 20
19.8702
 30
0.0
 10
-42.0083
 20
20.0755
 30
0.0
 10
-42.0083
 20
20.0755
 30
0.0
 10
-42.0083
 20
20.0755
 30
0.0
 10
-42.0083
 20
20.0755
 30
0.0
 10
-41.9241
 20
20.2202
 30
0.0
 10
-41.9241
 20
20.2202
 30
0.0
 10
-41.9241
 20
20.2202
 30
0.0
 10
-41.9241
 20
20.2202
 30
0.0
 10
-41.9241
 20
20.4376
 30
0.0
 10
-41.9241
 20
20.4376
 30
0.0
 10
-41.9241
 20
20.4376
 30
0.0
 10
-41.9241
 20
20.4376
 30
0.0
 10
-41.9001
 20
22.876
 30
0.0
 10
-41.9001
 20
22.876
 30
0.0
  0
SPLINE
  5
85
330
1F
100
AcDbEntity
  8
VRSTVA_1
 62
   250
100
AcDbSpline
210
0.0
220
0.0
230
1.0
 70
    11
 71
     3
 72
    88
 73
    84
 74
     0
 42
0.0000000001
 43
0.0000000001
 40
0.0
 40
0.0
 40
0.0
 40
0.0
 40
0.0454545454545455
 40
0.0454545454545455
 40
0.0454545454545455
 40
0.0454545454545455
 40
0.0909090909090909
 40
0.0909090909090909
 40
0.0909090909090909
 40
0.0909090909090909
 40
0.1363636363636364
 40
0.1363636363636364
 40
0.1363636363636364
 40
0.1363636363636364
 40
0.1818181818181818
 40
0.1818181818181818
 40
0.1818181818181818
 40
0.1818181818181818
 40
0.2272727272727273
 40
0.2272727272727273
 40
0.2272727272727273
 40
0.2272727272727273
 40
0.2727272727272727
 40
0.2727272727272727
 40
0.2727272727272727
 40
0.2727272727272727
 40
0.3181818181818182
 40
0.3181818181818182
 40
0.3181818181818182
 40
0.3181818181818182
 40
0.3636363636363636
 40
0.3636363636363636
 40
0.3636363636363636
 40
0.3636363636363636
 40
0.4090909090909091
 40
0.4090909090909091
 40
0.4090909090909091
 40
0.4090909090909091
 40
0.4545454545454545
 40
0.4545454545454545
 40
0.4545454545454545
 40
0.4545454545454545
 40
0.5
 40
0.5
 40
0.5
 40
0.5
 40
0.5454545454545454
 40
0.5454545454545454
 40
0.5454545454545454
 40
0.5454545454545454
 40
0.5909090909090909
 40
0.5909090909090909
 40
0.5909090909090909
 40
0.5909090909090909
 40
0.6363636363636364
 40
0.6363636363636364
 40
0.6363636363636364
 40
0.6363636363636364
 40
0.6818181818181818
 40
0.6818181818181818
 40
0.6818181818181818
 40
0.6818181818181818
 40
0.7272727272727273
 40
0.7272727272727273
 40
0.7272727272727273
 40
0.7272727272727273
 40
0.7727272727272727
 40
0.7727272727272727
 40
0.7727272727272727
 40
0.7727272727272727
 40
0.8181818181818182
 40
0.8181818181818182
 40
0.8181818181818182
 40
0.8181818181818182
 40
0.8636363636363636
 40
0.8636363636363636
 40
0.8636363636363636
 40
0.8636363636363636
 40
0.9090909090909091
 40
0.9090909090909091
 40
0.9090909090909091
 40
0.9090909090909091
 40
1.0
 40
1.0
 40
1.0
 40
1.0
 10
-30.4009
 20
22.907
 30
0.0
 10
-30.4009
 20
22.907
 30
0.0
 10
-30.461
 20
23.1485
 30
0.0
 10
-30.461
 20
23.1485
 30
0.0
 10
-30.461
 20
23.1485
 30
0.0
 10
-30.461
 20
23.1485
 30
0.0
 10
-30.6297
 20
23.4143
 30
0.0
 10
-30.6297
 20
23.4143
 30
0.0
 10
-30.6297
 20
23.4143
 30
0.0
 10
-30.6297
 20
23.4143
 30
0.0
 10
-30.8223
 20
23.5349
 30
0.0
 10
-30.8223
 20
23.5349
 30
0.0
 10
-30.8223
 20
23.5349
 30
0.0
 10
-30.8223
 20
23.5349
 30
0.0
 10
-31.0681
 20
23.5805
 30
0.0
 10
-31.0681
 20
23.5805
 30
0.0
 10
-31.0681
 20
23.5805
 30
0.0
 10
-31.0681
 20
23.5805
 30
0.0
 10
-31.2028
 20
23.5638
 30
0.0
 10
-31.2028
 20
23.5638
 30
0.0
 10
-31.2028
 20
23.5638
 30
0.0
 10
-31.2028
 20
23.5638
 30
0.0
 10
-31.3344
 20
23.5128
 30
0.0
 10
-31.3344
 20
23.5128
 30
0.0
 10
-31.3344
 20
23.5128
 30
0.0
 10
-31.3344
 20
23.5128
 30
0.0
 10
-31.4526
 20
23.431
 30
0.0
 10
-31.4526
 20
23.431
 30
0.0
 10
-31.4526
 20
23.431
 30
0.0
 10
-31.4526
 20
23.431
 30
0.0
 10
-31.5503
 20
23.3244
 30
0.0
 10
-31.5503
 20
23.3244
 30
0.0
 10
-31.5503
 20
23.3244
 30
0.0
 10
-31.5503
 20
23.3244
 30
0.0
 10
-31.6253
 20
23.1952
 30
0.0
 10
-31.6253
 20
23.1952
 30
0.0
 10
-31.6253
 20
23.1952
 30
0.0
 10
-31.6253
 20
23.1952
 30
0.0
 10
-31.6728
 20
23.0492
 30
0.0
 10
-31.6728
 20
23.0492
 30
0.0
 10
-31.6728
 20
23.0492
 30
0.0
 10
-31.6728
 20
23.0492
 30
0.0
 10
-31.6884
 20
22.8987
 30
0.0
 10
-31.6884
 20
22.8987
 30
0.0
 10
-31.6884
 20
22.8987
 30
0.0
 10
-31.6884
 20
22.8987
 30
0.0
 10
-31.7138
 20
20.517
 30
0.0
 10
-31.7138
 20
20.517
 30
0.0
 10
-31.7138
 20
20.517
 30
0.0
 10
-31.7138
 20
20.517
 30
0.0
 10
-31.6296
 20
20.2633
 30
0.0
 10
-31.6296
 20
20.2633
 30
0.0
 10
-31.6296
 20
20.2633
 30
0.0
 10
-31.6296
 20
20.2633
 30
0.0
 10
-31.4971
 20
20.034
 30
0.0
 10
-31.4971
 20
20.034
 30
0.0
 10
-31.4971
 20
20.034
 30
0.0
 10
-31.4971
 20
20.034
 30
0.0
 10
-31.2681
 20
19.8408
 30
0.0
 10
-31.2681
 20
19.8408
 30
0.0
 10
-31.2681
 20
19.8408
 30
0.0
 10
-31.2681
 20
19.8408
 30
0.0
 10
-30.9791
 20
19.8168
 30
0.0
 10
-30.9791
 20
19.8168
 30
0.0
 10
-30.9791
 20
19.8168
 30
0.0
 10
-30.9791
 20
19.8168
 30
0.0
 10
-30.726
 20
19.9012
 30
0.0
 10
-30.726
 20
19.9012
 30
0.0
 10
-30.726
 20
19.9012
 30
0.0
 10
-30.726
 20
19.9012
 30
0.0
 10
-30.5091
 20
20.1066
 30
0.0
 10
-30.5091
 20
20.1066
 30
0.0
 10
-30.5091
 20
20.1066
 30
0.0
 10
-30.5091
 20
20.1066
 30
0.0
 10
-30.4249
 20
20.2512
 30
0.0
 10
-30.4249
 20
20.2512
 30
0.0
 10
-30.4249
 20
20.2512
 30
0.0
 10
-30.4249
 20
20.2512
 30
0.0
 10
-30.4249
 20
20.4687
 30
0.0
 10
-30.4249
 20
20.4687
 30
0.0
 10
-30.4249
 20
20.4687
 30
0.0
 10
-30.4249
 20
20.4687
 30
0.0
 10
-30.4009
 20
22.907
 30
0.0
 10
-30.4009
 20
22.907
 30
0.0
  0
SPLINE
  5
86
330
1F
100
AcDbEntity
  8
VRSTVA_1
 62
   250
100
AcDbSpline
210
0.0
220
0.0
230
1.0
 70
    11
 71
     3
 72
    84
 73
    80
 74
     0
 42
0.0000000001
 43
0.0000000001
 40
0.0
 40
0.0
 40
0.0
 40
0.0
 40
0.0476190476190476
 40
0.0476190476190476
 40
0.0476190476190476
 40
0.0476190476190476
 40
0.0952380952380952
 40
0.0952380952380952
 40
0.0952380952380952
 40
0.0952380952380952
 40
0.1428571428571428
 40
0.1428571428571428
 40
0.1428571428571428
 40
0.1428571428571428
 40
0.1904761904761905
 40
0.1904761904761905
 40
0.1904761904761905
 40
0.1904761904761905
 40
0.2380952380952381
 40
0.2380952380952381
 40
0.2380952380952381
 40
0.2380952380952381
 40
0.2857142857142857
 40
0.2857142857142857
 40
0.2857142857142857
 40
0.2857142857142857
 40
0.3333333333333333
 40
0.3333333333333333
 40
0.3333333333333333
 40
0.3333333333333333
 40
0.3809523809523809
 40
0.3809523809523809
 40
0.3809523809523809
 40
0.3809523809523809
 40
0.4285714285714285
 40
0.4285714285714285
 40
0.4285714285714285
 40
0.4285714285714285
 40
0.4761904761904762
 40
0.4761904761904762
 40
0.4761904761904762
 40
0.4761904761904762
 40
0.5238095238095238
 40
0.5238095238095238
 40
0.5238095238095238
 40
0.5238095238095238
 40
0.5714285714285714
 40
0.5714285714285714
 40
0.5714285714285714
 40
0.5714285714285714
 40
0.6190476190476191
 40
0.6190476190476191
 40
0.6190476190476191
 40
0.6190476190476191
 40
0.6666666666666666
 40
0.6666666666666666
 40
0.6666666666666666
 40
0.6666666666666666
 40
0.7142857142857143
 40
0.7142857142857143
 40
0.7142857142857143
 40
0.7142857142857143
 40
0.7619047619047619
 40
0.7619047619047619
 40
0.7619047619047619
 40
0.7619047619047619
 40
0.8095238095238095
 40
0.8095238095238095
 40
0.8095238095238095
 40
0.8095238095238095
 40
0.8571428571428571
 40
0.8571428571428571
 40
0.8571428571428571
 40
0.8571428571428571
 40
0.9047619047619048
 40
0.9047619047619048
 40
0.9047619047619048
 40
0.9047619047619048
 40
1.0
 40
1.0
 40
1.0
 40
1.0
 10
-28.6303
 20
19.8942
 30
0.0
 10
-28.6303
 20
19.8942
 30
0.0
 10
-28.7757
 20
19.9074
 30
0.0
 10
-28.7757
 20
19.9074
 30
0.0
 10
-28.7757
 20
19.9074
 30
0.0
 10
-28.7757
 20
19.9074
 30
0.0
 10
-28.8418
 20
20.0534
 30
0.0
 10
-28.8418
 20
20.0534
 30
0.0
 10
-28.8418
 20
20.0534
 30
0.0
 10
-28.8418
 20
20.0534
 30
0.0
 10
-28.9214
 20
20.4115
 30
0.0
 10
-28.9214
 20
20.4115
 30
0.0
 10
-28.9214
 20
20.4115
 30
0.0
 10
-28.9214
 20
20.4115
 30
0.0
 10
-28.9347
 20
20.8092
 30
0.0
 10
-28.9347
 20
20.8092
 30
0.0
 10
-28.9347
 20
20.8092
 30
0.0
 10
-28.9347
 20
20.8092
 30
0.0
 10
-28.895
 20
23.2354
 30
0.0
 10
-28.895
 20
23.2354
 30
0.0
 10
-28.895
 20
23.2354
 30
0.0
 10
-28.895
 20
23.2354
 30
0.0
 10
-28.8551
 20
23.4343
 30
0.0
 10
-28.8551
 20
23.4343
 30
0.0
 10
-28.8551
 20
23.4343
 30
0.0
 10
-28.8551
 20
23.4343
 30
0.0
 10
-28.6945
 20
23.6288
 30
0.0
 10
-28.6945
 20
23.6288
 30
0.0
 10
-28.6945
 20
23.6288
 30
0.0
 10
-28.6945
 20
23.6288
 30
0.0
 10
-28.6508
 20
23.6183
 30
0.0
 10
-28.6508
 20
23.6183
 30
0.0
 10
-28.6508
 20
23.6183
 30
0.0
 10
-28.6508
 20
23.6183
 30
0.0
 10
-28.5262
 20
23.5635
 30
0.0
 10
-28.5262
 20
23.5635
 30
0.0
 10
-28.5262
 20
23.5635
 30
0.0
 10
-28.5262
 20
23.5635
 30
0.0
 10
-28.4269
 20
23.4853
 30
0.0
 10
-28.4269
 20
23.4853
 30
0.0
 10
-28.4269
 20
23.4853
 30
0.0
 10
-28.4269
 20
23.4853
 30
0.0
 10
-28.3572
 20
23.3984
 30
0.0
 10
-28.3572
 20
23.3984
 30
0.0
 10
-28.3572
 20
23.3984
 30
0.0
 10
-28.3572
 20
23.3984
 30
0.0
 10
-28.3127
 20
23.3137
 30
0.0
 10
-28.3127
 20
23.3137
 30
0.0
 10
-28.3127
 20
23.3137
 30
0.0
 10
-28.3127
 20
23.3137
 30
0.0
 10
-28.2863
 20
23.2351
 30
0.0
 10
-28.2863
 20
23.2351
 30
0.0
 10
-28.2863
 20
23.2351
 30
0.0
 10
-28.2863
 20
23.2351
 30
0.0
 10
-28.2701
 20
23.1572
 30
0.0
 10
-28.2701
 20
23.1572
 30
0.0
 10
-28.2701
 20
23.1572
 30
0.0
 10
-28.2701
 20
23.1572
 30
0.0
 10
-28.2598
 20
23.0651
 30
0.0
 10
-28.2598
 20
23.0651
 30
0.0
 10
-28.2598
 20
23.0651
 30
0.0
 10
-28.2598
 20
23.0651
 30
0.0
 10
-28.2561
 20
22.9567
 30
0.0
 10
-28.2561
 20
22.9567
 30
0.0
 10
-28.2561
 20
22.9567
 30
0.0
 10
-28.2561
 20
22.9567
 30
0.0
 10
-28.2466
 20
20.5175
 30
0.0
 10
-28.2466
 20
20.5175
 30
0.0
 10
-28.2466
 20
20.5175
 30
0.0
 10
-28.2466
 20
20.5175
 30
0.0
 10
-28.2598
 20
20.2123
 30
0.0
 10
-28.2598
 20
20.2123
 30
0.0
 10
-28.2598
 20
20.2123
 30
0.0
 10
-28.2598
 20
20.2123
 30
0.0
 10
-28.3921
 20
20.0135
 30
0.0
 10
-28.3921
 20
20.0135
 30
0.0
 10
-28.3921
 20
20.0135
 30
0.0
 10
-28.3921
 20
20.0135
 30
0.0
 10
-28.6303
 20
19.8942
 30
0.0
 10
-28.6303
 20
19.8942
 30
0.0
  0
SPLINE
  5
87
330
1F
100
AcDbEntity
  8
VRSTVA_1
 62
   250
100
AcDbSpline
210
0.0
220
0.0
230
1.0
 70
    11
 71
     3
 72
    88
 73
    84
 74
     0
 42
0.0000000001
 43
0.0000000001
 40
0.0
 40
0.0
 40
0.0
 40
0.0
 40
0.0454545454545455
 40
0.0454545454545455
 40
0.0454545454545455
 40
0.0454545454545455
 40
0.0909090909090909
 40
0.0909090909090909
 40
0.0909090909090909
 40
0.0909090909090909
 40
0.1363636363636364
 40
0.1363636363636364
 40
0.1363636363636364
 40
0.1363636363636364
 40
0.1818181818181818
 40
0.1818181818181818
 40
0.1818181818181818
 40
0.1818181818181818
 40
0.2272727272727273
 40
0.2272727272727273
 40
0.2272727272727273
 40
0.2272727272727273
 40
0.2727272727272727
 40
0.2727272727272727
 40
0.2727272727272727
 40
0.2727272727272727
 40
0.3181818181818182
 40
0.3181818181818182
 40
0.3181818181818182
 40
0.3181818181818182
 40
0.3636363636363636
 40
0.3636363636363636
 40
0.3636363636363636
 40
0.3636363636363636
 40
0.4090909090909091
 40
0.4090909090909091
 40
0.4090909090909091
 40
0.4090909090909091
 40
0.4545454545454545
 40
0.4545454545454545
 40
0.4545454545454545
 40
0.4545454545454545
 40
0.5
 40
0.5
 40
0.5
 40
0.5
 40
0.5454545454545454
 40
0.5454545454545454
 40
0.5454545454545454
 40
0.5454545454545454
 40
0.5909090909090909
 40
0.5909090909090909
 40
0.5909090909090909
 40
0.5909090909090909
 40
0.6363636363636364
 40
0.6363636363636364
 40
0.6363636363636364
 40
0.6363636363636364
 40
0.6818181818181818
 40
0.6818181818181818
 40
0.6818181818181818
 40
0.6818181818181818
 40
0.7272727272727273
 40
0.7272727272727273
 40
0.7272727272727273
 40
0.7272727272727273
 40
0.7727272727272727
 40
0.7727272727272727
 40
0.7727272727272727
 40
0.7727272727272727
 40
0.8181818181818182
 40
0.8181818181818182
 40
0.8181818181818182
 40
0.8181818181818182
 40
0.8636363636363636
 40
0.8636363636363636
 40
0.8636363636363636
 40
0.8636363636363636
 40
0.9090909090909091
 40
0.9090909090909091
 40
0.9090909090909091
 40
0.9090909090909091
 40
1.0
 40
1.0
 40
1.0
 40
1.0
 10
-36.1955
 20
22.9381
 30
0.0
 10
-36.1955
 20
22.9381
 30
0.0
 10
-36.2557
 20
23.1796
 30
0.0
 10
-36.2557
 20
23.1796
 30
0.0
 10
-36.2557
 20
23.1796
 30
0.0
 10
-36.2557
 20
23.1796
 30
0.0
 10
-36.4243
 20
23.4453
 30
0.0
 10
-36.4243
 20
23.4453
 30
0.0
 10
-36.4243
 20
23.4453
 30
0.0
 10
-36.4243
 20
23.4453
 30
0.0
 10
-36.617
 20
23.5659
 30
0.0
 10
-36.617
 20
23.5659
 30
0.0
 10
-36.617
 20
23.5659
 30
0.0
 10
-36.617
 20
23.5659
 30
0.0
 10
-36.8628
 20
23.6115
 30
0.0
 10
-36.8628
 20
23.6115
 30
0.0
 10
-36.8628
 20
23.6115
 30
0.0
 10
-36.8628
 20
23.6115
 30
0.0
 10
-36.9974
 20
23.5948
 30
0.0
 10
-36.9974
 20
23.5948
 30
0.0
 10
-36.9974
 20
23.5948
 30
0.0
 10
-36.9974
 20
23.5948
 30
0.0
 10
-37.1291
 20
23.5438
 30
0.0
 10
-37.1291
 20
23.5438
 30
0.0
 10
-37.1291
 20
23.5438
 30
0.0
 10
-37.1291
 20
23.5438
 30
0.0
 10
-37.2473
 20
23.4621
 30
0.0
 10
-37.2473
 20
23.4621
 30
0.0
 10
-37.2473
 20
23.4621
 30
0.0
 10
-37.2473
 20
23.4621
 30
0.0
 10
-37.345
 20
23.3555
 30
0.0
 10
-37.345
 20
23.3555
 30
0.0
 10
-37.345
 20
23.3555
 30
0.0
 10
-37.345
 20
23.3555
 30
0.0
 10
-37.42
 20
23.2262
 30
0.0
 10
-37.42
 20
23.2262
 30
0.0
 10
-37.42
 20
23.2262
 30
0.0
 10
-37.42
 20
23.2262
 30
0.0
 10
-37.4675
 20
23.0803
 30
0.0
 10
-37.4675
 20
23.0803
 30
0.0
 10
-37.4675
 20
23.0803
 30
0.0
 10
-37.4675
 20
23.0803
 30
0.0
 10
-37.4831
 20
22.9297
 30
0.0
 10
-37.4831
 20
22.9297
 30
0.0
 10
-37.4831
 20
22.9297
 30
0.0
 10
-37.4831
 20
22.9297
 30
0.0
 10
-37.5085
 20
20.548
 30
0.0
 10
-37.5085
 20
20.548
 30
0.0
 10
-37.5085
 20
20.548
 30
0.0
 10
-37.5085
 20
20.548
 30
0.0
 10
-37.4243
 20
20.2944
 30
0.0
 10
-37.4243
 20
20.2944
 30
0.0
 10
-37.4243
 20
20.2944
 30
0.0
 10
-37.4243
 20
20.2944
 30
0.0
 10
-37.2918
 20
20.065
 30
0.0
 10
-37.2918
 20
20.065
 30
0.0
 10
-37.2918
 20
20.065
 30
0.0
 10
-37.2918
 20
20.065
 30
0.0
 10
-37.0627
 20
19.8718
 30
0.0
 10
-37.0627
 20
19.8718
 30
0.0
 10
-37.0627
 20
19.8718
 30
0.0
 10
-37.0627
 20
19.8718
 30
0.0
 10
-36.7738
 20
19.8478
 30
0.0
 10
-36.7738
 20
19.8478
 30
0.0
 10
-36.7738
 20
19.8478
 30
0.0
 10
-36.7738
 20
19.8478
 30
0.0
 10
-36.5207
 20
19.9323
 30
0.0
 10
-36.5207
 20
19.9323
 30
0.0
 10
-36.5207
 20
19.9323
 30
0.0
 10
-36.5207
 20
19.9323
 30
0.0
 10
-36.3037
 20
20.1376
 30
0.0
 10
-36.3037
 20
20.1376
 30
0.0
 10
-36.3037
 20
20.1376
 30
0.0
 10
-36.3037
 20
20.1376
 30
0.0
 10
-36.2195
 20
20.2822
 30
0.0
 10
-36.2195
 20
20.2822
 30
0.0
 10
-36.2195
 20
20.2822
 30
0.0
 10
-36.2195
 20
20.2822
 30
0.0
 10
-36.2195
 20
20.4997
 30
0.0
 10
-36.2195
 20
20.4997
 30
0.0
 10
-36.2195
 20
20.4997
 30
0.0
 10
-36.2195
 20
20.4997
 30
0.0
 10
-36.1955
 20
22.9381
 30
0.0
 10
-36.1955
 20
22.9381
 30
0.0
  0
SPLINE
  5
88
330
1F
100
AcDbEntity
  8
VRSTVA_1
 62
   250
100
AcDbSpline
210
0.0
220
0.0
230
1.0
 70
    11
 71
     3
 72
    84
 73
    80
 74
     0
 42
0.0000000001
 43
0.0000000001
 40
0.0
 40
0.0
 40
0.0
 40
0.0
 40
0.0476190476190476
 40
0.0476190476190476
 40
0.0476190476190476
 40
0.0476190476190476
 40
0.0952380952380952
 40
0.0952380952380952
 40
0.0952380952380952
 40
0.0952380952380952
 40
0.1428571428571428
 40
0.1428571428571428
 40
0.1428571428571428
 40
0.1428571428571428
 40
0.1904761904761905
 40
0.1904761904761905
 40
0.1904761904761905
 40
0.1904761904761905
 40
0.2380952380952381
 40
0.2380952380952381
 40
0.2380952380952381
 40
0.2380952380952381
 40
0.2857142857142857
 40
0.2857142857142857
 40
0.2857142857142857
 40
0.2857142857142857
 40
0.3333333333333333
 40
0.3333333333333333
 40
0.3333333333333333
 40
0.3333333333333333
 40
0.3809523809523809
 40
0.3809523809523809
 40
0.3809523809523809
 40
0.3809523809523809
 40
0.4285714285714285
 40
0.4285714285714285
 40
0.4285714285714285
 40
0.4285714285714285
 40
0.4761904761904762
 40
0.4761904761904762
 40
0.4761904761904762
 40
0.4761904761904762
 40
0.5238095238095238
 40
0.5238095238095238
 40
0.5238095238095238
 40
0.5238095238095238
 40
0.5714285714285714
 40
0.5714285714285714
 40
0.5714285714285714
 40
0.5714285714285714
 40
0.6190476190476191
 40
0.6190476190476191
 40
0.6190476190476191
 40
0.6190476190476191
 40
0.6666666666666666
 40
0.6666666666666666
 40
0.6666666666666666
 40
0.6666666666666666
 40
0.7142857142857143
 40
0.7142857142857143
 40
0.7142857142857143
 40
0.7142857142857143
 40
0.7619047619047619
 40
0.7619047619047619
 40
0.7619047619047619
 40
0.7619047619047619
 40
0.8095238095238095
 40
0.8095238095238095
 40
0.8095238095238095
 40
0.8095238095238095
 40
0.8571428571428571
 40
0.8571428571428571
 40
0.8571428571428571
 40
0.8571428571428571
 40
0.9047619047619048
 40
0.9047619047619048
 40
0.9047619047619048
 40
0.9047619047619048
 40
1.0
 40
1.0
 40
1.0
 40
1.0
 10
-45.1832
 20
23.5746
 30
0.0
 10
-45.1832
 20
23.5746
 30
0.0
 10
-45.0378
 20
23.5613
 30
0.0
 10
-45.0378
 20
23.5613
 30
0.0
 10
-45.0378
 20
23.5613
 30
0.0
 10
-45.0378
 20
23.5613
 30
0.0
 10
-44.9717
 20
23.4154
 30
0.0
 10
-44.9717
 20
23.4154
 30
0.0
 10
-44.9717
 20
23.4154
 30
0.0
 10
-44.9717
 20
23.4154
 30
0.0
 10
-44.8921
 20
23.0573
 30
0.0
 10
-44.8921
 20
23.0573
 30
0.0
 10
-44.8921
 20
23.0573
 30
0.0
 10
-44.8921
 20
23.0573
 30
0.0
 10
-44.8789
 20
22.6596
 30
0.0
 10
-44.8789
 20
22.6596
 30
0.0
 10
-44.8789
 20
22.6596
 30
0.0
 10
-44.8789
 20
22.6596
 30
0.0
 10
-44.9185
 20
20.2334
 30
0.0
 10
-44.9185
 20
20.2334
 30
0.0
 10
-44.9185
 20
20.2334
 30
0.0
 10
-44.9185
 20
20.2334
 30
0.0
 10
-44.9585
 20
20.0345
 30
0.0
 10
-44.9585
 20
20.0345
 30
0.0
 10
-44.9585
 20
20.0345
 30
0.0
 10
-44.9585
 20
20.0345
 30
0.0
 10
-45.119
 20
19.84
 30
0.0
 10
-45.119
 20
19.84
 30
0.0
 10
-45.119
 20
19.84
 30
0.0
 10
-45.119
 20
19.84
 30
0.0
 10
-45.1627
 20
19.8505
 30
0.0
 10
-45.1627
 20
19.8505
 30
0.0
 10
-45.1627
 20
19.8505
 30
0.0
 10
-45.1627
 20
19.8505
 30
0.0
 10
-45.2874
 20
19.9053
 30
0.0
 10
-45.2874
 20
19.9053
 30
0.0
 10
-45.2874
 20
19.9053
 30
0.0
 10
-45.2874
 20
19.9053
 30
0.0
 10
-45.3867
 20
19.9835
 30
0.0
 10
-45.3867
 20
19.9835
 30
0.0
 10
-45.3867
 20
19.9835
 30
0.0
 10
-45.3867
 20
19.9835
 30
0.0
 10
-45.4563
 20
20.0704
 30
0.0
 10
-45.4563
 20
20.0704
 30
0.0
 10
-45.4563
 20
20.0704
 30
0.0
 10
-45.4563
 20
20.0704
 30
0.0
 10
-45.5008
 20
20.1551
 30
0.0
 10
-45.5008
 20
20.1551
 30
0.0
 10
-45.5008
 20
20.1551
 30
0.0
 10
-45.5008
 20
20.1551
 30
0.0
 10
-45.5273
 20
20.2337
 30
0.0
 10
-45.5273
 20
20.2337
 30
0.0
 10
-45.5273
 20
20.2337
 30
0.0
 10
-45.5273
 20
20.2337
 30
0.0
 10
-45.5435
 20
20.3116
 30
0.0
 10
-45.5435
 20
20.3116
 30
0.0
 10
-45.5435
 20
20.3116
 30
0.0
 10
-45.5435
 20
20.3116
 30
0.0
 10
-45.5537
 20
20.4036
 30
0.0
 10
-45.5537
 20
20.4036
 30
0.0
 10
-45.5537
 20
20.4036
 30
0.0
 10
-45.5537
 20
20.4036
 30
0.0
 10
-45.5575
 20
20.5121
 30
0.0
 10
-45.5575
 20
20.5121
 30
0.0
 10
-45.5575
 20
20.5121
 30
0.0
 10
-45.5575
 20
20.5121
 30
0.0
 10
-45.5669
 20
22.9513
 30
0.0
 10
-45.5669
 20
22.9513
 30
0.0
 10
-45.5669
 20
22.9513
 30
0.0
 10
-45.5669
 20
22.9513
 30
0.0
 10
-45.5537
 20
23.2565
 30
0.0
 10
-45.5537
 20
23.2565
 30
0.0
 10
-45.5537
 20
23.2565
 30
0.0
 10
-45.5537
 20
23.2565
 30
0.0
 10
-45.4215
 20
23.4553
 30
0.0
 10
-45.4215
 20
23.4553
 30
0.0
 10
-45.4215
 20
23.4553
 30
0.0
 10
-45.4215
 20
23.4553
 30
0.0
 10
-45.1832
 20
23.5746
 30
0.0
 10
-45.1832
 20
23.5746
 30
0.0
  0
SPLINE
  5
89
330
1F
100
AcDbEntity
  8
VRSTVA_1
 62
   250
100
AcDbSpline
210
0.0
220
0.0
230
1.0
 70
     8
 71
     3
 72
    24
 73
    20
 74
     0
 42
0.0000000001
 43
0.0000000001
 40
0.0
 40
0.0
 40
0.0
 40
0.0
 40
0.1666666666666667
 40
0.1666666666666667
 40
0.1666666666666667
 40
0.1666666666666667
 40
0.3333333333333333
 40
0.3333333333333333
 40
0.3333333333333333
 40
0.3333333333333333
 40
0.5
 40
0.5
 40
0.5
 40
0.5
 40
0.6666666666666666
 40
0.6666666666666666
 40
0.6666666666666666
 40
0.6666666666666666
 40
1.0
 40
1.0
 40
1.0
 40
1.0
 10
-45.1201
 20
23.5805
 30
0.0
 10
-45.1201
 20
23.9572
 30
0.0
 10
-44.8149
 20
24.2623
 30
0.0
 10
-44.4383
 20
24.2623
 30
0.0
 10
-44.4383
 20
24.2623
 30
0.0
 10
-44.4383
 20
24.2623
 30
0.0
 10
-29.4063
 20
24.2561
 30
0.0
 10
-29.4063
 20
24.2561
 30
0.0
 10
-29.4063
 20
24.2561
 30
0.0
 10
-29.4063
 20
24.2561
 30
0.0
 10
-29.0944
 20
24.1585
 30
0.0
 10
-29.0944
 20
24.1585
 30
0.0
 10
-29.0944
 20
24.1585
 30
0.0
 10
-29.0944
 20
24.1585
 30
0.0
 10
-28.9384
 20
24.0608
 30
0.0
 10
-28.9384
 20
24.0608
 30
0.0
 10
-28.9384
 20
24.0608
 30
0.0
 10
-28.9384
 20
24.0608
 30
0.0
 10
-28.7631
 20
23.6113
 30
0.0
 10
-28.7631
 20
23.6113
 30
0.0
  0
SPLINE
  5
8A
330
1F
100
AcDbEntity
  8
VRSTVA_1
 62
   250
100
AcDbSpline
210
0.0
220
0.0
230
1.0
 70
     8
 71
     3
 72
    28
 73
    24
 74
     0
 42
0.0000000001
 43
0.0000000001
 40
0.0
 40
0.0
 40
0.0
 40
0.0
 40
0.1428571428571428
 40
0.1428571428571428
 40
0.1428571428571428
 40
0.1428571428571428
 40
0.2857142857142857
 40
0.2857142857142857
 40
0.2857142857142857
 40
0.2857142857142857
 40
0.4285714285714285
 40
0.4285714285714285
 40
0.4285714285714285
 40
0.4285714285714285
 40
0.5714285714285714
 40
0.5714285714285714
 40
0.5714285714285714
 40
0.5714285714285714
 40
0.7142857142857143
 40
0.7142857142857143
 40
0.7142857142857143
 40
0.7142857142857143
 40
1.0
 40
1.0
 40
1.0
 40
1.0
 10
-46.0017
 20
-13.4785
 30
0.0
 10
-46.0017
 20
-13.8552
 30
0.0
 10
-45.6624
 20
-14.1606
 30
0.0
 10
-45.2437
 20
-14.1606
 30
0.0
 10
-45.2437
 20
-14.1606
 30
0.0
 10
-45.2437
 20
-14.1606
 30
0.0
 10
-28.5072
 20
-14.1682
 30
0.0
 10
-28.5072
 20
-14.1682
 30
0.0
 10
-28.5072
 20
-14.1682
 30
0.0
 10
-28.5072
 20
-14.1682
 30
0.0
 10
-28.2153
 20
-14.0897
 30
0.0
 10
-28.2153
 20
-14.0897
 30
0.0
 10
-28.2153
 20
-14.0897
 30
0.0
 10
-28.2153
 20
-14.0897
 30
0.0
 10
-28.0348
 20
-13.9359
 30
0.0
 10
-28.0348
 20
-13.9359
 30
0.0
 10
-28.0348
 20
-13.9359
 30
0.0
 10
-28.0348
 20
-13.9359
 30
0.0
 10
-27.8542
 20
-13.7187
 30
0.0
 10
-27.8542
 20
-13.7187
 30
0.0
 10
-27.8542
 20
-13.7187
 30
0.0
 10
-27.8542
 20
-13.7187
 30
0.0
 10
-27.7639
 20
-13.4926
 30
0.0
 10
-27.7639
 20
-13.4926
 30
0.0
  0
SPLINE
  5
8B
330
1F
100
AcDbEntity
  8
VRSTVA_1
 62
   250
100
AcDbSpline
210
0.0
220
0.0
230
1.0
 70
    11
 71
     3
 72
    88
 73
    84
 74
     0
 42
0.0000000001
 43
0.0000000001
 40
0.0
 40
0.0
 40
0.0
 40
0.0
 40
0.0454545454545455
 40
0.0454545454545455
 40
0.0454545454545455
 40
0.0454545454545455
 40
0.0909090909090909
 40
0.0909090909090909
 40
0.0909090909090909
 40
0.0909090909090909
 40
0.1363636363636364
 40
0.1363636363636364
 40
0.1363636363636364
 40
0.1363636363636364
 40
0.1818181818181818
 40
0.1818181818181818
 40
0.1818181818181818
 40
0.1818181818181818
 40
0.2272727272727273
 40
0.2272727272727273
 40
0.2272727272727273
 40
0.2272727272727273
 40
0.2727272727272727
 40
0.2727272727272727
 40
0.2727272727272727
 40
0.2727272727272727
 40
0.3181818181818182
 40
0.3181818181818182
 40
0.3181818181818182
 40
0.3181818181818182
 40
0.3636363636363636
 40
0.3636363636363636
 40
0.3636363636363636
 40
0.3636363636363636
 40
0.4090909090909091
 40
0.4090909090909091
 40
0.4090909090909091
 40
0.4090909090909091
 40
0.4545454545454545
 40
0.4545454545454545
 40
0.4545454545454545
 40
0.4545454545454545
 40
0.5
 40
0.5
 40
0.5
 40
0.5
 40
0.5454545454545454
 40
0.5454545454545454
 40
0.5454545454545454
 40
0.5454545454545454
 40
0.5909090909090909
 40
0.5909090909090909
 40
0.5909090909090909
 40
0.5909090909090909
 40
0.6363636363636364
 40
0.6363636363636364
 40
0.6363636363636364
 40
0.6363636363636364
 40
0.6818181818181818
 40
0.6818181818181818
 40
0.6818181818181818
 40
0.6818181818181818
 40
0.7272727272727273
 40
0.7272727272727273
 40
0.7272727272727273
 40
0.7272727272727273
 40
0.7727272727272727
 40
0.7727272727272727
 40
0.7727272727272727
 40
0.7727272727272727
 40
0.8181818181818182
 40
0.8181818181818182
 40
0.8181818181818182
 40
0.8181818181818182
 40
0.8636363636363636
 40
0.8636363636363636
 40
0.8636363636363636
 40
0.8636363636363636
 40
0.9090909090909091
 40
0.9090909090909091
 40
0.9090909090909091
 40
0.9090909090909091
 40
1.0
 40
1.0
 40
1.0
 40
1.0
 10
-42.4223
 20
-10.4328
 30
0.0
 10
-42.4223
 20
-10.4328
 30
0.0
 10
-42.4891
 20
-10.1913
 30
0.0
 10
-42.4891
 20
-10.1913
 30
0.0
 10
-42.4891
 20
-10.1913
 30
0.0
 10
-42.4891
 20
-10.1913
 30
0.0
 10
-42.6766
 20
-9.9255
 30
0.0
 10
-42.6766
 20
-9.9255
 30
0.0
 10
-42.6766
 20
-9.9255
 30
0.0
 10
-42.6766
 20
-9.9255
 30
0.0
 10
-42.8908
 20
-9.8049
 30
0.0
 10
-42.8908
 20
-9.8049
 30
0.0
 10
-42.8908
 20
-9.8049
 30
0.0
 10
-42.8908
 20
-9.8049
 30
0.0
 10
-43.164
 20
-9.7593
 30
0.0
 10
-43.164
 20
-9.7593
 30
0.0
 10
-43.164
 20
-9.7593
 30
0.0
 10
-43.164
 20
-9.7593
 30
0.0
 10
-43.3137
 20
-9.7761
 30
0.0
 10
-43.3137
 20
-9.7761
 30
0.0
 10
-43.3137
 20
-9.7761
 30
0.0
 10
-43.3137
 20
-9.7761
 30
0.0
 10
-43.46
 20
-9.827
 30
0.0
 10
-43.46
 20
-9.827
 30
0.0
 10
-43.46
 20
-9.827
 30
0.0
 10
-43.46
 20
-9.827
 30
0.0
 10
-43.5914
 20
-9.9088
 30
0.0
 10
-43.5914
 20
-9.9088
 30
0.0
 10
-43.5914
 20
-9.9088
 30
0.0
 10
-43.5914
 20
-9.9088
 30
0.0
 10
-43.7
 20
-10.0154
 30
0.0
 10
-43.7
 20
-10.0154
 30
0.0
 10
-43.7
 20
-10.0154
 30
0.0
 10
-43.7
 20
-10.0154
 30
0.0
 10
-43.7834
 20
-10.1446
 30
0.0
 10
-43.7834
 20
-10.1446
 30
0.0
 10
-43.7834
 20
-10.1446
 30
0.0
 10
-43.7834
 20
-10.1446
 30
0.0
 10
-43.8361
 20
-10.2906
 30
0.0
 10
-43.8361
 20
-10.2906
 30
0.0
 10
-43.8361
 20
-10.2906
 30
0.0
 10
-43.8361
 20
-10.2906
 30
0.0
 10
-43.8535
 20
-10.4412
 30
0.0
 10
-43.8535
 20
-10.4412
 30
0.0
 10
-43.8535
 20
-10.4412
 30
0.0
 10
-43.8535
 20
-10.4412
 30
0.0
 10
-43.8817
 20
-12.8229
 30
0.0
 10
-43.8817
 20
-12.8229
 30
0.0
 10
-43.8817
 20
-12.8229
 30
0.0
 10
-43.8817
 20
-12.8229
 30
0.0
 10
-43.7882
 20
-13.0765
 30
0.0
 10
-43.7882
 20
-13.0765
 30
0.0
 10
-43.7882
 20
-13.0765
 30
0.0
 10
-43.7882
 20
-13.0765
 30
0.0
 10
-43.6409
 20
-13.3058
 30
0.0
 10
-43.6409
 20
-13.3058
 30
0.0
 10
-43.6409
 20
-13.3058
 30
0.0
 10
-43.6409
 20
-13.3058
 30
0.0
 10
-43.3862
 20
-13.499
 30
0.0
 10
-43.3862
 20
-13.499
 30
0.0
 10
-43.3862
 20
-13.499
 30
0.0
 10
-43.3862
 20
-13.499
 30
0.0
 10
-43.065
 20
-13.523
 30
0.0
 10
-43.065
 20
-13.523
 30
0.0
 10
-43.065
 20
-13.523
 30
0.0
 10
-43.065
 20
-13.523
 30
0.0
 10
-42.7837
 20
-13.4386
 30
0.0
 10
-42.7837
 20
-13.4386
 30
0.0
 10
-42.7837
 20
-13.4386
 30
0.0
 10
-42.7837
 20
-13.4386
 30
0.0
 10
-42.5425
 20
-13.2333
 30
0.0
 10
-42.5425
 20
-13.2333
 30
0.0
 10
-42.5425
 20
-13.2333
 30
0.0
 10
-42.5425
 20
-13.2333
 30
0.0
 10
-42.449
 20
-13.0886
 30
0.0
 10
-42.449
 20
-13.0886
 30
0.0
 10
-42.449
 20
-13.0886
 30
0.0
 10
-42.449
 20
-13.0886
 30
0.0
 10
-42.449
 20
-12.8712
 30
0.0
 10
-42.449
 20
-12.8712
 30
0.0
 10
-42.449
 20
-12.8712
 30
0.0
 10
-42.449
 20
-12.8712
 30
0.0
 10
-42.4223
 20
-10.4328
 30
0.0
 10
-42.4223
 20
-10.4328
 30
0.0
  0
SPLINE
  5
8C
330
1F
100
AcDbEntity
  8
VRSTVA_1
 62
   250
100
AcDbSpline
210
0.0
220
0.0
230
1.0
 70
    11
 71
     3
 72
    88
 73
    84
 74
     0
 42
0.0000000001
 43
0.0000000001
 40
0.0
 40
0.0
 40
0.0
 40
0.0
 40
0.0454545454545455
 40
0.0454545454545455
 40
0.0454545454545455
 40
0.0454545454545455
 40
0.0909090909090909
 40
0.0909090909090909
 40
0.0909090909090909
 40
0.0909090909090909
 40
0.1363636363636364
 40
0.1363636363636364
 40
0.1363636363636364
 40
0.1363636363636364
 40
0.1818181818181818
 40
0.1818181818181818
 40
0.1818181818181818
 40
0.1818181818181818
 40
0.2272727272727273
 40
0.2272727272727273
 40
0.2272727272727273
 40
0.2272727272727273
 40
0.2727272727272727
 40
0.2727272727272727
 40
0.2727272727272727
 40
0.2727272727272727
 40
0.3181818181818182
 40
0.3181818181818182
 40
0.3181818181818182
 40
0.3181818181818182
 40
0.3636363636363636
 40
0.3636363636363636
 40
0.3636363636363636
 40
0.3636363636363636
 40
0.4090909090909091
 40
0.4090909090909091
 40
0.4090909090909091
 40
0.4090909090909091
 40
0.4545454545454545
 40
0.4545454545454545
 40
0.4545454545454545
 40
0.4545454545454545
 40
0.5
 40
0.5
 40
0.5
 40
0.5
 40
0.5454545454545454
 40
0.5454545454545454
 40
0.5454545454545454
 40
0.5454545454545454
 40
0.5909090909090909
 40
0.5909090909090909
 40
0.5909090909090909
 40
0.5909090909090909
 40
0.6363636363636364
 40
0.6363636363636364
 40
0.6363636363636364
 40
0.6363636363636364
 40
0.6818181818181818
 40
0.6818181818181818
 40
0.6818181818181818
 40
0.6818181818181818
 40
0.7272727272727273
 40
0.7272727272727273
 40
0.7272727272727273
 40
0.7272727272727273
 40
0.7727272727272727
 40
0.7727272727272727
 40
0.7727272727272727
 40
0.7727272727272727
 40
0.8181818181818182
 40
0.8181818181818182
 40
0.8181818181818182
 40
0.8181818181818182
 40
0.8636363636363636
 40
0.8636363636363636
 40
0.8636363636363636
 40
0.8636363636363636
 40
0.9090909090909091
 40
0.9090909090909091
 40
0.9090909090909091
 40
0.9090909090909091
 40
1.0
 40
1.0
 40
1.0
 40
1.0
 10
-29.6397
 20
-10.4018
 30
0.0
 10
-29.6397
 20
-10.4018
 30
0.0
 10
-29.7066
 20
-10.1603
 30
0.0
 10
-29.7066
 20
-10.1603
 30
0.0
 10
-29.7066
 20
-10.1603
 30
0.0
 10
-29.7066
 20
-10.1603
 30
0.0
 10
-29.8941
 20
-9.8945
 30
0.0
 10
-29.8941
 20
-9.8945
 30
0.0
 10
-29.8941
 20
-9.8945
 30
0.0
 10
-29.8941
 20
-9.8945
 30
0.0
 10
-30.1082
 20
-9.7739
 30
0.0
 10
-30.1082
 20
-9.7739
 30
0.0
 10
-30.1082
 20
-9.7739
 30
0.0
 10
-30.1082
 20
-9.7739
 30
0.0
 10
-30.3814
 20
-9.7283
 30
0.0
 10
-30.3814
 20
-9.7283
 30
0.0
 10
-30.3814
 20
-9.7283
 30
0.0
 10
-30.3814
 20
-9.7283
 30
0.0
 10
-30.5311
 20
-9.745
 30
0.0
 10
-30.5311
 20
-9.745
 30
0.0
 10
-30.5311
 20
-9.745
 30
0.0
 10
-30.5311
 20
-9.745
 30
0.0
 10
-30.6775
 20
-9.796
 30
0.0
 10
-30.6775
 20
-9.796
 30
0.0
 10
-30.6775
 20
-9.796
 30
0.0
 10
-30.6775
 20
-9.796
 30
0.0
 10
-30.8089
 20
-9.8778
 30
0.0
 10
-30.8089
 20
-9.8778
 30
0.0
 10
-30.8089
 20
-9.8778
 30
0.0
 10
-30.8089
 20
-9.8778
 30
0.0
 10
-30.9174
 20
-9.9844
 30
0.0
 10
-30.9174
 20
-9.9844
 30
0.0
 10
-30.9174
 20
-9.9844
 30
0.0
 10
-30.9174
 20
-9.9844
 30
0.0
 10
-31.0008
 20
-10.1136
 30
0.0
 10
-31.0008
 20
-10.1136
 30
0.0
 10
-31.0008
 20
-10.1136
 30
0.0
 10
-31.0008
 20
-10.1136
 30
0.0
 10
-31.0536
 20
-10.2596
 30
0.0
 10
-31.0536
 20
-10.2596
 30
0.0
 10
-31.0536
 20
-10.2596
 30
0.0
 10
-31.0536
 20
-10.2596
 30
0.0
 10
-31.071
 20
-10.4101
 30
0.0
 10
-31.071
 20
-10.4101
 30
0.0
 10
-31.071
 20
-10.4101
 30
0.0
 10
-31.071
 20
-10.4101
 30
0.0
 10
-31.0992
 20
-12.7918
 30
0.0
 10
-31.0992
 20
-12.7918
 30
0.0
 10
-31.0992
 20
-12.7918
 30
0.0
 10
-31.0992
 20
-12.7918
 30
0.0
 10
-31.0056
 20
-13.0455
 30
0.0
 10
-31.0056
 20
-13.0455
 30
0.0
 10
-31.0056
 20
-13.0455
 30
0.0
 10
-31.0056
 20
-13.0455
 30
0.0
 10
-30.8583
 20
-13.2748
 30
0.0
 10
-30.8583
 20
-13.2748
 30
0.0
 10
-30.8583
 20
-13.2748
 30
0.0
 10
-30.8583
 20
-13.2748
 30
0.0
 10
-30.6037
 20
-13.468
 30
0.0
 10
-30.6037
 20
-13.468
 30
0.0
 10
-30.6037
 20
-13.468
 30
0.0
 10
-30.6037
 20
-13.468
 30
0.0
 10
-30.2825
 20
-13.492
 30
0.0
 10
-30.2825
 20
-13.492
 30
0.0
 10
-30.2825
 20
-13.492
 30
0.0
 10
-30.2825
 20
-13.492
 30
0.0
 10
-30.0011
 20
-13.4076
 30
0.0
 10
-30.0011
 20
-13.4076
 30
0.0
 10
-30.0011
 20
-13.4076
 30
0.0
 10
-30.0011
 20
-13.4076
 30
0.0
 10
-29.76
 20
-13.2022
 30
0.0
 10
-29.76
 20
-13.2022
 30
0.0
 10
-29.76
 20
-13.2022
 30
0.0
 10
-29.76
 20
-13.2022
 30
0.0
 10
-29.6664
 20
-13.0576
 30
0.0
 10
-29.6664
 20
-13.0576
 30
0.0
 10
-29.6664
 20
-13.0576
 30
0.0
 10
-29.6664
 20
-13.0576
 30
0.0
 10
-29.6664
 20
-12.8401
 30
0.0
 10
-29.6664
 20
-12.8401
 30
0.0
 10
-29.6664
 20
-12.8401
 30
0.0
 10
-29.6664
 20
-12.8401
 30
0.0
 10
-29.6397
 20
-10.4018
 30
0.0
 10
-29.6397
 20
-10.4018
 30
0.0
  0
SPLINE
  5
8D
330
1F
100
AcDbEntity
  8
VRSTVA_1
 62
   250
100
AcDbSpline
210
0.0
220
0.0
230
1.0
 70
    11
 71
     3
 72
    84
 73
    80
 74
     0
 42
0.0000000001
 43
0.0000000001
 40
0.0
 40
0.0
 40
0.0
 40
0.0
 40
0.0476190476190476
 40
0.0476190476190476
 40
0.0476190476190476
 40
0.0476190476190476
 40
0.0952380952380952
 40
0.0952380952380952
 40
0.0952380952380952
 40
0.0952380952380952
 40
0.1428571428571428
 40
0.1428571428571428
 40
0.1428571428571428
 40
0.1428571428571428
 40
0.1904761904761905
 40
0.1904761904761905
 40
0.1904761904761905
 40
0.1904761904761905
 40
0.2380952380952381
 40
0.2380952380952381
 40
0.2380952380952381
 40
0.2380952380952381
 40
0.2857142857142857
 40
0.2857142857142857
 40
0.2857142857142857
 40
0.2857142857142857
 40
0.3333333333333333
 40
0.3333333333333333
 40
0.3333333333333333
 40
0.3333333333333333
 40
0.3809523809523809
 40
0.3809523809523809
 40
0.3809523809523809
 40
0.3809523809523809
 40
0.4285714285714285
 40
0.4285714285714285
 40
0.4285714285714285
 40
0.4285714285714285
 40
0.4761904761904762
 40
0.4761904761904762
 40
0.4761904761904762
 40
0.4761904761904762
 40
0.5238095238095238
 40
0.5238095238095238
 40
0.5238095238095238
 40
0.5238095238095238
 40
0.5714285714285714
 40
0.5714285714285714
 40
0.5714285714285714
 40
0.5714285714285714
 40
0.6190476190476191
 40
0.6190476190476191
 40
0.6190476190476191
 40
0.6190476190476191
 40
0.6666666666666666
 40
0.6666666666666666
 40
0.6666666666666666
 40
0.6666666666666666
 40
0.7142857142857143
 40
0.7142857142857143
 40
0.7142857142857143
 40
0.7142857142857143
 40
0.7619047619047619
 40
0.7619047619047619
 40
0.7619047619047619
 40
0.7619047619047619
 40
0.8095238095238095
 40
0.8095238095238095
 40
0.8095238095238095
 40
0.8095238095238095
 40
0.8571428571428571
 40
0.8571428571428571
 40
0.8571428571428571
 40
0.8571428571428571
 40
0.9047619047619048
 40
0.9047619047619048
 40
0.9047619047619048
 40
0.9047619047619048
 40
1.0
 40
1.0
 40
1.0
 40
1.0
 10
-27.6716
 20
-13.4146
 30
0.0
 10
-27.6716
 20
-13.4146
 30
0.0
 10
-27.8332
 20
-13.4014
 30
0.0
 10
-27.8332
 20
-13.4014
 30
0.0
 10
-27.8332
 20
-13.4014
 30
0.0
 10
-27.8332
 20
-13.4014
 30
0.0
 10
-27.9067
 20
-13.2554
 30
0.0
 10
-27.9067
 20
-13.2554
 30
0.0
 10
-27.9067
 20
-13.2554
 30
0.0
 10
-27.9067
 20
-13.2554
 30
0.0
 10
-27.9952
 20
-12.8973
 30
0.0
 10
-27.9952
 20
-12.8973
 30
0.0
 10
-27.9952
 20
-12.8973
 30
0.0
 10
-27.9952
 20
-12.8973
 30
0.0
 10
-28.0099
 20
-12.4996
 30
0.0
 10
-28.0099
 20
-12.4996
 30
0.0
 10
-28.0099
 20
-12.4996
 30
0.0
 10
-28.0099
 20
-12.4996
 30
0.0
 10
-27.9658
 20
-10.0734
 30
0.0
 10
-27.9658
 20
-10.0734
 30
0.0
 10
-27.9658
 20
-10.0734
 30
0.0
 10
-27.9658
 20
-10.0734
 30
0.0
 10
-27.9214
 20
-9.8745
 30
0.0
 10
-27.9214
 20
-9.8745
 30
0.0
 10
-27.9214
 20
-9.8745
 30
0.0
 10
-27.9214
 20
-9.8745
 30
0.0
 10
-27.7429
 20
-9.68
 30
0.0
 10
-27.7429
 20
-9.68
 30
0.0
 10
-27.7429
 20
-9.68
 30
0.0
 10
-27.7429
 20
-9.68
 30
0.0
 10
-27.6943
 20
-9.6905
 30
0.0
 10
-27.6943
 20
-9.6905
 30
0.0
 10
-27.6943
 20
-9.6905
 30
0.0
 10
-27.6943
 20
-9.6905
 30
0.0
 10
-27.5558
 20
-9.7453
 30
0.0
 10
-27.5558
 20
-9.7453
 30
0.0
 10
-27.5558
 20
-9.7453
 30
0.0
 10
-27.5558
 20
-9.7453
 30
0.0
 10
-27.4454
 20
-9.8235
 30
0.0
 10
-27.4454
 20
-9.8235
 30
0.0
 10
-27.4454
 20
-9.8235
 30
0.0
 10
-27.4454
 20
-9.8235
 30
0.0
 10
-27.368
 20
-9.9104
 30
0.0
 10
-27.368
 20
-9.9104
 30
0.0
 10
-27.368
 20
-9.9104
 30
0.0
 10
-27.368
 20
-9.9104
 30
0.0
 10
-27.3185
 20
-9.9951
 30
0.0
 10
-27.3185
 20
-9.9951
 30
0.0
 10
-27.3185
 20
-9.9951
 30
0.0
 10
-27.3185
 20
-9.9951
 30
0.0
 10
-27.2891
 20
-10.0737
 30
0.0
 10
-27.2891
 20
-10.0737
 30
0.0
 10
-27.2891
 20
-10.0737
 30
0.0
 10
-27.2891
 20
-10.0737
 30
0.0
 10
-27.2711
 20
-10.1516
 30
0.0
 10
-27.2711
 20
-10.1516
 30
0.0
 10
-27.2711
 20
-10.1516
 30
0.0
 10
-27.2711
 20
-10.1516
 30
0.0
 10
-27.2597
 20
-10.2437
 30
0.0
 10
-27.2597
 20
-10.2437
 30
0.0
 10
-27.2597
 20
-10.2437
 30
0.0
 10
-27.2597
 20
-10.2437
 30
0.0
 10
-27.2555
 20
-10.3521
 30
0.0
 10
-27.2555
 20
-10.3521
 30
0.0
 10
-27.2555
 20
-10.3521
 30
0.0
 10
-27.2555
 20
-10.3521
 30
0.0
 10
-27.245
 20
-12.7913
 30
0.0
 10
-27.245
 20
-12.7913
 30
0.0
 10
-27.245
 20
-12.7913
 30
0.0
 10
-27.245
 20
-12.7913
 30
0.0
 10
-27.2597
 20
-13.0965
 30
0.0
 10
-27.2597
 20
-13.0965
 30
0.0
 10
-27.2597
 20
-13.0965
 30
0.0
 10
-27.2597
 20
-13.0965
 30
0.0
 10
-27.4067
 20
-13.2953
 30
0.0
 10
-27.4067
 20
-13.2953
 30
0.0
 10
-27.4067
 20
-13.2953
 30
0.0
 10
-27.4067
 20
-13.2953
 30
0.0
 10
-27.6716
 20
-13.4146
 30
0.0
 10
-27.6716
 20
-13.4146
 30
0.0
  0
SPLINE
  5
8E
330
1F
100
AcDbEntity
  8
VRSTVA_1
 62
   250
100
AcDbSpline
210
0.0
220
0.0
230
1.0
 70
    11
 71
     3
 72
    88
 73
    84
 74
     0
 42
0.0000000001
 43
0.0000000001
 40
0.0
 40
0.0
 40
0.0
 40
0.0
 40
0.0454545454545455
 40
0.0454545454545455
 40
0.0454545454545455
 40
0.0454545454545455
 40
0.0909090909090909
 40
0.0909090909090909
 40
0.0909090909090909
 40
0.0909090909090909
 40
0.1363636363636364
 40
0.1363636363636364
 40
0.1363636363636364
 40
0.1363636363636364
 40
0.1818181818181818
 40
0.1818181818181818
 40
0.1818181818181818
 40
0.1818181818181818
 40
0.2272727272727273
 40
0.2272727272727273
 40
0.2272727272727273
 40
0.2272727272727273
 40
0.2727272727272727
 40
0.2727272727272727
 40
0.2727272727272727
 40
0.2727272727272727
 40
0.3181818181818182
 40
0.3181818181818182
 40
0.3181818181818182
 40
0.3181818181818182
 40
0.3636363636363636
 40
0.3636363636363636
 40
0.3636363636363636
 40
0.3636363636363636
 40
0.4090909090909091
 40
0.4090909090909091
 40
0.4090909090909091
 40
0.4090909090909091
 40
0.4545454545454545
 40
0.4545454545454545
 40
0.4545454545454545
 40
0.4545454545454545
 40
0.5
 40
0.5
 40
0.5
 40
0.5
 40
0.5454545454545454
 40
0.5454545454545454
 40
0.5454545454545454
 40
0.5454545454545454
 40
0.5909090909090909
 40
0.5909090909090909
 40
0.5909090909090909
 40
0.5909090909090909
 40
0.6363636363636364
 40
0.6363636363636364
 40
0.6363636363636364
 40
0.6363636363636364
 40
0.6818181818181818
 40
0.6818181818181818
 40
0.6818181818181818
 40
0.6818181818181818
 40
0.7272727272727273
 40
0.7272727272727273
 40
0.7272727272727273
 40
0.7272727272727273
 40
0.7727272727272727
 40
0.7727272727272727
 40
0.7727272727272727
 40
0.7727272727272727
 40
0.8181818181818182
 40
0.8181818181818182
 40
0.8181818181818182
 40
0.8181818181818182
 40
0.8636363636363636
 40
0.8636363636363636
 40
0.8636363636363636
 40
0.8636363636363636
 40
0.9090909090909091
 40
0.9090909090909091
 40
0.9090909090909091
 40
0.9090909090909091
 40
1.0
 40
1.0
 40
1.0
 40
1.0
 10
-36.0811
 20
-10.3707
 30
0.0
 10
-36.0811
 20
-10.3707
 30
0.0
 10
-36.148
 20
-10.1292
 30
0.0
 10
-36.148
 20
-10.1292
 30
0.0
 10
-36.148
 20
-10.1292
 30
0.0
 10
-36.148
 20
-10.1292
 30
0.0
 10
-36.3354
 20
-9.8635
 30
0.0
 10
-36.3354
 20
-9.8635
 30
0.0
 10
-36.3354
 20
-9.8635
 30
0.0
 10
-36.3354
 20
-9.8635
 30
0.0
 10
-36.5496
 20
-9.7429
 30
0.0
 10
-36.5496
 20
-9.7429
 30
0.0
 10
-36.5496
 20
-9.7429
 30
0.0
 10
-36.5496
 20
-9.7429
 30
0.0
 10
-36.8228
 20
-9.6973
 30
0.0
 10
-36.8228
 20
-9.6973
 30
0.0
 10
-36.8228
 20
-9.6973
 30
0.0
 10
-36.8228
 20
-9.6973
 30
0.0
 10
-36.9725
 20
-9.714
 30
0.0
 10
-36.9725
 20
-9.714
 30
0.0
 10
-36.9725
 20
-9.714
 30
0.0
 10
-36.9725
 20
-9.714
 30
0.0
 10
-37.1188
 20
-9.765
 30
0.0
 10
-37.1188
 20
-9.765
 30
0.0
 10
-37.1188
 20
-9.765
 30
0.0
 10
-37.1188
 20
-9.765
 30
0.0
 10
-37.2502
 20
-9.8467
 30
0.0
 10
-37.2502
 20
-9.8467
 30
0.0
 10
-37.2502
 20
-9.8467
 30
0.0
 10
-37.2502
 20
-9.8467
 30
0.0
 10
-37.3588
 20
-9.9533
 30
0.0
 10
-37.3588
 20
-9.9533
 30
0.0
 10
-37.3588
 20
-9.9533
 30
0.0
 10
-37.3588
 20
-9.9533
 30
0.0
 10
-37.4422
 20
-10.0826
 30
0.0
 10
-37.4422
 20
-10.0826
 30
0.0
 10
-37.4422
 20
-10.0826
 30
0.0
 10
-37.4422
 20
-10.0826
 30
0.0
 10
-37.495
 20
-10.2285
 30
0.0
 10
-37.495
 20
-10.2285
 30
0.0
 10
-37.495
 20
-10.2285
 30
0.0
 10
-37.495
 20
-10.2285
 30
0.0
 10
-37.5124
 20
-10.3791
 30
0.0
 10
-37.5124
 20
-10.3791
 30
0.0
 10
-37.5124
 20
-10.3791
 30
0.0
 10
-37.5124
 20
-10.3791
 30
0.0
 10
-37.5405
 20
-12.7608
 30
0.0
 10
-37.5405
 20
-12.7608
 30
0.0
 10
-37.5405
 20
-12.7608
 30
0.0
 10
-37.5405
 20
-12.7608
 30
0.0
 10
-37.447
 20
-13.0144
 30
0.0
 10
-37.447
 20
-13.0144
 30
0.0
 10
-37.447
 20
-13.0144
 30
0.0
 10
-37.447
 20
-13.0144
 30
0.0
 10
-37.2997
 20
-13.2438
 30
0.0
 10
-37.2997
 20
-13.2438
 30
0.0
 10
-37.2997
 20
-13.2438
 30
0.0
 10
-37.2997
 20
-13.2438
 30
0.0
 10
-37.0451
 20
-13.437
 30
0.0
 10
-37.0451
 20
-13.437
 30
0.0
 10
-37.0451
 20
-13.437
 30
0.0
 10
-37.0451
 20
-13.437
 30
0.0
 10
-36.7238
 20
-13.461
 30
0.0
 10
-36.7238
 20
-13.461
 30
0.0
 10
-36.7238
 20
-13.461
 30
0.0
 10
-36.7238
 20
-13.461
 30
0.0
 10
-36.4425
 20
-13.3765
 30
0.0
 10
-36.4425
 20
-13.3765
 30
0.0
 10
-36.4425
 20
-13.3765
 30
0.0
 10
-36.4425
 20
-13.3765
 30
0.0
 10
-36.2013
 20
-13.1712
 30
0.0
 10
-36.2013
 20
-13.1712
 30
0.0
 10
-36.2013
 20
-13.1712
 30
0.0
 10
-36.2013
 20
-13.1712
 30
0.0
 10
-36.1078
 20
-13.0266
 30
0.0
 10
-36.1078
 20
-13.0266
 30
0.0
 10
-36.1078
 20
-13.0266
 30
0.0
 10
-36.1078
 20
-13.0266
 30
0.0
 10
-36.1078
 20
-12.8091
 30
0.0
 10
-36.1078
 20
-12.8091
 30
0.0
 10
-36.1078
 20
-12.8091
 30
0.0
 10
-36.1078
 20
-12.8091
 30
0.0
 10
-36.0811
 20
-10.3707
 30
0.0
 10
-36.0811
 20
-10.3707
 30
0.0
  0
SPLINE
  5
8F
330
1F
100
AcDbEntity
  8
VRSTVA_1
 62
   250
100
AcDbSpline
210
0.0
220
0.0
230
1.0
 70
    11
 71
     3
 72
    84
 73
    80
 74
     0
 42
0.0000000001
 43
0.0000000001
 40
0.0
 40
0.0
 40
0.0
 40
0.0
 40
0.0476190476190476
 40
0.0476190476190476
 40
0.0476190476190476
 40
0.0476190476190476
 40
0.0952380952380952
 40
0.0952380952380952
 40
0.0952380952380952
 40
0.0952380952380952
 40
0.1428571428571428
 40
0.1428571428571428
 40
0.1428571428571428
 40
0.1428571428571428
 40
0.1904761904761905
 40
0.1904761904761905
 40
0.1904761904761905
 40
0.1904761904761905
 40
0.2380952380952381
 40
0.2380952380952381
 40
0.2380952380952381
 40
0.2380952380952381
 40
0.2857142857142857
 40
0.2857142857142857
 40
0.2857142857142857
 40
0.2857142857142857
 40
0.3333333333333333
 40
0.3333333333333333
 40
0.3333333333333333
 40
0.3333333333333333
 40
0.3809523809523809
 40
0.3809523809523809
 40
0.3809523809523809
 40
0.3809523809523809
 40
0.4285714285714285
 40
0.4285714285714285
 40
0.4285714285714285
 40
0.4285714285714285
 40
0.4761904761904762
 40
0.4761904761904762
 40
0.4761904761904762
 40
0.4761904761904762
 40
0.5238095238095238
 40
0.5238095238095238
 40
0.5238095238095238
 40
0.5238095238095238
 40
0.5714285714285714
 40
0.5714285714285714
 40
0.5714285714285714
 40
0.5714285714285714
 40
0.6190476190476191
 40
0.6190476190476191
 40
0.6190476190476191
 40
0.6190476190476191
 40
0.6666666666666666
 40
0.6666666666666666
 40
0.6666666666666666
 40
0.6666666666666666
 40
0.7142857142857143
 40
0.7142857142857143
 40
0.7142857142857143
 40
0.7142857142857143
 40
0.7619047619047619
 40
0.7619047619047619
 40
0.7619047619047619
 40
0.7619047619047619
 40
0.8095238095238095
 40
0.8095238095238095
 40
0.8095238095238095
 40
0.8095238095238095
 40
0.8571428571428571
 40
0.8571428571428571
 40
0.8571428571428571
 40
0.8571428571428571
 40
0.9047619047619048
 40
0.9047619047619048
 40
0.9047619047619048
 40
0.9047619047619048
 40
1.0
 40
1.0
 40
1.0
 40
1.0
 10
-46.0718
 20
-9.7342
 30
0.0
 10
-46.0718
 20
-9.7342
 30
0.0
 10
-45.9102
 20
-9.7475
 30
0.0
 10
-45.9102
 20
-9.7475
 30
0.0
 10
-45.9102
 20
-9.7475
 30
0.0
 10
-45.9102
 20
-9.7475
 30
0.0
 10
-45.8367
 20
-9.8934
 30
0.0
 10
-45.8367
 20
-9.8934
 30
0.0
 10
-45.8367
 20
-9.8934
 30
0.0
 10
-45.8367
 20
-9.8934
 30
0.0
 10
-45.7482
 20
-10.2515
 30
0.0
 10
-45.7482
 20
-10.2515
 30
0.0
 10
-45.7482
 20
-10.2515
 30
0.0
 10
-45.7482
 20
-10.2515
 30
0.0
 10
-45.7335
 20
-10.6492
 30
0.0
 10
-45.7335
 20
-10.6492
 30
0.0
 10
-45.7335
 20
-10.6492
 30
0.0
 10
-45.7335
 20
-10.6492
 30
0.0
 10
-45.7776
 20
-13.0754
 30
0.0
 10
-45.7776
 20
-13.0754
 30
0.0
 10
-45.7776
 20
-13.0754
 30
0.0
 10
-45.7776
 20
-13.0754
 30
0.0
 10
-45.822
 20
-13.2743
 30
0.0
 10
-45.822
 20
-13.2743
 30
0.0
 10
-45.822
 20
-13.2743
 30
0.0
 10
-45.822
 20
-13.2743
 30
0.0
 10
-46.0005
 20
-13.4688
 30
0.0
 10
-46.0005
 20
-13.4688
 30
0.0
 10
-46.0005
 20
-13.4688
 30
0.0
 10
-46.0005
 20
-13.4688
 30
0.0
 10
-46.049
 20
-13.4583
 30
0.0
 10
-46.049
 20
-13.4583
 30
0.0
 10
-46.049
 20
-13.4583
 30
0.0
 10
-46.049
 20
-13.4583
 30
0.0
 10
-46.1876
 20
-13.4035
 30
0.0
 10
-46.1876
 20
-13.4035
 30
0.0
 10
-46.1876
 20
-13.4035
 30
0.0
 10
-46.1876
 20
-13.4035
 30
0.0
 10
-46.298
 20
-13.3253
 30
0.0
 10
-46.298
 20
-13.3253
 30
0.0
 10
-46.298
 20
-13.3253
 30
0.0
 10
-46.298
 20
-13.3253
 30
0.0
 10
-46.3754
 20
-13.2384
 30
0.0
 10
-46.3754
 20
-13.2384
 30
0.0
 10
-46.3754
 20
-13.2384
 30
0.0
 10
-46.3754
 20
-13.2384
 30
0.0
 10
-46.4249
 20
-13.1537
 30
0.0
 10
-46.4249
 20
-13.1537
 30
0.0
 10
-46.4249
 20
-13.1537
 30
0.0
 10
-46.4249
 20
-13.1537
 30
0.0
 10
-46.4543
 20
-13.0751
 30
0.0
 10
-46.4543
 20
-13.0751
 30
0.0
 10
-46.4543
 20
-13.0751
 30
0.0
 10
-46.4543
 20
-13.0751
 30
0.0
 10
-46.4723
 20
-12.9972
 30
0.0
 10
-46.4723
 20
-12.9972
 30
0.0
 10
-46.4723
 20
-12.9972
 30
0.0
 10
-46.4723
 20
-12.9972
 30
0.0
 10
-46.4837
 20
-12.9052
 30
0.0
 10
-46.4837
 20
-12.9052
 30
0.0
 10
-46.4837
 20
-12.9052
 30
0.0
 10
-46.4837
 20
-12.9052
 30
0.0
 10
-46.4878
 20
-12.7967
 30
0.0
 10
-46.4878
 20
-12.7967
 30
0.0
 10
-46.4878
 20
-12.7967
 30
0.0
 10
-46.4878
 20
-12.7967
 30
0.0
 10
-46.4983
 20
-10.3575
 30
0.0
 10
-46.4983
 20
-10.3575
 30
0.0
 10
-46.4983
 20
-10.3575
 30
0.0
 10
-46.4983
 20
-10.3575
 30
0.0
 10
-46.4837
 20
-10.0523
 30
0.0
 10
-46.4837
 20
-10.0523
 30
0.0
 10
-46.4837
 20
-10.0523
 30
0.0
 10
-46.4837
 20
-10.0523
 30
0.0
 10
-46.3367
 20
-9.8535
 30
0.0
 10
-46.3367
 20
-9.8535
 30
0.0
 10
-46.3367
 20
-9.8535
 30
0.0
 10
-46.3367
 20
-9.8535
 30
0.0
 10
-46.0718
 20
-9.7342
 30
0.0
 10
-46.0718
 20
-9.7342
 30
0.0
  0
SPLINE
  5
90
330
1F
100
AcDbEntity
  8
VRSTVA_1
 62
   250
100
AcDbSpline
210
0.0
220
0.0
230
1.0
 70
     8
 71
     3
 72
    24
 73
    20
 74
     0
 42
0.0000000001
 43
0.0000000001
 40
0.0
 40
0.0
 40
0.0
 40
0.0
 40
0.1666666666666667
 40
0.1666666666666667
 40
0.1666666666666667
 40
0.1666666666666667
 40
0.3333333333333333
 40
0.3333333333333333
 40
0.3333333333333333
 40
0.3333333333333333
 40
0.5
 40
0.5
 40
0.5
 40
0.5
 40
0.6666666666666666
 40
0.6666666666666666
 40
0.6666666666666666
 40
0.6666666666666666
 40
1.0
 40
1.0
 40
1.0
 40
1.0
 10
-46.0017
 20
-9.7283
 30
0.0
 10
-46.0017
 20
-9.3516
 30
0.0
 10
-45.6624
 20
-9.0465
 30
0.0
 10
-45.2437
 20
-9.0465
 30
0.0
 10
-45.2437
 20
-9.0465
 30
0.0
 10
-45.2437
 20
-9.0465
 30
0.0
 10
-28.5342
 20
-9.0527
 30
0.0
 10
-28.5342
 20
-9.0527
 30
0.0
 10
-28.5342
 20
-9.0527
 30
0.0
 10
-28.5342
 20
-9.0527
 30
0.0
 10
-28.1874
 20
-9.1503
 30
0.0
 10
-28.1874
 20
-9.1503
 30
0.0
 10
-28.1874
 20
-9.1503
 30
0.0
 10
-28.1874
 20
-9.1503
 30
0.0
 10
-28.0141
 20
-9.248
 30
0.0
 10
-28.0141
 20
-9.248
 30
0.0
 10
-28.0141
 20
-9.248
 30
0.0
 10
-28.0141
 20
-9.248
 30
0.0
 10
-27.8191
 20
-9.6975
 30
0.0
 10
-27.8191
 20
-9.6975
 30
0.0
  0
SPLINE
  5
91
330
1F
100
AcDbEntity
  8
VRSTVA_1
 62
   250
100
AcDbSpline
210
0.0
220
0.0
230
1.0
 70
     8
 71
     3
 72
    28
 73
    24
 74
     0
 42
0.0000000001
 43
0.0000000001
 40
0.0
 40
0.0
 40
0.0
 40
0.0
 40
0.1428571428571428
 40
0.1428571428571428
 40
0.1428571428571428
 40
0.1428571428571428
 40
0.2857142857142857
 40
0.2857142857142857
 40
0.2857142857142857
 40
0.2857142857142857
 40
0.4285714285714285
 40
0.4285714285714285
 40
0.4285714285714285
 40
0.4285714285714285
 40
0.5714285714285714
 40
0.5714285714285714
 40
0.5714285714285714
 40
0.5714285714285714
 40
0.7142857142857143
 40
0.7142857142857143
 40
0.7142857142857143
 40
0.7142857142857143
 40
1.0
 40
1.0
 40
1.0
 40
1.0
 10
-2.7739
 20
-19.1389
 30
0.0
 10
-2.3972
 20
-19.1389
 30
0.0
 10
-2.0918
 20
-18.7996
 30
0.0
 10
-2.0918
 20
-18.3809
 30
0.0
 10
-2.0918
 20
-18.3809
 30
0.0
 10
-2.0918
 20
-18.3809
 30
0.0
 10
-2.0842
 20
-1.6444
 30
0.0
 10
-2.0842
 20
-1.6444
 30
0.0
 10
-2.0842
 20
-1.6444
 30
0.0
 10
-2.0842
 20
-1.6444
 30
0.0
 10
-2.1627
 20
-1.3525
 30
0.0
 10
-2.1627
 20
-1.3525
 30
0.0
 10
-2.1627
 20
-1.3525
 30
0.0
 10
-2.1627
 20
-1.3525
 30
0.0
 10
-2.3165
 20
-1.172
 30
0.0
 10
-2.3165
 20
-1.172
 30
0.0
 10
-2.3165
 20
-1.172
 30
0.0
 10
-2.3165
 20
-1.172
 30
0.0
 10
-2.5337
 20
-0.9914
 30
0.0
 10
-2.5337
 20
-0.9914
 30
0.0
 10
-2.5337
 20
-0.9914
 30
0.0
 10
-2.5337
 20
-0.9914
 30
0.0
 10
-2.7598
 20
-0.9011
 30
0.0
 10
-2.7598
 20
-0.9011
 30
0.0
  0
SPLINE
  5
92
330
1F
100
AcDbEntity
  8
VRSTVA_1
 62
   250
100
AcDbSpline
210
0.0
220
0.0
230
1.0
 70
    11
 71
     3
 72
    88
 73
    84
 74
     0
 42
0.0000000001
 43
0.0000000001
 40
0.0
 40
0.0
 40
0.0
 40
0.0
 40
0.0454545454545455
 40
0.0454545454545455
 40
0.0454545454545455
 40
0.0454545454545455
 40
0.0909090909090909
 40
0.0909090909090909
 40
0.0909090909090909
 40
0.0909090909090909
 40
0.1363636363636364
 40
0.1363636363636364
 40
0.1363636363636364
 40
0.1363636363636364
 40
0.1818181818181818
 40
0.1818181818181818
 40
0.1818181818181818
 40
0.1818181818181818
 40
0.2272727272727273
 40
0.2272727272727273
 40
0.2272727272727273
 40
0.2272727272727273
 40
0.2727272727272727
 40
0.2727272727272727
 40
0.2727272727272727
 40
0.2727272727272727
 40
0.3181818181818182
 40
0.3181818181818182
 40
0.3181818181818182
 40
0.3181818181818182
 40
0.3636363636363636
 40
0.3636363636363636
 40
0.3636363636363636
 40
0.3636363636363636
 40
0.4090909090909091
 40
0.4090909090909091
 40
0.4090909090909091
 40
0.4090909090909091
 40
0.4545454545454545
 40
0.4545454545454545
 40
0.4545454545454545
 40
0.4545454545454545
 40
0.5
 40
0.5
 40
0.5
 40
0.5
 40
0.5454545454545454
 40
0.5454545454545454
 40
0.5454545454545454
 40
0.5454545454545454
 40
0.5909090909090909
 40
0.5909090909090909
 40
0.5909090909090909
 40
0.5909090909090909
 40
0.6363636363636364
 40
0.6363636363636364
 40
0.6363636363636364
 40
0.6363636363636364
 40
0.6818181818181818
 40
0.6818181818181818
 40
0.6818181818181818
 40
0.6818181818181818
 40
0.7272727272727273
 40
0.7272727272727273
 40
0.7272727272727273
 40
0.7272727272727273
 40
0.7727272727272727
 40
0.7727272727272727
 40
0.7727272727272727
 40
0.7727272727272727
 40
0.8181818181818182
 40
0.8181818181818182
 40
0.8181818181818182
 40
0.8181818181818182
 40
0.8636363636363636
 40
0.8636363636363636
 40
0.8636363636363636
 40
0.8636363636363636
 40
0.9090909090909091
 40
0.9090909090909091
 40
0.9090909090909091
 40
0.9090909090909091
 40
1.0
 40
1.0
 40
1.0
 40
1.0
 10
-5.8196
 20
-15.5595
 30
0.0
 10
-5.8196
 20
-15.5595
 30
0.0
 10
-6.0611
 20
-15.6263
 30
0.0
 10
-6.0611
 20
-15.6263
 30
0.0
 10
-6.0611
 20
-15.6263
 30
0.0
 10
-6.0611
 20
-15.6263
 30
0.0
 10
-6.3269
 20
-15.8138
 30
0.0
 10
-6.3269
 20
-15.8138
 30
0.0
 10
-6.3269
 20
-15.8138
 30
0.0
 10
-6.3269
 20
-15.8138
 30
0.0
 10
-6.4475
 20
-16.028
 30
0.0
 10
-6.4475
 20
-16.028
 30
0.0
 10
-6.4475
 20
-16.028
 30
0.0
 10
-6.4475
 20
-16.028
 30
0.0
 10
-6.4931
 20
-16.3012
 30
0.0
 10
-6.4931
 20
-16.3012
 30
0.0
 10
-6.4931
 20
-16.3012
 30
0.0
 10
-6.4931
 20
-16.3012
 30
0.0
 10
-6.4763
 20
-16.4509
 30
0.0
 10
-6.4763
 20
-16.4509
 30
0.0
 10
-6.4763
 20
-16.4509
 30
0.0
 10
-6.4763
 20
-16.4509
 30
0.0
 10
-6.4254
 20
-16.5972
 30
0.0
 10
-6.4254
 20
-16.5972
 30
0.0
 10
-6.4254
 20
-16.5972
 30
0.0
 10
-6.4254
 20
-16.5972
 30
0.0
 10
-6.3436
 20
-16.7286
 30
0.0
 10
-6.3436
 20
-16.7286
 30
0.0
 10
-6.3436
 20
-16.7286
 30
0.0
 10
-6.3436
 20
-16.7286
 30
0.0
 10
-6.237
 20
-16.8372
 30
0.0
 10
-6.237
 20
-16.8372
 30
0.0
 10
-6.237
 20
-16.8372
 30
0.0
 10
-6.237
 20
-16.8372
 30
0.0
 10
-6.1078
 20
-16.9206
 30
0.0
 10
-6.1078
 20
-16.9206
 30
0.0
 10
-6.1078
 20
-16.9206
 30
0.0
 10
-6.1078
 20
-16.9206
 30
0.0
 10
-5.9618
 20
-16.9733
 30
0.0
 10
-5.9618
 20
-16.9733
 30
0.0
 10
-5.9618
 20
-16.9733
 30
0.0
 10
-5.9618
 20
-16.9733
 30
0.0
 10
-5.8112
 20
-16.9907
 30
0.0
 10
-5.8112
 20
-16.9907
 30
0.0
 10
-5.8112
 20
-16.9907
 30
0.0
 10
-5.8112
 20
-16.9907
 30
0.0
 10
-3.4295
 20
-17.0189
 30
0.0
 10
-3.4295
 20
-17.0189
 30
0.0
 10
-3.4295
 20
-17.0189
 30
0.0
 10
-3.4295
 20
-17.0189
 30
0.0
 10
-3.1759
 20
-16.9254
 30
0.0
 10
-3.1759
 20
-16.9254
 30
0.0
 10
-3.1759
 20
-16.9254
 30
0.0
 10
-3.1759
 20
-16.9254
 30
0.0
 10
-2.9466
 20
-16.7781
 30
0.0
 10
-2.9466
 20
-16.7781
 30
0.0
 10
-2.9466
 20
-16.7781
 30
0.0
 10
-2.9466
 20
-16.7781
 30
0.0
 10
-2.7534
 20
-16.5234
 30
0.0
 10
-2.7534
 20
-16.5234
 30
0.0
 10
-2.7534
 20
-16.5234
 30
0.0
 10
-2.7534
 20
-16.5234
 30
0.0
 10
-2.7294
 20
-16.2022
 30
0.0
 10
-2.7294
 20
-16.2022
 30
0.0
 10
-2.7294
 20
-16.2022
 30
0.0
 10
-2.7294
 20
-16.2022
 30
0.0
 10
-2.8138
 20
-15.9209
 30
0.0
 10
-2.8138
 20
-15.9209
 30
0.0
 10
-2.8138
 20
-15.9209
 30
0.0
 10
-2.8138
 20
-15.9209
 30
0.0
 10
-3.0191
 20
-15.6797
 30
0.0
 10
-3.0191
 20
-15.6797
 30
0.0
 10
-3.0191
 20
-15.6797
 30
0.0
 10
-3.0191
 20
-15.6797
 30
0.0
 10
-3.1638
 20
-15.5862
 30
0.0
 10
-3.1638
 20
-15.5862
 30
0.0
 10
-3.1638
 20
-15.5862
 30
0.0
 10
-3.1638
 20
-15.5862
 30
0.0
 10
-3.3812
 20
-15.5862
 30
0.0
 10
-3.3812
 20
-15.5862
 30
0.0
 10
-3.3812
 20
-15.5862
 30
0.0
 10
-3.3812
 20
-15.5862
 30
0.0
 10
-5.8196
 20
-15.5595
 30
0.0
 10
-5.8196
 20
-15.5595
 30
0.0
  0
SPLINE
  5
93
330
1F
100
AcDbEntity
  8
VRSTVA_1
 62
   250
100
AcDbSpline
210
0.0
220
0.0
230
1.0
 70
    11
 71
     3
 72
    88
 73
    84
 74
     0
 42
0.0000000001
 43
0.0000000001
 40
0.0
 40
0.0
 40
0.0
 40
0.0
 40
0.0454545454545455
 40
0.0454545454545455
 40
0.0454545454545455
 40
0.0454545454545455
 40
0.0909090909090909
 40
0.0909090909090909
 40
0.0909090909090909
 40
0.0909090909090909
 40
0.1363636363636364
 40
0.1363636363636364
 40
0.1363636363636364
 40
0.1363636363636364
 40
0.1818181818181818
 40
0.1818181818181818
 40
0.1818181818181818
 40
0.1818181818181818
 40
0.2272727272727273
 40
0.2272727272727273
 40
0.2272727272727273
 40
0.2272727272727273
 40
0.2727272727272727
 40
0.2727272727272727
 40
0.2727272727272727
 40
0.2727272727272727
 40
0.3181818181818182
 40
0.3181818181818182
 40
0.3181818181818182
 40
0.3181818181818182
 40
0.3636363636363636
 40
0.3636363636363636
 40
0.3636363636363636
 40
0.3636363636363636
 40
0.4090909090909091
 40
0.4090909090909091
 40
0.4090909090909091
 40
0.4090909090909091
 40
0.4545454545454545
 40
0.4545454545454545
 40
0.4545454545454545
 40
0.4545454545454545
 40
0.5
 40
0.5
 40
0.5
 40
0.5
 40
0.5454545454545454
 40
0.5454545454545454
 40
0.5454545454545454
 40
0.5454545454545454
 40
0.5909090909090909
 40
0.5909090909090909
 40
0.5909090909090909
 40
0.5909090909090909
 40
0.6363636363636364
 40
0.6363636363636364
 40
0.6363636363636364
 40
0.6363636363636364
 40
0.6818181818181818
 40
0.6818181818181818
 40
0.6818181818181818
 40
0.6818181818181818
 40
0.7272727272727273
 40
0.7272727272727273
 40
0.7272727272727273
 40
0.7272727272727273
 40
0.7727272727272727
 40
0.7727272727272727
 40
0.7727272727272727
 40
0.7727272727272727
 40
0.8181818181818182
 40
0.8181818181818182
 40
0.8181818181818182
 40
0.8181818181818182
 40
0.8636363636363636
 40
0.8636363636363636
 40
0.8636363636363636
 40
0.8636363636363636
 40
0.9090909090909091
 40
0.9090909090909091
 40
0.9090909090909091
 40
0.9090909090909091
 40
1.0
 40
1.0
 40
1.0
 40
1.0
 10
-5.8506
 20
-2.7769
 30
0.0
 10
-5.8506
 20
-2.7769
 30
0.0
 10
-6.0921
 20
-2.8438
 30
0.0
 10
-6.0921
 20
-2.8438
 30
0.0
 10
-6.0921
 20
-2.8438
 30
0.0
 10
-6.0921
 20
-2.8438
 30
0.0
 10
-6.3579
 20
-3.0313
 30
0.0
 10
-6.3579
 20
-3.0313
 30
0.0
 10
-6.3579
 20
-3.0313
 30
0.0
 10
-6.3579
 20
-3.0313
 30
0.0
 10
-6.4785
 20
-3.2454
 30
0.0
 10
-6.4785
 20
-3.2454
 30
0.0
 10
-6.4785
 20
-3.2454
 30
0.0
 10
-6.4785
 20
-3.2454
 30
0.0
 10
-6.5241
 20
-3.5186
 30
0.0
 10
-6.5241
 20
-3.5186
 30
0.0
 10
-6.5241
 20
-3.5186
 30
0.0
 10
-6.5241
 20
-3.5186
 30
0.0
 10
-6.5074
 20
-3.6683
 30
0.0
 10
-6.5074
 20
-3.6683
 30
0.0
 10
-6.5074
 20
-3.6683
 30
0.0
 10
-6.5074
 20
-3.6683
 30
0.0
 10
-6.4564
 20
-3.8147
 30
0.0
 10
-6.4564
 20
-3.8147
 30
0.0
 10
-6.4564
 20
-3.8147
 30
0.0
 10
-6.4564
 20
-3.8147
 30
0.0
 10
-6.3746
 20
-3.9461
 30
0.0
 10
-6.3746
 20
-3.9461
 30
0.0
 10
-6.3746
 20
-3.9461
 30
0.0
 10
-6.3746
 20
-3.9461
 30
0.0
 10
-6.268
 20
-4.0546
 30
0.0
 10
-6.268
 20
-4.0546
 30
0.0
 10
-6.268
 20
-4.0546
 30
0.0
 10
-6.268
 20
-4.0546
 30
0.0
 10
-6.1388
 20
-4.138
 30
0.0
 10
-6.1388
 20
-4.138
 30
0.0
 10
-6.1388
 20
-4.138
 30
0.0
 10
-6.1388
 20
-4.138
 30
0.0
 10
-5.9928
 20
-4.1908
 30
0.0
 10
-5.9928
 20
-4.1908
 30
0.0
 10
-5.9928
 20
-4.1908
 30
0.0
 10
-5.9928
 20
-4.1908
 30
0.0
 10
-5.8423
 20
-4.2082
 30
0.0
 10
-5.8423
 20
-4.2082
 30
0.0
 10
-5.8423
 20
-4.2082
 30
0.0
 10
-5.8423
 20
-4.2082
 30
0.0
 10
-3.4606
 20
-4.2364
 30
0.0
 10
-3.4606
 20
-4.2364
 30
0.0
 10
-3.4606
 20
-4.2364
 30
0.0
 10
-3.4606
 20
-4.2364
 30
0.0
 10
-3.2069
 20
-4.1428
 30
0.0
 10
-3.2069
 20
-4.1428
 30
0.0
 10
-3.2069
 20
-4.1428
 30
0.0
 10
-3.2069
 20
-4.1428
 30
0.0
 10
-2.9776
 20
-3.9955
 30
0.0
 10
-2.9776
 20
-3.9955
 30
0.0
 10
-2.9776
 20
-3.9955
 30
0.0
 10
-2.9776
 20
-3.9955
 30
0.0
 10
-2.7844
 20
-3.7409
 30
0.0
 10
-2.7844
 20
-3.7409
 30
0.0
 10
-2.7844
 20
-3.7409
 30
0.0
 10
-2.7844
 20
-3.7409
 30
0.0
 10
-2.7604
 20
-3.4197
 30
0.0
 10
-2.7604
 20
-3.4197
 30
0.0
 10
-2.7604
 20
-3.4197
 30
0.0
 10
-2.7604
 20
-3.4197
 30
0.0
 10
-2.8448
 20
-3.1383
 30
0.0
 10
-2.8448
 20
-3.1383
 30
0.0
 10
-2.8448
 20
-3.1383
 30
0.0
 10
-2.8448
 20
-3.1383
 30
0.0
 10
-3.0502
 20
-2.8972
 30
0.0
 10
-3.0502
 20
-2.8972
 30
0.0
 10
-3.0502
 20
-2.8972
 30
0.0
 10
-3.0502
 20
-2.8972
 30
0.0
 10
-3.1948
 20
-2.8036
 30
0.0
 10
-3.1948
 20
-2.8036
 30
0.0
 10
-3.1948
 20
-2.8036
 30
0.0
 10
-3.1948
 20
-2.8036
 30
0.0
 10
-3.4123
 20
-2.8036
 30
0.0
 10
-3.4123
 20
-2.8036
 30
0.0
 10
-3.4123
 20
-2.8036
 30
0.0
 10
-3.4123
 20
-2.8036
 30
0.0
 10
-5.8506
 20
-2.7769
 30
0.0
 10
-5.8506
 20
-2.7769
 30
0.0
  0
SPLINE
  5
94
330
1F
100
AcDbEntity
  8
VRSTVA_1
 62
   250
100
AcDbSpline
210
0.0
220
0.0
230
1.0
 70
    11
 71
     3
 72
    84
 73
    80
 74
     0
 42
0.0000000001
 43
0.0000000001
 40
0.0
 40
0.0
 40
0.0
 40
0.0
 40
0.0476190476190476
 40
0.0476190476190476
 40
0.0476190476190476
 40
0.0476190476190476
 40
0.0952380952380952
 40
0.0952380952380952
 40
0.0952380952380952
 40
0.0952380952380952
 40
0.1428571428571428
 40
0.1428571428571428
 40
0.1428571428571428
 40
0.1428571428571428
 40
0.1904761904761905
 40
0.1904761904761905
 40
0.1904761904761905
 40
0.1904761904761905
 40
0.2380952380952381
 40
0.2380952380952381
 40
0.2380952380952381
 40
0.2380952380952381
 40
0.2857142857142857
 40
0.2857142857142857
 40
0.2857142857142857
 40
0.2857142857142857
 40
0.3333333333333333
 40
0.3333333333333333
 40
0.3333333333333333
 40
0.3333333333333333
 40
0.3809523809523809
 40
0.3809523809523809
 40
0.3809523809523809
 40
0.3809523809523809
 40
0.4285714285714285
 40
0.4285714285714285
 40
0.4285714285714285
 40
0.4285714285714285
 40
0.4761904761904762
 40
0.4761904761904762
 40
0.4761904761904762
 40
0.4761904761904762
 40
0.5238095238095238
 40
0.5238095238095238
 40
0.5238095238095238
 40
0.5238095238095238
 40
0.5714285714285714
 40
0.5714285714285714
 40
0.5714285714285714
 40
0.5714285714285714
 40
0.6190476190476191
 40
0.6190476190476191
 40
0.6190476190476191
 40
0.6190476190476191
 40
0.6666666666666666
 40
0.6666666666666666
 40
0.6666666666666666
 40
0.6666666666666666
 40
0.7142857142857143
 40
0.7142857142857143
 40
0.7142857142857143
 40
0.7142857142857143
 40
0.7619047619047619
 40
0.7619047619047619
 40
0.7619047619047619
 40
0.7619047619047619
 40
0.8095238095238095
 40
0.8095238095238095
 40
0.8095238095238095
 40
0.8095238095238095
 40
0.8571428571428571
 40
0.8571428571428571
 40
0.8571428571428571
 40
0.8571428571428571
 40
0.9047619047619048
 40
0.9047619047619048
 40
0.9047619047619048
 40
0.9047619047619048
 40
1.0
 40
1.0
 40
1.0
 40
1.0
 10
-2.8378
 20
-0.8088
 30
0.0
 10
-2.8378
 20
-0.8088
 30
0.0
 10
-2.851
 20
-0.9704
 30
0.0
 10
-2.851
 20
-0.9704
 30
0.0
 10
-2.851
 20
-0.9704
 30
0.0
 10
-2.851
 20
-0.9704
 30
0.0
 10
-2.997
 20
-1.0439
 30
0.0
 10
-2.997
 20
-1.0439
 30
0.0
 10
-2.997
 20
-1.0439
 30
0.0
 10
-2.997
 20
-1.0439
 30
0.0
 10
-3.3551
 20
-1.1324
 30
0.0
 10
-3.3551
 20
-1.1324
 30
0.0
 10
-3.3551
 20
-1.1324
 30
0.0
 10
-3.3551
 20
-1.1324
 30
0.0
 10
-3.7528
 20
-1.1471
 30
0.0
 10
-3.7528
 20
-1.1471
 30
0.0
 10
-3.7528
 20
-1.1471
 30
0.0
 10
-3.7528
 20
-1.1471
 30
0.0
 10
-6.179
 20
-1.103
 30
0.0
 10
-6.179
 20
-1.103
 30
0.0
 10
-6.179
 20
-1.103
 30
0.0
 10
-6.179
 20
-1.103
 30
0.0
 10
-6.3779
 20
-1.0586
 30
0.0
 10
-6.3779
 20
-1.0586
 30
0.0
 10
-6.3779
 20
-1.0586
 30
0.0
 10
-6.3779
 20
-1.0586
 30
0.0
 10
-6.5724
 20
-0.8801
 30
0.0
 10
-6.5724
 20
-0.8801
 30
0.0
 10
-6.5724
 20
-0.8801
 30
0.0
 10
-6.5724
 20
-0.8801
 30
0.0
 10
-6.5619
 20
-0.8315
 30
0.0
 10
-6.5619
 20
-0.8315
 30
0.0
 10
-6.5619
 20
-0.8315
 30
0.0
 10
-6.5619
 20
-0.8315
 30
0.0
 10
-6.5071
 20
-0.693
 30
0.0
 10
-6.5071
 20
-0.693
 30
0.0
 10
-6.5071
 20
-0.693
 30
0.0
 10
-6.5071
 20
-0.693
 30
0.0
 10
-6.4289
 20
-0.5826
 30
0.0
 10
-6.4289
 20
-0.5826
 30
0.0
 10
-6.4289
 20
-0.5826
 30
0.0
 10
-6.4289
 20
-0.5826
 30
0.0
 10
-6.342
 20
-0.5052
 30
0.0
 10
-6.342
 20
-0.5052
 30
0.0
 10
-6.342
 20
-0.5052
 30
0.0
 10
-6.342
 20
-0.5052
 30
0.0
 10
-6.2573
 20
-0.4557
 30
0.0
 10
-6.2573
 20
-0.4557
 30
0.0
 10
-6.2573
 20
-0.4557
 30
0.0
 10
-6.2573
 20
-0.4557
 30
0.0
 10
-6.1787
 20
-0.4263
 30
0.0
 10
-6.1787
 20
-0.4263
 30
0.0
 10
-6.1787
 20
-0.4263
 30
0.0
 10
-6.1787
 20
-0.4263
 30
0.0
 10
-6.1008
 20
-0.4083
 30
0.0
 10
-6.1008
 20
-0.4083
 30
0.0
 10
-6.1008
 20
-0.4083
 30
0.0
 10
-6.1008
 20
-0.4083
 30
0.0
 10
-6.0087
 20
-0.3969
 30
0.0
 10
-6.0087
 20
-0.3969
 30
0.0
 10
-6.0087
 20
-0.3969
 30
0.0
 10
-6.0087
 20
-0.3969
 30
0.0
 10
-5.9003
 20
-0.3927
 30
0.0
 10
-5.9003
 20
-0.3927
 30
0.0
 10
-5.9003
 20
-0.3927
 30
0.0
 10
-5.9003
 20
-0.3927
 30
0.0
 10
-3.4611
 20
-0.3822
 30
0.0
 10
-3.4611
 20
-0.3822
 30
0.0
 10
-3.4611
 20
-0.3822
 30
0.0
 10
-3.4611
 20
-0.3822
 30
0.0
 10
-3.1559
 20
-0.3969
 30
0.0
 10
-3.1559
 20
-0.3969
 30
0.0
 10
-3.1559
 20
-0.3969
 30
0.0
 10
-3.1559
 20
-0.3969
 30
0.0
 10
-2.9571
 20
-0.5439
 30
0.0
 10
-2.9571
 20
-0.5439
 30
0.0
 10
-2.9571
 20
-0.5439
 30
0.0
 10
-2.9571
 20
-0.5439
 30
0.0
 10
-2.8378
 20
-0.8088
 30
0.0
 10
-2.8378
 20
-0.8088
 30
0.0
  0
SPLINE
  5
95
330
1F
100
AcDbEntity
  8
VRSTVA_1
 62
   250
100
AcDbSpline
210
0.0
220
0.0
230
1.0
 70
    11
 71
     3
 72
    88
 73
    84
 74
     0
 42
0.0000000001
 43
0.0000000001
 40
0.0
 40
0.0
 40
0.0
 40
0.0
 40
0.0454545454545455
 40
0.0454545454545455
 40
0.0454545454545455
 40
0.0454545454545455
 40
0.0909090909090909
 40
0.0909090909090909
 40
0.0909090909090909
 40
0.0909090909090909
 40
0.1363636363636364
 40
0.1363636363636364
 40
0.1363636363636364
 40
0.1363636363636364
 40
0.1818181818181818
 40
0.1818181818181818
 40
0.1818181818181818
 40
0.1818181818181818
 40
0.2272727272727273
 40
0.2272727272727273
 40
0.2272727272727273
 40
0.2272727272727273
 40
0.2727272727272727
 40
0.2727272727272727
 40
0.2727272727272727
 40
0.2727272727272727
 40
0.3181818181818182
 40
0.3181818181818182
 40
0.3181818181818182
 40
0.3181818181818182
 40
0.3636363636363636
 40
0.3636363636363636
 40
0.3636363636363636
 40
0.3636363636363636
 40
0.4090909090909091
 40
0.4090909090909091
 40
0.4090909090909091
 40
0.4090909090909091
 40
0.4545454545454545
 40
0.4545454545454545
 40
0.4545454545454545
 40
0.4545454545454545
 40
0.5
 40
0.5
 40
0.5
 40
0.5
 40
0.5454545454545454
 40
0.5454545454545454
 40
0.5454545454545454
 40
0.5454545454545454
 40
0.5909090909090909
 40
0.5909090909090909
 40
0.5909090909090909
 40
0.5909090909090909
 40
0.6363636363636364
 40
0.6363636363636364
 40
0.6363636363636364
 40
0.6363636363636364
 40
0.6818181818181818
 40
0.6818181818181818
 40
0.6818181818181818
 40
0.6818181818181818
 40
0.7272727272727273
 40
0.7272727272727273
 40
0.7272727272727273
 40
0.7272727272727273
 40
0.7727272727272727
 40
0.7727272727272727
 40
0.7727272727272727
 40
0.7727272727272727
 40
0.8181818181818182
 40
0.8181818181818182
 40
0.8181818181818182
 40
0.8181818181818182
 40
0.8636363636363636
 40
0.8636363636363636
 40
0.8636363636363636
 40
0.8636363636363636
 40
0.9090909090909091
 40
0.9090909090909091
 40
0.9090909090909091
 40
0.9090909090909091
 40
1.0
 40
1.0
 40
1.0
 40
1.0
 10
-5.8817
 20
-9.2183
 30
0.0
 10
-5.8817
 20
-9.2183
 30
0.0
 10
-6.1232
 20
-9.2852
 30
0.0
 10
-6.1232
 20
-9.2852
 30
0.0
 10
-6.1232
 20
-9.2852
 30
0.0
 10
-6.1232
 20
-9.2852
 30
0.0
 10
-6.3889
 20
-9.4726
 30
0.0
 10
-6.3889
 20
-9.4726
 30
0.0
 10
-6.3889
 20
-9.4726
 30
0.0
 10
-6.3889
 20
-9.4726
 30
0.0
 10
-6.5095
 20
-9.6868
 30
0.0
 10
-6.5095
 20
-9.6868
 30
0.0
 10
-6.5095
 20
-9.6868
 30
0.0
 10
-6.5095
 20
-9.6868
 30
0.0
 10
-6.5551
 20
-9.96
 30
0.0
 10
-6.5551
 20
-9.96
 30
0.0
 10
-6.5551
 20
-9.96
 30
0.0
 10
-6.5551
 20
-9.96
 30
0.0
 10
-6.5384
 20
-10.1097
 30
0.0
 10
-6.5384
 20
-10.1097
 30
0.0
 10
-6.5384
 20
-10.1097
 30
0.0
 10
-6.5384
 20
-10.1097
 30
0.0
 10
-6.4874
 20
-10.256
 30
0.0
 10
-6.4874
 20
-10.256
 30
0.0
 10
-6.4874
 20
-10.256
 30
0.0
 10
-6.4874
 20
-10.256
 30
0.0
 10
-6.4057
 20
-10.3874
 30
0.0
 10
-6.4057
 20
-10.3874
 30
0.0
 10
-6.4057
 20
-10.3874
 30
0.0
 10
-6.4057
 20
-10.3874
 30
0.0
 10
-6.2991
 20
-10.496
 30
0.0
 10
-6.2991
 20
-10.496
 30
0.0
 10
-6.2991
 20
-10.496
 30
0.0
 10
-6.2991
 20
-10.496
 30
0.0
 10
-6.1698
 20
-10.5794
 30
0.0
 10
-6.1698
 20
-10.5794
 30
0.0
 10
-6.1698
 20
-10.5794
 30
0.0
 10
-6.1698
 20
-10.5794
 30
0.0
 10
-6.0239
 20
-10.6322
 30
0.0
 10
-6.0239
 20
-10.6322
 30
0.0
 10
-6.0239
 20
-10.6322
 30
0.0
 10
-6.0239
 20
-10.6322
 30
0.0
 10
-5.8733
 20
-10.6496
 30
0.0
 10
-5.8733
 20
-10.6496
 30
0.0
 10
-5.8733
 20
-10.6496
 30
0.0
 10
-5.8733
 20
-10.6496
 30
0.0
 10
-3.4916
 20
-10.6777
 30
0.0
 10
-3.4916
 20
-10.6777
 30
0.0
 10
-3.4916
 20
-10.6777
 30
0.0
 10
-3.4916
 20
-10.6777
 30
0.0
 10
-3.238
 20
-10.5842
 30
0.0
 10
-3.238
 20
-10.5842
 30
0.0
 10
-3.238
 20
-10.5842
 30
0.0
 10
-3.238
 20
-10.5842
 30
0.0
 10
-3.0086
 20
-10.4369
 30
0.0
 10
-3.0086
 20
-10.4369
 30
0.0
 10
-3.0086
 20
-10.4369
 30
0.0
 10
-3.0086
 20
-10.4369
 30
0.0
 10
-2.8154
 20
-10.1823
 30
0.0
 10
-2.8154
 20
-10.1823
 30
0.0
 10
-2.8154
 20
-10.1823
 30
0.0
 10
-2.8154
 20
-10.1823
 30
0.0
 10
-2.7914
 20
-9.861
 30
0.0
 10
-2.7914
 20
-9.861
 30
0.0
 10
-2.7914
 20
-9.861
 30
0.0
 10
-2.7914
 20
-9.861
 30
0.0
 10
-2.8759
 20
-9.5797
 30
0.0
 10
-2.8759
 20
-9.5797
 30
0.0
 10
-2.8759
 20
-9.5797
 30
0.0
 10
-2.8759
 20
-9.5797
 30
0.0
 10
-3.0812
 20
-9.3385
 30
0.0
 10
-3.0812
 20
-9.3385
 30
0.0
 10
-3.0812
 20
-9.3385
 30
0.0
 10
-3.0812
 20
-9.3385
 30
0.0
 10
-3.2258
 20
-9.245
 30
0.0
 10
-3.2258
 20
-9.245
 30
0.0
 10
-3.2258
 20
-9.245
 30
0.0
 10
-3.2258
 20
-9.245
 30
0.0
 10
-3.4433
 20
-9.245
 30
0.0
 10
-3.4433
 20
-9.245
 30
0.0
 10
-3.4433
 20
-9.245
 30
0.0
 10
-3.4433
 20
-9.245
 30
0.0
 10
-5.8817
 20
-9.2183
 30
0.0
 10
-5.8817
 20
-9.2183
 30
0.0
  0
SPLINE
  5
96
330
1F
100
AcDbEntity
  8
VRSTVA_1
 62
   250
100
AcDbSpline
210
0.0
220
0.0
230
1.0
 70
    11
 71
     3
 72
    84
 73
    80
 74
     0
 42
0.0000000001
 43
0.0000000001
 40
0.0
 40
0.0
 40
0.0
 40
0.0
 40
0.0476190476190476
 40
0.0476190476190476
 40
0.0476190476190476
 40
0.0476190476190476
 40
0.0952380952380952
 40
0.0952380952380952
 40
0.0952380952380952
 40
0.0952380952380952
 40
0.1428571428571428
 40
0.1428571428571428
 40
0.1428571428571428
 40
0.1428571428571428
 40
0.1904761904761905
 40
0.1904761904761905
 40
0.1904761904761905
 40
0.1904761904761905
 40
0.2380952380952381
 40
0.2380952380952381
 40
0.2380952380952381
 40
0.2380952380952381
 40
0.2857142857142857
 40
0.2857142857142857
 40
0.2857142857142857
 40
0.2857142857142857
 40
0.3333333333333333
 40
0.3333333333333333
 40
0.3333333333333333
 40
0.3333333333333333
 40
0.3809523809523809
 40
0.3809523809523809
 40
0.3809523809523809
 40
0.3809523809523809
 40
0.4285714285714285
 40
0.4285714285714285
 40
0.4285714285714285
 40
0.4285714285714285
 40
0.4761904761904762
 40
0.4761904761904762
 40
0.4761904761904762
 40
0.4761904761904762
 40
0.5238095238095238
 40
0.5238095238095238
 40
0.5238095238095238
 40
0.5238095238095238
 40
0.5714285714285714
 40
0.5714285714285714
 40
0.5714285714285714
 40
0.5714285714285714
 40
0.6190476190476191
 40
0.6190476190476191
 40
0.6190476190476191
 40
0.6190476190476191
 40
0.6666666666666666
 40
0.6666666666666666
 40
0.6666666666666666
 40
0.6666666666666666
 40
0.7142857142857143
 40
0.7142857142857143
 40
0.7142857142857143
 40
0.7142857142857143
 40
0.7619047619047619
 40
0.7619047619047619
 40
0.7619047619047619
 40
0.7619047619047619
 40
0.8095238095238095
 40
0.8095238095238095
 40
0.8095238095238095
 40
0.8095238095238095
 40
0.8571428571428571
 40
0.8571428571428571
 40
0.8571428571428571
 40
0.8571428571428571
 40
0.9047619047619048
 40
0.9047619047619048
 40
0.9047619047619048
 40
0.9047619047619048
 40
1.0
 40
1.0
 40
1.0
 40
1.0
 10
-6.5182
 20
-19.209
 30
0.0
 10
-6.5182
 20
-19.209
 30
0.0
 10
-6.5049
 20
-19.0474
 30
0.0
 10
-6.5049
 20
-19.0474
 30
0.0
 10
-6.5049
 20
-19.0474
 30
0.0
 10
-6.5049
 20
-19.0474
 30
0.0
 10
-6.359
 20
-18.9739
 30
0.0
 10
-6.359
 20
-18.9739
 30
0.0
 10
-6.359
 20
-18.9739
 30
0.0
 10
-6.359
 20
-18.9739
 30
0.0
 10
-6.0009
 20
-18.8854
 30
0.0
 10
-6.0009
 20
-18.8854
 30
0.0
 10
-6.0009
 20
-18.8854
 30
0.0
 10
-6.0009
 20
-18.8854
 30
0.0
 10
-5.6032
 20
-18.8707
 30
0.0
 10
-5.6032
 20
-18.8707
 30
0.0
 10
-5.6032
 20
-18.8707
 30
0.0
 10
-5.6032
 20
-18.8707
 30
0.0
 10
-3.177
 20
-18.9148
 30
0.0
 10
-3.177
 20
-18.9148
 30
0.0
 10
-3.177
 20
-18.9148
 30
0.0
 10
-3.177
 20
-18.9148
 30
0.0
 10
-2.9781
 20
-18.9592
 30
0.0
 10
-2.9781
 20
-18.9592
 30
0.0
 10
-2.9781
 20
-18.9592
 30
0.0
 10
-2.9781
 20
-18.9592
 30
0.0
 10
-2.7836
 20
-19.1377
 30
0.0
 10
-2.7836
 20
-19.1377
 30
0.0
 10
-2.7836
 20
-19.1377
 30
0.0
 10
-2.7836
 20
-19.1377
 30
0.0
 10
-2.7941
 20
-19.1862
 30
0.0
 10
-2.7941
 20
-19.1862
 30
0.0
 10
-2.7941
 20
-19.1862
 30
0.0
 10
-2.7941
 20
-19.1862
 30
0.0
 10
-2.8489
 20
-19.3248
 30
0.0
 10
-2.8489
 20
-19.3248
 30
0.0
 10
-2.8489
 20
-19.3248
 30
0.0
 10
-2.8489
 20
-19.3248
 30
0.0
 10
-2.9271
 20
-19.4352
 30
0.0
 10
-2.9271
 20
-19.4352
 30
0.0
 10
-2.9271
 20
-19.4352
 30
0.0
 10
-2.9271
 20
-19.4352
 30
0.0
 10
-3.014
 20
-19.5126
 30
0.0
 10
-3.014
 20
-19.5126
 30
0.0
 10
-3.014
 20
-19.5126
 30
0.0
 10
-3.014
 20
-19.5126
 30
0.0
 10
-3.0987
 20
-19.5621
 30
0.0
 10
-3.0987
 20
-19.5621
 30
0.0
 10
-3.0987
 20
-19.5621
 30
0.0
 10
-3.0987
 20
-19.5621
 30
0.0
 10
-3.1773
 20
-19.5915
 30
0.0
 10
-3.1773
 20
-19.5915
 30
0.0
 10
-3.1773
 20
-19.5915
 30
0.0
 10
-3.1773
 20
-19.5915
 30
0.0
 10
-3.2552
 20
-19.6095
 30
0.0
 10
-3.2552
 20
-19.6095
 30
0.0
 10
-3.2552
 20
-19.6095
 30
0.0
 10
-3.2552
 20
-19.6095
 30
0.0
 10
-3.3472
 20
-19.6209
 30
0.0
 10
-3.3472
 20
-19.6209
 30
0.0
 10
-3.3472
 20
-19.6209
 30
0.0
 10
-3.3472
 20
-19.6209
 30
0.0
 10
-3.4557
 20
-19.625
 30
0.0
 10
-3.4557
 20
-19.625
 30
0.0
 10
-3.4557
 20
-19.625
 30
0.0
 10
-3.4557
 20
-19.625
 30
0.0
 10
-5.8949
 20
-19.6355
 30
0.0
 10
-5.8949
 20
-19.6355
 30
0.0
 10
-5.8949
 20
-19.6355
 30
0.0
 10
-5.8949
 20
-19.6355
 30
0.0
 10
-6.2001
 20
-19.6209
 30
0.0
 10
-6.2001
 20
-19.6209
 30
0.0
 10
-6.2001
 20
-19.6209
 30
0.0
 10
-6.2001
 20
-19.6209
 30
0.0
 10
-6.3989
 20
-19.4739
 30
0.0
 10
-6.3989
 20
-19.4739
 30
0.0
 10
-6.3989
 20
-19.4739
 30
0.0
 10
-6.3989
 20
-19.4739
 30
0.0
 10
-6.5182
 20
-19.209
 30
0.0
 10
-6.5182
 20
-19.209
 30
0.0
  0
SPLINE
  5
97
330
1F
100
AcDbEntity
  8
VRSTVA_1
 62
   250
100
AcDbSpline
210
0.0
220
0.0
230
1.0
 70
     8
 71
     3
 72
    24
 73
    20
 74
     0
 42
0.0000000001
 43
0.0000000001
 40
0.0
 40
0.0
 40
0.0
 40
0.0
 40
0.1666666666666667
 40
0.1666666666666667
 40
0.1666666666666667
 40
0.1666666666666667
 40
0.3333333333333333
 40
0.3333333333333333
 40
0.3333333333333333
 40
0.3333333333333333
 40
0.5
 40
0.5
 40
0.5
 40
0.5
 40
0.6666666666666666
 40
0.6666666666666666
 40
0.6666666666666666
 40
0.6666666666666666
 40
1.0
 40
1.0
 40
1.0
 40
1.0
 10
-6.5241
 20
-19.1389
 30
0.0
 10
-6.9008
 20
-19.1389
 30
0.0
 10
-7.2059
 20
-18.7996
 30
0.0
 10
-7.2059
 20
-18.3809
 30
0.0
 10
-7.2059
 20
-18.3809
 30
0.0
 10
-7.2059
 20
-18.3809
 30
0.0
 10
-7.1997
 20
-1.6714
 30
0.0
 10
-7.1997
 20
-1.6714
 30
0.0
 10
-7.1997
 20
-1.6714
 30
0.0
 10
-7.1997
 20
-1.6714
 30
0.0
 10
-7.1021
 20
-1.3246
 30
0.0
 10
-7.1021
 20
-1.3246
 30
0.0
 10
-7.1021
 20
-1.3246
 30
0.0
 10
-7.1021
 20
-1.3246
 30
0.0
 10
-7.0044
 20
-1.1513
 30
0.0
 10
-7.0044
 20
-1.1513
 30
0.0
 10
-7.0044
 20
-1.1513
 30
0.0
 10
-7.0044
 20
-1.1513
 30
0.0
 10
-6.5549
 20
-0.9563
 30
0.0
 10
-6.5549
 20
-0.9563
 30
0.0
  0
SPLINE
  5
98
330
1F
100
AcDbEntity
  8
VRSTVA_1
 62
   250
100
AcDbSpline
210
0.0
220
0.0
230
1.0
 70
    11
 71
     3
 72
    84
 73
    80
 74
     0
 42
0.0000000001
 43
0.0000000001
 40
0.0
 40
0.0
 40
0.0
 40
0.0
 40
0.0476190476190476
 40
0.0476190476190476
 40
0.0476190476190476
 40
0.0476190476190476
 40
0.0952380952380952
 40
0.0952380952380952
 40
0.0952380952380952
 40
0.0952380952380952
 40
0.1428571428571428
 40
0.1428571428571428
 40
0.1428571428571428
 40
0.1428571428571428
 40
0.1904761904761905
 40
0.1904761904761905
 40
0.1904761904761905
 40
0.1904761904761905
 40
0.2380952380952381
 40
0.2380952380952381
 40
0.2380952380952381
 40
0.2380952380952381
 40
0.2857142857142857
 40
0.2857142857142857
 40
0.2857142857142857
 40
0.2857142857142857
 40
0.3333333333333333
 40
0.3333333333333333
 40
0.3333333333333333
 40
0.3333333333333333
 40
0.3809523809523809
 40
0.3809523809523809
 40
0.3809523809523809
 40
0.3809523809523809
 40
0.4285714285714285
 40
0.4285714285714285
 40
0.4285714285714285
 40
0.4285714285714285
 40
0.4761904761904762
 40
0.4761904761904762
 40
0.4761904761904762
 40
0.4761904761904762
 40
0.5238095238095238
 40
0.5238095238095238
 40
0.5238095238095238
 40
0.5238095238095238
 40
0.5714285714285714
 40
0.5714285714285714
 40
0.5714285714285714
 40
0.5714285714285714
 40
0.6190476190476191
 40
0.6190476190476191
 40
0.6190476190476191
 40
0.6190476190476191
 40
0.6666666666666666
 40
0.6666666666666666
 40
0.6666666666666666
 40
0.6666666666666666
 40
0.7142857142857143
 40
0.7142857142857143
 40
0.7142857142857143
 40
0.7142857142857143
 40
0.7619047619047619
 40
0.7619047619047619
 40
0.7619047619047619
 40
0.7619047619047619
 40
0.8095238095238095
 40
0.8095238095238095
 40
0.8095238095238095
 40
0.8095238095238095
 40
0.8571428571428571
 40
0.8571428571428571
 40
0.8571428571428571
 40
0.8571428571428571
 40
0.9047619047619048
 40
0.9047619047619048
 40
0.9047619047619048
 40
0.9047619047619048
 40
1.0
 40
1.0
 40
1.0
 40
1.0
 10
15.5919
 20
-10.5852
 30
0.0
 10
15.5919
 20
-10.5852
 30
0.0
 10
15.2503
 20
-10.2801
 30
0.0
 10
15.2503
 20
-10.2801
 30
0.0
 10
15.2503
 20
-10.2801
 30
0.0
 10
15.2503
 20
-10.2801
 30
0.0
 10
15.4027
 20
-10.1003
 30
0.0
 10
15.4027
 20
-10.1003
 30
0.0
 10
15.4027
 20
-10.1003
 30
0.0
 10
15.4027
 20
-10.1003
 30
0.0
 10
15.7624
 20
-10.4197
 30
0.0
 10
15.7624
 20
-10.4197
 30
0.0
 10
15.7624
 20
-10.4197
 30
0.0
 10
15.9174
 20
-10.3155
 30
0.0
 10
16.0532
 20
-10.2454
 30
0.0
 10
16.1691
 20
-10.2089
 30
0.0
 10
16.1691
 20
-10.2089
 30
0.0
 10
16.3217
 20
-10.1604
 30
0.0
 10
16.4928
 20
-10.1363
 30
0.0
 10
16.6813
 20
-10.1363
 30
0.0
 10
16.6813
 20
-10.1363
 30
0.0
 10
16.9542
 20
-10.1363
 30
0.0
 10
17.1973
 20
-10.1914
 30
0.0
 10
17.4099
 20
-10.3018
 30
0.0
 10
17.4099
 20
-10.3018
 30
0.0
 10
17.6232
 20
-10.4122
 30
0.0
 10
17.7845
 20
-10.5667
 30
0.0
 10
17.8936
 20
-10.7657
 30
0.0
 10
17.8936
 20
-10.7657
 30
0.0
 10
18.0021
 20
-10.9653
 30
0.0
 10
18.0566
 20
-11.1768
 30
0.0
 10
18.0566
 20
-11.4006
 30
0.0
 10
18.0566
 20
-11.4006
 30
0.0
 10
18.0566
 20
-11.5681
 30
0.0
 10
18.0331
 20
-11.7193
 30
0.0
 10
17.986
 20
-11.8551
 30
0.0
 10
17.986
 20
-11.8551
 30
0.0
 10
17.9494
 20
-11.9592
 30
0.0
 10
17.8799
 20
-12.0808
 30
0.0
 10
17.777
 20
-12.2204
 30
0.0
 10
17.777
 20
-12.2204
 30
0.0
 10
17.777
 20
-12.2204
 30
0.0
 10
18.1186
 20
-12.5254
 30
0.0
 10
18.1186
 20
-12.5254
 30
0.0
 10
18.1186
 20
-12.5254
 30
0.0
 10
18.1186
 20
-12.5254
 30
0.0
 10
17.9662
 20
-12.7052
 30
0.0
 10
17.9662
 20
-12.7052
 30
0.0
 10
17.9662
 20
-12.7052
 30
0.0
 10
17.9662
 20
-12.7052
 30
0.0
 10
17.6084
 20
-12.3853
 30
0.0
 10
17.6084
 20
-12.3853
 30
0.0
 10
17.6084
 20
-12.3853
 30
0.0
 10
17.4279
 20
-12.5043
 30
0.0
 10
17.2735
 20
-12.5837
 30
0.0
 10
17.1457
 20
-12.6234
 30
0.0
 10
17.1457
 20
-12.6234
 30
0.0
 10
17.0181
 20
-12.6631
 30
0.0
 10
16.8643
 20
-12.6835
 30
0.0
 10
16.6851
 20
-12.6835
 30
0.0
 10
16.6851
 20
-12.6835
 30
0.0
 10
16.4116
 20
-12.6835
 30
0.0
 10
16.1679
 20
-12.629
 30
0.0
 10
15.9541
 20
-12.5198
 30
0.0
 10
15.9541
 20
-12.5198
 30
0.0
 10
15.7401
 20
-12.4107
 30
0.0
 10
15.5782
 20
-12.2581
 30
0.0
 10
15.4679
 20
-12.061
 30
0.0
 10
15.4679
 20
-12.061
 30
0.0
 10
15.3581
 20
-11.8645
 30
0.0
 10
15.303
 20
-11.6455
 30
0.0
 10
15.303
 20
-11.4043
 30
0.0
 10
15.303
 20
-11.4043
 30
0.0
 10
15.303
 20
-11.2419
 30
0.0
 10
15.324
 20
-11.0998
 30
0.0
 10
15.3675
 20
-10.9784
 30
0.0
 10
15.3675
 20
-10.9784
 30
0.0
 10
15.4102
 20
-10.8568
 30
0.0
 10
15.4853
 20
-10.7253
 30
0.0
 10
15.5919
 20
-10.5852
 30
0.0
  0
SPLINE
  5
99
330
1F
100
AcDbEntity
  8
VRSTVA_1
 62
   250
100
AcDbSpline
210
0.0
220
0.0
230
1.0
 70
    11
 71
     3
 72
    32
 73
    28
 74
     0
 42
0.0000000001
 43
0.0000000001
 40
0.0
 40
0.0
 40
0.0
 40
0.0
 40
0.125
 40
0.125
 40
0.125
 40
0.125
 40
0.25
 40
0.25
 40
0.25
 40
0.25
 40
0.375
 40
0.375
 40
0.375
 40
0.375
 40
0.5
 40
0.5
 40
0.5
 40
0.5
 40
0.625
 40
0.625
 40
0.625
 40
0.625
 40
0.75
 40
0.75
 40
0.75
 40
0.75
 40
1.0
 40
1.0
 40
1.0
 40
1.0
 10
15.8369
 20
-10.8029
 30
0.0
 10
15.7476
 20
-10.917
 30
0.0
 10
15.6862
 20
-11.0167
 30
0.0
 10
15.6533
 20
-11.1017
 30
0.0
 10
15.6533
 20
-11.1017
 30
0.0
 10
15.621
 20
-11.1874
 30
0.0
 10
15.6044
 20
-11.2877
 30
0.0
 10
15.6044
 20
-11.4024
 30
0.0
 10
15.6044
 20
-11.4024
 30
0.0
 10
15.6044
 20
-11.6678
 30
0.0
 10
15.6941
 20
-11.8868
 30
0.0
 10
15.874
 20
-12.0604
 30
0.0
 10
15.874
 20
-12.0604
 30
0.0
 10
16.0538
 20
-12.2333
 30
0.0
 10
16.3223
 20
-12.3201
 30
0.0
 10
16.6801
 20
-12.3201
 30
0.0
 10
16.6801
 20
-12.3201
 30
0.0
 10
16.8202
 20
-12.3201
 30
0.0
 10
16.9449
 20
-12.3066
 30
0.0
 10
17.054
 20
-12.2799
 30
0.0
 10
17.054
 20
-12.2799
 30
0.0
 10
17.1353
 20
-12.2606
 30
0.0
 10
17.235
 20
-12.2204
 30
0.0
 10
17.3535
 20
-12.1584
 30
0.0
 10
17.3535
 20
-12.1584
 30
0.0
 10
17.3535
 20
-12.1584
 30
0.0
 10
15.8369
 20
-10.8029
 30
0.0
 10
15.8369
 20
-10.8029
 30
0.0
  0
SPLINE
  5
9A
330
1F
100
AcDbEntity
  8
VRSTVA_1
 62
   250
100
AcDbSpline
210
0.0
220
0.0
230
1.0
 70
    11
 71
     3
 72
    28
 73
    24
 74
     0
 42
0.0000000001
 43
0.0000000001
 40
0.0
 40
0.0
 40
0.0
 40
0.0
 40
0.1428571428571428
 40
0.1428571428571428
 40
0.1428571428571428
 40
0.1428571428571428
 40
0.2857142857142857
 40
0.2857142857142857
 40
0.2857142857142857
 40
0.2857142857142857
 40
0.4285714285714285
 40
0.4285714285714285
 40
0.4285714285714285
 40
0.4285714285714285
 40
0.5714285714285714
 40
0.5714285714285714
 40
0.5714285714285714
 40
0.5714285714285714
 40
0.7142857142857143
 40
0.7142857142857143
 40
0.7142857142857143
 40
0.7142857142857143
 40
1.0
 40
1.0
 40
1.0
 40
1.0
 10
16.024
 20
-10.6541
 30
0.0
 10
16.024
 20
-10.6541
 30
0.0
 10
17.5352
 20
-12.0039
 30
0.0
 10
17.5352
 20
-12.0039
 30
0.0
 10
17.5352
 20
-12.0039
 30
0.0
 10
17.6115
 20
-11.9109
 30
0.0
 10
17.6648
 20
-11.8247
 30
0.0
 10
17.6952
 20
-11.746
 30
0.0
 10
17.6952
 20
-11.746
 30
0.0
 10
17.7354
 20
-11.643
 30
0.0
 10
17.7554
 20
-11.5315
 30
0.0
 10
17.7554
 20
-11.4118
 30
0.0
 10
17.7554
 20
-11.4118
 30
0.0
 10
17.7554
 20
-11.1476
 30
0.0
 10
17.6623
 20
-10.9299
 30
0.0
 10
17.4756
 20
-10.7576
 30
0.0
 10
17.4756
 20
-10.7576
 30
0.0
 10
17.289
 20
-10.5858
 30
0.0
 10
17.0273
 20
-10.4997
 30
0.0
 10
16.6907
 20
-10.4997
 30
0.0
 10
16.6907
 20
-10.4997
 30
0.0
 10
16.4389
 20
-10.4997
 30
0.0
 10
16.2163
 20
-10.5511
 30
0.0
 10
16.024
 20
-10.6541
 30
0.0
  0
SPLINE
  5
9B
330
1F
100
AcDbEntity
  8
VRSTVA_1
 62
   250
100
AcDbSpline
210
0.0
220
0.0
230
1.0
 70
    11
 71
     3
 72
   124
 73
   120
 74
     0
 42
0.0000000001
 43
0.0000000001
 40
0.0
 40
0.0
 40
0.0
 40
0.0
 40
0.032258064516129
 40
0.032258064516129
 40
0.032258064516129
 40
0.032258064516129
 40
0.0645161290322581
 40
0.0645161290322581
 40
0.0645161290322581
 40
0.0645161290322581
 40
0.0967741935483871
 40
0.0967741935483871
 40
0.0967741935483871
 40
0.0967741935483871
 40
0.1290322580645161
 40
0.1290322580645161
 40
0.1290322580645161
 40
0.1290322580645161
 40
0.1612903225806452
 40
0.1612903225806452
 40
0.1612903225806452
 40
0.1612903225806452
 40
0.1935483870967742
 40
0.1935483870967742
 40
0.1935483870967742
 40
0.1935483870967742
 40
0.2258064516129032
 40
0.2258064516129032
 40
0.2258064516129032
 40
0.2258064516129032
 40
0.2580645161290323
 40
0.2580645161290323
 40
0.2580645161290323
 40
0.2580645161290323
 40
0.2903225806451613
 40
0.2903225806451613
 40
0.2903225806451613
 40
0.2903225806451613
 40
0.3225806451612903
 40
0.3225806451612903
 40
0.3225806451612903
 40
0.3225806451612903
 40
0.3548387096774194
 40
0.3548387096774194
 40
0.3548387096774194
 40
0.3548387096774194
 40
0.3870967741935484
 40
0.3870967741935484
 40
0.3870967741935484
 40
0.3870967741935484
 40
0.4193548387096774
 40
0.4193548387096774
 40
0.4193548387096774
 40
0.4193548387096774
 40
0.4516129032258064
 40
0.4516129032258064
 40
0.4516129032258064
 40
0.4516129032258064
 40
0.4838709677419355
 40
0.4838709677419355
 40
0.4838709677419355
 40
0.4838709677419355
 40
0.5161290322580645
 40
0.5161290322580645
 40
0.5161290322580645
 40
0.5161290322580645
 40
0.5483870967741935
 40
0.5483870967741935
 40
0.5483870967741935
 40
0.5483870967741935
 40
0.5806451612903226
 40
0.5806451612903226
 40
0.5806451612903226
 40
0.5806451612903226
 40
0.6129032258064516
 40
0.6129032258064516
 40
0.6129032258064516
 40
0.6129032258064516
 40
0.6451612903225806
 40
0.6451612903225806
 40
0.6451612903225806
 40
0.6451612903225806
 40
0.6774193548387096
 40
0.6774193548387096
 40
0.6774193548387096
 40
0.6774193548387096
 40
0.7096774193548387
 40
0.7096774193548387
 40
0.7096774193548387
 40
0.7096774193548387
 40
0.7419354838709677
 40
0.7419354838709677
 40
0.7419354838709677
 40
0.7419354838709677
 40
0.7741935483870968
 40
0.7741935483870968
 40
0.7741935483870968
 40
0.7741935483870968
 40
0.8064516129032258
 40
0.8064516129032258
 40
0.8064516129032258
 40
0.8064516129032258
 40
0.8387096774193549
 40
0.8387096774193549
 40
0.8387096774193549
 40
0.8387096774193549
 40
0.8709677419354839
 40
0.8709677419354839
 40
0.8709677419354839
 40
0.8709677419354839
 40
0.9032258064516129
 40
0.9032258064516129
 40
0.9032258064516129
 40
0.9032258064516129
 40
0.9354838709677419
 40
0.9354838709677419
 40
0.9354838709677419
 40
0.9354838709677419
 40
1.0
 40
1.0
 40
1.0
 40
1.0
 10
17.3083
 20
-9.8057
 30
0.0
 10
17.3083
 20
-9.8057
 30
0.0
 10
17.2648
 20
-9.479
 30
0.0
 10
17.2648
 20
-9.479
 30
0.0
 10
17.2648
 20
-9.479
 30
0.0
 10
17.4502
 20
-9.4412
 30
0.0
 10
17.5835
 20
-9.3773
 30
0.0
 10
17.6654
 20
-9.2874
 30
0.0
 10
17.6654
 20
-9.2874
 30
0.0
 10
17.7473
 20
-9.1969
 30
0.0
 10
17.7882
 20
-9.0872
 30
0.0
 10
17.7882
 20
-8.9575
 30
0.0
 10
17.7882
 20
-8.9575
 30
0.0
 10
17.7882
 20
-8.8037
 30
0.0
 10
17.7348
 20
-8.6736
 30
0.0
 10
17.6282
 20
-8.5675
 30
0.0
 10
17.6282
 20
-8.5675
 30
0.0
 10
17.5216
 20
-8.4621
 30
0.0
 10
17.3895
 20
-8.4088
 30
0.0
 10
17.2319
 20
-8.4088
 30
0.0
 10
17.2319
 20
-8.4088
 30
0.0
 10
17.0819
 20
-8.4088
 30
0.0
 10
16.9579
 20
-8.4578
 30
0.0
 10
16.8606
 20
-8.5558
 30
0.0
 10
16.8606
 20
-8.5558
 30
0.0
 10
16.7632
 20
-8.6543
 30
0.0
 10
16.7142
 20
-8.7789
 30
0.0
 10
16.7142
 20
-8.9303
 30
0.0
 10
16.7142
 20
-8.9303
 30
0.0
 10
16.7142
 20
-8.9923
 30
0.0
 10
16.7267
 20
-9.0691
 30
0.0
 10
16.7508
 20
-9.1609
 30
0.0
 10
16.7508
 20
-9.1609
 30
0.0
 10
16.7508
 20
-9.1609
 30
0.0
 10
16.4637
 20
-9.1243
 30
0.0
 10
16.4637
 20
-9.1243
 30
0.0
 10
16.4637
 20
-9.1243
 30
0.0
 10
16.4661
 20
-9.1026
 30
0.0
 10
16.4674
 20
-9.0853
 30
0.0
 10
16.4674
 20
-9.0716
 30
0.0
 10
16.4674
 20
-9.0716
 30
0.0
 10
16.4674
 20
-8.9327
 30
0.0
 10
16.4309
 20
-8.8075
 30
0.0
 10
16.3583
 20
-8.6959
 30
0.0
 10
16.3583
 20
-8.6959
 30
0.0
 10
16.2857
 20
-8.5843
 30
0.0
 10
16.1735
 20
-8.5285
 30
0.0
 10
16.0222
 20
-8.5285
 30
0.0
 10
16.0222
 20
-8.5285
 30
0.0
 10
15.9025
 20
-8.5285
 30
0.0
 10
15.8027
 20
-8.5693
 30
0.0
 10
15.7245
 20
-8.6505
 30
0.0
 10
15.7245
 20
-8.6505
 30
0.0
 10
15.6458
 20
-8.7319
 30
0.0
 10
15.6061
 20
-8.8366
 30
0.0
 10
15.6061
 20
-8.965
 30
0.0
 10
15.6061
 20
-8.965
 30
0.0
 10
15.6061
 20
-9.092
 30
0.0
 10
15.6464
 20
-9.1981
 30
0.0
 10
15.7258
 20
-9.2824
 30
0.0
 10
15.7258
 20
-9.2824
 30
0.0
 10
15.8059
 20
-9.3674
 30
0.0
 10
15.9262
 20
-9.4219
 30
0.0
 10
16.0861
 20
-9.4461
 30
0.0
 10
16.0861
 20
-9.4461
 30
0.0
 10
16.0861
 20
-9.4461
 30
0.0
 10
16.0278
 20
-9.7729
 30
0.0
 10
16.0278
 20
-9.7729
 30
0.0
 10
16.0278
 20
-9.7729
 30
0.0
 10
15.8083
 20
-9.7333
 30
0.0
 10
15.6384
 20
-9.6421
 30
0.0
 10
15.518
 20
-9.5008
 30
0.0
 10
15.518
 20
-9.5008
 30
0.0
 10
15.3979
 20
-9.3587
 30
0.0
 10
15.3371
 20
-9.1826
 30
0.0
 10
15.3371
 20
-8.9718
 30
0.0
 10
15.3371
 20
-8.9718
 30
0.0
 10
15.3371
 20
-8.8266
 30
0.0
 10
15.3687
 20
-8.6928
 30
0.0
 10
15.4306
 20
-8.5706
 30
0.0
 10
15.4306
 20
-8.5706
 30
0.0
 10
15.4933
 20
-8.4484
 30
0.0
 10
15.5782
 20
-8.3548
 30
0.0
 10
15.6862
 20
-8.2898
 30
0.0
 10
15.6862
 20
-8.2898
 30
0.0
 10
15.794
 20
-8.2252
 30
0.0
 10
15.9081
 20
-8.1924
 30
0.0
 10
16.0296
 20
-8.1924
 30
0.0
 10
16.0296
 20
-8.1924
 30
0.0
 10
16.1443
 20
-8.1924
 30
0.0
 10
16.2492
 20
-8.2234
 30
0.0
 10
16.344
 20
-8.2854
 30
0.0
 10
16.344
 20
-8.2854
 30
0.0
 10
16.4383
 20
-8.3474
 30
0.0
 10
16.5133
 20
-8.4386
 30
0.0
 10
16.5691
 20
-8.5595
 30
0.0
 10
16.5691
 20
-8.5595
 30
0.0
 10
16.6051
 20
-8.402
 30
0.0
 10
16.6807
 20
-8.2798
 30
0.0
 10
16.7954
 20
-8.1924
 30
0.0
 10
16.7954
 20
-8.1924
 30
0.0
 10
16.9095
 20
-8.1056
 30
0.0
 10
17.0527
 20
-8.0621
 30
0.0
 10
17.2246
 20
-8.0621
 30
0.0
 10
17.2246
 20
-8.0621
 30
0.0
 10
17.4571
 20
-8.0621
 30
0.0
 10
17.6542
 20
-8.1464
 30
0.0
 10
17.8161
 20
-8.3164
 30
0.0
 10
17.8161
 20
-8.3164
 30
0.0
 10
17.9779
 20
-8.4857
 30
0.0
 10
18.0585
 20
-8.7002
 30
0.0
 10
18.0585
 20
-8.9594
 30
0.0
 10
18.0585
 20
-8.9594
 30
0.0
 10
18.0585
 20
-9.1931
 30
0.0
 10
17.9891
 20
-9.3872
 30
0.0
 10
17.8495
 20
-9.5416
 30
0.0
 10
17.8495
 20
-9.5416
 30
0.0
 10
17.7106
 20
-9.696
 30
0.0
 10
17.5302
 20
-9.7841
 30
0.0
 10
17.3083
 20
-9.8057
 30
0.0
  0
SPLINE
  5
9C
330
1F
100
AcDbEntity
  8
VRSTVA_1
 62
   250
100
AcDbSpline
210
0.0
220
0.0
230
1.0
 70
    11
 71
     3
 72
    92
 73
    88
 74
     0
 42
0.0000000001
 43
0.0000000001
 40
0.0
 40
0.0
 40
0.0
 40
0.0
 40
0.0434782608695652
 40
0.0434782608695652
 40
0.0434782608695652
 40
0.0434782608695652
 40
0.0869565217391304
 40
0.0869565217391304
 40
0.0869565217391304
 40
0.0869565217391304
 40
0.1304347826086956
 40
0.1304347826086956
 40
0.1304347826086956
 40
0.1304347826086956
 40
0.1739130434782609
 40
0.1739130434782609
 40
0.1739130434782609
 40
0.1739130434782609
 40
0.2173913043478261
 40
0.2173913043478261
 40
0.2173913043478261
 40
0.2173913043478261
 40
0.2608695652173913
 40
0.2608695652173913
 40
0.2608695652173913
 40
0.2608695652173913
 40
0.3043478260869565
 40
0.3043478260869565
 40
0.3043478260869565
 40
0.3043478260869565
 40
0.3478260869565217
 40
0.3478260869565217
 40
0.3478260869565217
 40
0.3478260869565217
 40
0.391304347826087
 40
0.391304347826087
 40
0.391304347826087
 40
0.391304347826087
 40
0.4347826086956522
 40
0.4347826086956522
 40
0.4347826086956522
 40
0.4347826086956522
 40
0.4782608695652174
 40
0.4782608695652174
 40
0.4782608695652174
 40
0.4782608695652174
 40
0.5217391304347826
 40
0.5217391304347826
 40
0.5217391304347826
 40
0.5217391304347826
 40
0.5652173913043478
 40
0.5652173913043478
 40
0.5652173913043478
 40
0.5652173913043478
 40
0.6086956521739131
 40
0.6086956521739131
 40
0.6086956521739131
 40
0.6086956521739131
 40
0.6521739130434783
 40
0.6521739130434783
 40
0.6521739130434783
 40
0.6521739130434783
 40
0.6956521739130435
 40
0.6956521739130435
 40
0.6956521739130435
 40
0.6956521739130435
 40
0.7391304347826086
 40
0.7391304347826086
 40
0.7391304347826086
 40
0.7391304347826086
 40
0.782608695652174
 40
0.782608695652174
 40
0.782608695652174
 40
0.782608695652174
 40
0.8260869565217391
 40
0.8260869565217391
 40
0.8260869565217391
 40
0.8260869565217391
 40
0.8695652173913043
 40
0.8695652173913043
 40
0.8695652173913043
 40
0.8695652173913043
 40
0.9130434782608695
 40
0.9130434782608695
 40
0.9130434782608695
 40
0.9130434782608695
 40
1.0
 40
1.0
 40
1.0
 40
1.0
 10
17.6971
 20
-6.0196
 30
0.0
 10
17.6971
 20
-6.0196
 30
0.0
 10
18.0114
 20
-6.0196
 30
0.0
 10
18.0114
 20
-6.0196
 30
0.0
 10
18.0114
 20
-6.0196
 30
0.0
 10
18.0114
 20
-6.0196
 30
0.0
 10
18.0114
 20
-7.78
 30
0.0
 10
18.0114
 20
-7.78
 30
0.0
 10
18.0114
 20
-7.78
 30
0.0
 10
17.9327
 20
-7.7825
 30
0.0
 10
17.857
 20
-7.7701
 30
0.0
 10
17.7845
 20
-7.7422
 30
0.0
 10
17.7845
 20
-7.7422
 30
0.0
 10
17.6642
 20
-7.6976
 30
0.0
 10
17.5464
 20
-7.6256
 30
0.0
 10
17.4298
 20
-7.527
 30
0.0
 10
17.4298
 20
-7.527
 30
0.0
 10
17.3139
 20
-7.4278
 30
0.0
 10
17.1792
 20
-7.2852
 30
0.0
 10
17.0267
 20
-7.0992
 30
0.0
 10
17.0267
 20
-7.0992
 30
0.0
 10
16.7892
 20
-6.8096
 30
0.0
 10
16.6014
 20
-6.6136
 30
0.0
 10
16.4624
 20
-6.512
 30
0.0
 10
16.4624
 20
-6.512
 30
0.0
 10
16.3242
 20
-6.4103
 30
0.0
 10
16.1928
 20
-6.3594
 30
0.0
 10
16.0694
 20
-6.3594
 30
0.0
 10
16.0694
 20
-6.3594
 30
0.0
 10
15.9397
 20
-6.3594
 30
0.0
 10
15.8306
 20
-6.4059
 30
0.0
 10
15.7413
 20
-6.4983
 30
0.0
 10
15.7413
 20
-6.4983
 30
0.0
 10
15.6527
 20
-6.5913
 30
0.0
 10
15.608
 20
-6.7123
 30
0.0
 10
15.608
 20
-6.8611
 30
0.0
 10
15.608
 20
-6.8611
 30
0.0
 10
15.608
 20
-7.0186
 30
0.0
 10
15.6552
 20
-7.1444
 30
0.0
 10
15.7501
 20
-7.2387
 30
0.0
 10
15.7501
 20
-7.2387
 30
0.0
 10
15.8442
 20
-7.3336
 30
0.0
 10
15.9751
 20
-7.3813
 30
0.0
 10
16.1419
 20
-7.3825
 30
0.0
 10
16.1419
 20
-7.3825
 30
0.0
 10
16.1419
 20
-7.3825
 30
0.0
 10
16.1077
 20
-7.7186
 30
0.0
 10
16.1077
 20
-7.7186
 30
0.0
 10
16.1077
 20
-7.7186
 30
0.0
 10
15.8567
 20
-7.6957
 30
0.0
 10
15.6656
 20
-7.6089
 30
0.0
 10
15.5342
 20
-7.4589
 30
0.0
 10
15.5342
 20
-7.4589
 30
0.0
 10
15.4027
 20
-7.3088
 30
0.0
 10
15.3371
 20
-7.1067
 30
0.0
 10
15.3371
 20
-6.8536
 30
0.0
 10
15.3371
 20
-6.8536
 30
0.0
 10
15.3371
 20
-6.5982
 30
0.0
 10
15.4083
 20
-6.3961
 30
0.0
 10
15.5497
 20
-6.2472
 30
0.0
 10
15.5497
 20
-6.2472
 30
0.0
 10
15.6918
 20
-6.0978
 30
0.0
 10
15.8673
 20
-6.0233
 30
0.0
 10
16.0768
 20
-6.0233
 30
0.0
 10
16.0768
 20
-6.0233
 30
0.0
 10
16.1834
 20
-6.0233
 30
0.0
 10
16.2882
 20
-6.0451
 30
0.0
 10
16.3912
 20
-6.0891
 30
0.0
 10
16.3912
 20
-6.0891
 30
0.0
 10
16.494
 20
-6.1325
 30
0.0
 10
16.6026
 20
-6.205
 30
0.0
 10
16.7161
 20
-6.3061
 30
0.0
 10
16.7161
 20
-6.3061
 30
0.0
 10
16.8302
 20
-6.4071
 30
0.0
 10
16.9865
 20
-6.5753
 30
0.0
 10
17.1848
 20
-6.8103
 30
0.0
 10
17.1848
 20
-6.8103
 30
0.0
 10
17.3497
 20
-7.0062
 30
0.0
 10
17.4614
 20
-7.1321
 30
0.0
 10
17.5204
 20
-7.1879
 30
0.0
 10
17.5204
 20
-7.1879
 30
0.0
 10
17.5786
 20
-7.2437
 30
0.0
 10
17.6375
 20
-7.2895
 30
0.0
 10
17.6971
 20
-7.3261
 30
0.0
 10
17.6971
 20
-7.3261
 30
0.0
 10
17.6971
 20
-7.3261
 30
0.0
 10
17.6971
 20
-6.0196
 30
0.0
 10
17.6971
 20
-6.0196
 30
0.0
  0
SPLINE
  5
9D
330
1F
100
AcDbEntity
  8
VRSTVA_1
 62
   250
100
AcDbSpline
210
0.0
220
0.0
230
1.0
 70
    11
 71
     3
 72
    20
 73
    16
 74
     0
 42
0.0000000001
 43
0.0000000001
 40
0.0
 40
0.0
 40
0.0
 40
0.0
 40
0.2
 40
0.2
 40
0.2
 40
0.2
 40
0.4
 40
0.4
 40
0.4
 40
0.4
 40
0.6
 40
0.6
 40
0.6
 40
0.6
 40
1.0
 40
1.0
 40
1.0
 40
1.0
 10
18.8922
 20
-18.36
 30
0.0
 10
18.8922
 20
-18.36
 30
0.0
 10
19.3574
 20
-15.0642
 30
0.0
 10
19.3574
 20
-15.0642
 30
0.0
 10
19.3574
 20
-15.0642
 30
0.0
 10
19.3574
 20
-15.0642
 30
0.0
 10
19.4607
 20
-15.0642
 30
0.0
 10
19.4607
 20
-15.0642
 30
0.0
 10
19.4607
 20
-15.0642
 30
0.0
 10
19.4607
 20
-15.0642
 30
0.0
 10
19.9567
 20
-18.36
 30
0.0
 10
19.9567
 20
-18.36
 30
0.0
 10
19.9567
 20
-18.36
 30
0.0
 10
19.9567
 20
-18.36
 30
0.0
 10
18.8922
 20
-18.36
 30
0.0
 10
18.8922
 20
-18.36
 30
0.0
  0
SPLINE
  5
9E
330
1F
100
AcDbEntity
  8
VRSTVA_1
 62
   250
100
AcDbSpline
210
0.0
220
0.0
230
1.0
 70
    11
 71
     3
 72
    20
 73
    16
 74
     0
 42
0.0000000001
 43
0.0000000001
 40
0.0
 40
0.0
 40
0.0
 40
0.0
 40
0.2
 40
0.2
 40
0.2
 40
0.2
 40
0.4
 40
0.4
 40
0.4
 40
0.4
 40
0.6
 40
0.6
 40
0.6
 40
0.6
 40
1.0
 40
1.0
 40
1.0
 40
1.0
 10
19.9522
 20
-0.8984
 30
0.0
 10
19.9522
 20
-0.8984
 30
0.0
 10
19.4871
 20
-4.1942
 30
0.0
 10
19.4871
 20
-4.1942
 30
0.0
 10
19.4871
 20
-4.1942
 30
0.0
 10
19.4871
 20
-4.1942
 30
0.0
 10
19.3838
 20
-4.1942
 30
0.0
 10
19.3838
 20
-4.1942
 30
0.0
 10
19.3838
 20
-4.1942
 30
0.0
 10
19.3838
 20
-4.1942
 30
0.0
 10
18.8877
 20
-0.8984
 30
0.0
 10
18.8877
 20
-0.8984
 30
0.0
 10
18.8877
 20
-0.8984
 30
0.0
 10
18.8877
 20
-0.8984
 30
0.0
 10
19.9522
 20
-0.8984
 30
0.0
 10
19.9522
 20
-0.8984
 30
0.0
  0
SPLINE
  5
9F
330
1F
100
AcDbEntity
  8
VRSTVA_1
 62
   250
100
AcDbSpline
210
0.0
220
0.0
230
1.0
 70
     8
 71
     3
 72
     8
 73
     4
 74
     0
 42
0.0000000001
 43
0.0000000001
 40
0.0
 40
0.0
 40
0.0
 40
0.0
 40
1.0
 40
1.0
 40
1.0
 40
1.0
 10
33.5351
 20
-16.6646
 30
0.0
 10
33.5351
 20
-19.0391
 30
0.0
 10
35.3839
 20
-20.9638
 30
0.0
 10
37.6647
 20
-20.9638
 30
0.0
  0
SPLINE
  5
A0
330
1F
100
AcDbEntity
  8
VRSTVA_1
 62
   250
100
AcDbSpline
210
0.0
220
0.0
230
1.0
 70
     8
 71
     3
 72
     8
 73
     4
 74
     0
 42
0.0000000001
 43
0.0000000001
 40
0.0
 40
0.0
 40
0.0
 40
0.0
 40
1.0
 40
1.0
 40
1.0
 40
1.0
 10
37.6647
 20
1.1465
 30
0.0
 10
35.3839
 20
1.1465
 30
0.0
 10
33.5351
 20
-0.7783
 30
0.0
 10
33.5351
 20
-3.1527
 30
0.0
  0
SPLINE
  5
A1
330
1F
100
AcDbEntity
  8
VRSTVA_1
 62
   250
100
AcDbSpline
210
0.0
220
0.0
230
1.0
 70
    27
 71
     3
 72
    12
 73
     8
 74
     0
 42
0.0000000001
 43
0.0000000001
 40
0.0
 40
0.0
 40
0.0
 40
0.0
 40
0.3333333333333333
 40
0.3333333333333333
 40
0.3333333333333333
 40
0.3333333333333333
 40
1.0
 40
1.0
 40
1.0
 40
1.0
 10
41.2044
 20
1.9143
 30
0.0
 10
41.2044
 20
1.9143
 30
0.0
 10
41.2044
 20
-21.7317
 30
0.0
 10
41.2044
 20
-21.7317
 30
0.0
 10
41.2044
 20
-21.7317
 30
0.0
 10
41.2044
 20
-21.7317
 30
0.0
 10
41.2044
 20
1.9143
 30
0.0
 10
41.2044
 20
1.9143
 30
0.0
  0
SPLINE
  5
A2
330
1F
100
AcDbEntity
  8
VRSTVA_1
 62
   250
100
AcDbSpline
210
0.0
220
0.0
230
1.0
 70
    11
 71
     3
 72
    28
 73
    24
 74
     0
 42
0.0000000001
 43
0.0000000001
 40
0.0
 40
0.0
 40
0.0
 40
0.0
 40
0.1428571428571428
 40
0.1428571428571428
 40
0.1428571428571428
 40
0.1428571428571428
 40
0.2857142857142857
 40
0.2857142857142857
 40
0.2857142857142857
 40
0.2857142857142857
 40
0.4285714285714285
 40
0.4285714285714285
 40
0.4285714285714285
 40
0.4285714285714285
 40
0.5714285714285714
 40
0.5714285714285714
 40
0.5714285714285714
 40
0.5714285714285714
 40
0.7142857142857143
 40
0.7142857142857143
 40
0.7142857142857143
 40
0.7142857142857143
 40
1.0
 40
1.0
 40
1.0
 40
1.0
 10
40.3194
 20
1.1465
 30
0.0
 10
40.3194
 20
1.1465
 30
0.0
 10
41.0569
 20
1.9143
 30
0.0
 10
41.0569
 20
1.9143
 30
0.0
 10
41.0569
 20
1.9143
 30
0.0
 10
41.0569
 20
1.9143
 30
0.0
 10
40.3194
 20
1.1465
 30
0.0
 10
40.3194
 20
1.1465
 30
0.0
 10
40.3194
 20
1.1465
 30
0.0
 10
40.3194
 20
1.1465
 30
0.0
 10
40.3194
 20
-20.9638
 30
0.0
 10
40.3194
 20
-20.9638
 30
0.0
 10
40.3194
 20
-20.9638
 30
0.0
 10
40.3194
 20
-20.9638
 30
0.0
 10
41.0569
 20
-21.7317
 30
0.0
 10
41.0569
 20
-21.7317
 30
0.0
 10
41.0569
 20
-21.7317
 30
0.0
 10
41.0569
 20
-21.7317
 30
0.0
 10
40.3194
 20
-20.9638
 30
0.0
 10
40.3194
 20
-20.9638
 30
0.0
 10
40.3194
 20
-20.9638
 30
0.0
 10
40.3194
 20
-20.9638
 30
0.0
 10
40.3194
 20
1.1465
 30
0.0
 10
40.3194
 20
1.1465
 30
0.0
  0
SPLINE
  5
A3
330
1F
100
AcDbEntity
  8
VRSTVA_1
 62
   250
100
AcDbSpline
210
0.0
220
0.0
230
1.0
 70
    27
 71
     3
 72
    20
 73
    16
 74
     0
 42
0.0000000001
 43
0.0000000001
 40
0.0
 40
0.0
 40
0.0
 40
0.0
 40
0.2
 40
0.2
 40
0.2
 40
0.2
 40
0.4
 40
0.4
 40
0.4
 40
0.4
 40
0.6
 40
0.6
 40
0.6
 40
0.6
 40
1.0
 40
1.0
 40
1.0
 40
1.0
 10
40.3194
 20
1.1465
 30
0.0
 10
40.3194
 20
1.1465
 30
0.0
 10
37.8995
 20
1.1465
 30
0.0
 10
37.8995
 20
1.1465
 30
0.0
 10
37.8995
 20
1.1465
 30
0.0
 10
37.8995
 20
1.1465
 30
0.0
 10
37.6647
 20
1.1465
 30
0.0
 10
37.6647
 20
1.1465
 30
0.0
 10
37.6647
 20
1.1465
 30
0.0
 10
37.6647
 20
1.1465
 30
0.0
 10
37.8995
 20
1.1465
 30
0.0
 10
37.8995
 20
1.1465
 30
0.0
 10
37.8995
 20
1.1465
 30
0.0
 10
37.8995
 20
1.1465
 30
0.0
 10
40.3194
 20
1.1465
 30
0.0
 10
40.3194
 20
1.1465
 30
0.0
  0
SPLINE
  5
A4
330
1F
100
AcDbEntity
  8
VRSTVA_1
 62
   250
100
AcDbSpline
210
0.0
220
0.0
230
1.0
 70
    27
 71
     3
 72
    12
 73
     8
 74
     0
 42
0.0000000001
 43
0.0000000001
 40
0.0
 40
0.0
 40
0.0
 40
0.0
 40
0.3333333333333333
 40
0.3333333333333333
 40
0.3333333333333333
 40
0.3333333333333333
 40
1.0
 40
1.0
 40
1.0
 40
1.0
 10
40.3194
 20
-20.9638
 30
0.0
 10
40.3194
 20
-20.9638
 30
0.0
 10
37.6647
 20
-20.9638
 30
0.0
 10
37.6647
 20
-20.9638
 30
0.0
 10
37.6647
 20
-20.9638
 30
0.0
 10
37.6647
 20
-20.9638
 30
0.0
 10
40.3194
 20
-20.9638
 30
0.0
 10
40.3194
 20
-20.9638
 30
0.0
  0
SPLINE
  5
A5
330
1F
100
AcDbEntity
  8
VRSTVA_1
 62
   250
100
AcDbSpline
210
0.0
220
0.0
230
1.0
 70
    27
 71
     3
 72
    12
 73
     8
 74
     0
 42
0.0000000001
 43
0.0000000001
 40
0.0
 40
0.0
 40
0.0
 40
0.0
 40
0.3333333333333333
 40
0.3333333333333333
 40
0.3333333333333333
 40
0.3333333333333333
 40
1.0
 40
1.0
 40
1.0
 40
1.0
 10
33.5351
 20
-3.1527
 30
0.0
 10
33.5351
 20
-3.1527
 30
0.0
 10
33.5351
 20
-16.6646
 30
0.0
 10
33.5351
 20
-16.6646
 30
0.0
 10
33.5351
 20
-16.6646
 30
0.0
 10
33.5351
 20
-16.6646
 30
0.0
 10
33.5351
 20
-3.1527
 30
0.0
 10
33.5351
 20
-3.1527
 30
0.0
  0
SPLINE
  5
A6
330
1F
100
AcDbEntity
  8
VRSTVA_1
 62
   250
100
AcDbSpline
210
0.0
220
0.0
230
1.0
 70
    24
 71
     3
 72
     8
 73
     4
 74
     0
 42
0.0000000001
 43
0.0000000001
 40
0.0
 40
0.0
 40
0.0
 40
0.0
 40
1.0
 40
1.0
 40
1.0
 40
1.0
 10
19.4064
 20
-19.7764
 30
0.0
 10
19.4064
 20
-19.7764
 30
0.0
 10
19.4064
 20
0.1736
 30
0.0
 10
19.4064
 20
0.1736
 30
0.0
  0
SPLINE
  5
A7
330
1F
100
AcDbEntity
  8
VRSTVA_1
 62
   250
100
AcDbSpline
210
0.0
220
0.0
230
1.0
 70
    27
 71
     3
 72
    12
 73
     8
 74
     0
 42
0.0000000001
 43
0.0000000001
 40
0.0
 40
0.0
 40
0.0
 40
0.0
 40
0.3333333333333333
 40
0.3333333333333333
 40
0.3333333333333333
 40
0.3333333333333333
 40
1.0
 40
1.0
 40
1.0
 40
1.0
 10
33.4217
 20
-4.3465
 30
0.0
 10
33.4217
 20
-4.3465
 30
0.0
 10
-2.0854
 20
-4.3465
 30
0.0
 10
-2.0854
 20
-4.3465
 30
0.0
 10
-2.0854
 20
-4.3465
 30
0.0
 10
-2.0854
 20
-4.3465
 30
0.0
 10
33.4217
 20
-4.3465
 30
0.0
 10
33.4217
 20
-4.3465
 30
0.0
  0
SPLINE
  5
A8
330
1F
100
AcDbEntity
  8
VRSTVA_1
 62
   250
100
AcDbSpline
210
0.0
220
0.0
230
1.0
 70
    27
 71
     3
 72
    12
 73
     8
 74
     0
 42
0.0000000001
 43
0.0000000001
 40
0.0
 40
0.0
 40
0.0
 40
0.0
 40
0.3333333333333333
 40
0.3333333333333333
 40
0.3333333333333333
 40
0.3333333333333333
 40
1.0
 40
1.0
 40
1.0
 40
1.0
 10
33.3253
 20
-14.8261
 30
0.0
 10
33.3253
 20
-14.8261
 30
0.0
 10
-2.0153
 20
-14.8261
 30
0.0
 10
-2.0153
 20
-14.8261
 30
0.0
 10
-2.0153
 20
-14.8261
 30
0.0
 10
-2.0153
 20
-14.8261
 30
0.0
 10
33.3253
 20
-14.8261
 30
0.0
 10
33.3253
 20
-14.8261
 30
0.0
  0
SPLINE
  5
A9
330
1F
100
AcDbEntity
  8
VRSTVA_1
 62
   250
100
AcDbSpline
210
0.0
220
0.0
230
1.0
 70
     8
 71
     3
 72
    16
 73
    12
 74
     0
 42
0.0000000001
 43
0.0000000001
 40
0.0
 40
0.0
 40
0.0
 40
0.0
 40
0.25
 40
0.25
 40
0.25
 40
0.25
 40
0.5
 40
0.5
 40
0.5
 40
0.5
 40
1.0
 40
1.0
 40
1.0
 40
1.0
 10
41.0651
 20
-4.3775
 30
0.0
 10
41.0651
 20
-4.3775
 30
0.0
 10
51.62
 20
-4.3693
 30
0.0
 10
51.62
 20
-4.3693
 30
0.0
 10
51.62
 20
-4.3693
 30
0.0
 10
51.62
 20
-4.3693
 30
0.0
 10
51.62
 20
-14.8996
 30
0.0
 10
51.62
 20
-14.8996
 30
0.0
 10
51.62
 20
-14.8996
 30
0.0
 10
51.62
 20
-14.8996
 30
0.0
 10
41.1139
 20
-14.9159
 30
0.0
 10
41.1139
 20
-14.9159
 30
0.0
  0
ENDSEC
  0
SECTION
  2
OBJECTS
  0
DICTIONARY
  5
C
330
0
100
AcDbDictionary
  3
ACAD_GROUP
350
D
  3
ACAD_LAYOUT
350
1A
  3
ACAD_MATERIAL
350
3B
  3
ACAD_MLEADERSTYLE
350
CC
  3
ACAD_MLINESTYLE
350
17
  3
ACAD_PLOTSETTINGS
350
19
  3
ACAD_VISUALSTYLE
350
2A
  3
ACDBHEADERROUNDTRIPXREC
350
AA
  3
ACDBVARIABLEDICTIONARY
350
CA
  0
DICTIONARY
  5
D
102
{ACAD_REACTORS
330
C
102
}
330
C
100
AcDbDictionary
  0
DICTIONARY
  5
1A
102
{ACAD_REACTORS
330
C
102
}
330
C
100
AcDbDictionary
  0
DICTIONARY
  5
3B
102
{ACAD_REACTORS
330
C
102
}
330
C
100
AcDbDictionary
  3
BYBLOCK
350
3D
  3
BYLAYER
350
3C
  3
GLOBAL
350
3E
  0
DICTIONARY
  5
CC
102
{ACAD_REACTORS
330
C
102
}
330
C
100
AcDbDictionary
  0
DICTIONARY
  5
17
102
{ACAD_REACTORS
330
C
102
}
330
C
100
AcDbDictionary
  3
STANDARD
350
18
  0
DICTIONARY
  5
19
102
{ACAD_REACTORS
330
C
102
}
330
C
100
AcDbDictionary
  0
DICTIONARY
  5
2A
102
{ACAD_REACTORS
330
C
102
}
330
C
100
AcDbDictionary
  3
2DWIREFRAME
350
2F
  3
3D_HIDDEN
350
31
  3
3DWIREFRAME
350
30
  3
BASIC
350
32
  3
BRIGHTEN
350
36
  3
COLORCHANGE
350
3A
  3
CONCEPTUAL
350
34
  3
DIM
350
35
  3
FACEPATTERN
350
39
  3
FLAT
350
2B
  3
FLATWITHEDGES
350
2C
  3
GOURAUD
350
2D
  3
GOURAUDWITHEDGES
350
2E
  3
LINEPATTERN
350
38
  3
REALISTIC
350
33
  3
THICKEN
350
37
  0
DICTIONARY
  5
AA
102
{ACAD_REACTORS
330
C
102
}
330
C
100
AcDbDictionary
  3
CEPSNTYPE
350
B3
  3
DIMSTYLEDATA
350
C9
  3
FINGERPRINTGUID
350
B4
  3
HYPERLINKBASE
350
AD
  3
INSUNITS
350
B2
  3
LAYOUTDICT
350
AF
  3
LWETCUNION
350
B1
  3
PLOTSETDICT
350
B0
  3
PSVPSCALE
350
B6
  3
PUCSBASE
350
B9
  3
PUCSORGBACK
350
BF
  3
PUCSORGBOTTOM
350
BB
  3
PUCSORGFRONT
350
BE
  3
PUCSORGLEFT
350
BC
  3
PUCSORGRIGHT
350
BD
  3
PUCSORGTOP
350
BA
  3
PUCSORTHOREF
350
B7
  3
PUCSORTHOVIEW
350
B8
  3
STYLESHEET
350
AE
  3
TSTACKALIGN
350
AB
  3
TSTACKSIZE
350
AC
  3
UCSBASE
350
C2
  3
UCSORGBACK
350
C8
  3
UCSORGBOTTOM
350
C4
  3
UCSORGFRONT
350
C7
  3
UCSORGLEFT
350
C5
  3
UCSORGRIGHT
350
C6
  3
UCSORGTOP
350
C3
  3
UCSORTHOREF
350
C0
  3
UCSORTHOVIEW
350
C1
  3
VERSIONGUID
350
B5
  0
DICTIONARY
  5
CA
102
{ACAD_REACTORS
330
C
102
}
330
C
100
AcDbDictionary
  3
DIMASSOC
350
CD
  3
HIDETEXT
350
CE
  0
MATERIAL
  5
3D
102
{ACAD_REACTORS
330
3B
102
}
102
{ACAD_XDICTIONARY
360
D1
102
}
330
3B
100
AcDbMaterial
  1
ByBlock
  0
MATERIAL
  5
3C
102
{ACAD_REACTORS
330
3B
102
}
102
{ACAD_XDICTIONARY
360
CF
102
}
330
3B
100
AcDbMaterial
  1
ByLayer
  0
MATERIAL
  5
3E
102
{ACAD_REACTORS
330
3B
102
}
102
{ACAD_XDICTIONARY
360
D3
102
}
330
3B
100
AcDbMaterial
  1
Global
  0
MLINESTYLE
  5
18
102
{ACAD_REACTORS
330
17
102
}
330
17
100
AcDbMlineStyle
  2
Standard
 70
     0
  3

 62
   256
 51
90.0
 52
90.0
 71
     2
 49
0.5
 62
   256
  6
BYLAYER
 49
-0.5
 62
   256
  6
BYLAYER
  0
ACAD_PROXY_OBJECT
  5
2F
102
{ACAD_REACTORS
330
2A
102
}
330
2A
100
AcDbProxyObject
 90
      499
 91
      501
 93
      436
310
42CC9915DA5C99599C985B595049028333333333333E3BF0000000000000FB0107901411070040501600405405064090741402480A0340
1001
ACAD
1000
AcDbSavedByObjectVersion
1070
     0
  0
ACAD_PROXY_OBJECT
  5
31
102
{ACAD_REACTORS
330
2A
102
}
330
2A
100
AcDbProxyObject
 90
      499
 91
      501
 93
      500
310
424CD108121A5919195B90640502408333333333333E3BF0000000000000FB01079024090700405020000000000001110200405405064090740C02480A0340
1001
ACAD
1000
AcDbSavedByObjectVersion
1070
     0
  0
ACAD_PROXY_OBJECT
  5
30
102
{ACAD_REACTORS
330
2A
102
}
330
2A
100
AcDbProxyObject
 90
      499
 91
      501
 93
      436
310
42CCD915DA5C99599C985B595059028333333333333E3BF0000000000000FB0107901411070040501600405405064090741402480A0340
1001
ACAD
1000
AcDbSavedByObjectVersion
1070
     0
  0
ACAD_PROXY_OBJECT
  5
32
102
{ACAD_REACTORS
330
2A
102
}
330
2A
100
AcDbProxyObject
 90
      499
 91
      501
 93
      388
310
4150985CDA58D07406404333333333333E3BF0000000000000FB0107A41107004050150841D405064090741402480A0350
1001
ACAD
1000
AcDbSavedByObjectVersion
1070
     0
  0
ACAD_PROXY_OBJECT
  5
36
102
{ACAD_REACTORS
330
2A
102
}
330
2A
100
AcDbProxyObject
 90
      499
 91
      501
 93
      428
310
42109C9A59DA1D195B90C409028333333333333E3BF0000000000000FB010790141107004050150841D405064090741402480A029950
1001
ACAD
1000
AcDbSavedByObjectVersion
1070
     0
  0
ACAD_PROXY_OBJECT
  5
3A
102
{ACAD_REACTORS
330
2A
102
}
330
2A
100
AcDbProxyObject
 90
      499
 91
      501
 93
      452
310
42D0DBDB1BDC90DA185B99D95104090240C333333333333E3BF0000000000000FB0108901411070040501508421405064090741402480A0350
1001
ACAD
1000
AcDbSavedByObjectVersion
1070
     0
  0
ACAD_PROXY_OBJECT
  5
34
102
{ACAD_REACTORS
330
2A
102
}
330
2A
100
AcDbProxyObject
 90
      499
 91
      501
 93
      500
310
4290DBDB98D95C1D1D585B10940D028333333333333E3BF0000000000000FB0107902409070040501000000000000111010841D405064090740C02480A0340
1001
ACAD
1000
AcDbSavedByObjectVersion
1070
     0
  0
ACAD_PROXY_OBJECT
  5
35
102
{ACAD_REACTORS
330
2A
102
}
330
2A
100
AcDbProxyObject
 90
      499
 91
      501
 93
      412
310
40D11A5B50B409028333333333333E3BF0000000000000FB010790141107004050150841D405064090741402480A02677FFFFFD0
1001
ACAD
1000
AcDbSavedByObjectVersion
1070
     0
  0
ACAD_PROXY_OBJECT
  5
39
102
{ACAD_REACTORS
330
2A
102
}
330
2A
100
AcDbProxyObject
 90
      499
 91
      501
 93
      444
310
42D19858D95C185D1D195C9B90F409028333333333333E3BF0000000000000FB010790141107004050150841D405064090741402480A0350
1001
ACAD
1000
AcDbSavedByObjectVersion
1070
     0
  0
ACAD_PROXY_OBJECT
  5
2B
102
{ACAD_REACTORS
330
2A
102
}
330
2A
100
AcDbProxyObject
 90
      499
 91
      501
 93
      388
310
41119B185D240901404333333333333E3BF0000000000000F9010740A41107004050150841D405064090741402480A1B50
1001
ACAD
1000
AcDbSavedByObjectVersion
1070
     0
  0
ACAD_PROXY_OBJECT
  5
2C
102
{ACAD_REACTORS
330
2A
102
}
330
2A
100
AcDbProxyObject
 90
      499
 91
      501
 93
      476
310
43519B185D15DA5D1A115919D95CD0140901404333333333333E3BF0000000000000F9010740901411070040501600405405064090741402480A1B50
1001
ACAD
1000
AcDbSavedByObjectVersion
1070
     0
  0
ACAD_PROXY_OBJECT
  5
2D
102
{ACAD_REACTORS
330
2A
102
}
330
2A
100
AcDbProxyObject
 90
      499
 91
      501
 93
      412
310
41D1DBDD5C985D5910240902404333333333333E3BF0000000000000F9010740A411070040501641D405064090741402480A1B50
1001
ACAD
1000
AcDbSavedByObjectVersion
1070
     0
  0
ACAD_PROXY_OBJECT
  5
2E
102
{ACAD_REACTORS
330
2A
102
}
330
2A
100
AcDbProxyObject
 90
      499
 91
      501
 93
      500
310
4411DBDD5C985D5915DA5D1A115919D95CD0340902404333333333333E3BF0000000000000F9010740901411070040501600405405064090741402480A1B50
1001
ACAD
1000
AcDbSavedByObjectVersion
1070
     0
  0
ACAD_PROXY_OBJECT
  5
38
102
{ACAD_REACTORS
330
2A
102
}
330
2A
100
AcDbProxyObject
 90
      499
 91
      501
 93
      444
310
42D31A5B995C185D1D195C9B90E409028333333333333E3BF0000000000000FB010790141107004050750841D405064090741402483A0350
1001
ACAD
1000
AcDbSavedByObjectVersion
1070
     0
  0
ACAD_PROXY_OBJECT
  5
33
102
{ACAD_REACTORS
330
2A
102
}
330
2A
100
AcDbProxyObject
 90
      499
 91
      501
 93
      420
310
425499585B1A5CDD1A58D08409028333333333333E3BF0000000000000FB01079019070040501508421405064090741402480A1B40
1001
ACAD
1000
AcDbSavedByObjectVersion
1070
     0
  0
ACAD_PROXY_OBJECT
  5
37
102
{ACAD_REACTORS
330
2A
102
}
330
2A
100
AcDbProxyObject
 90
      499
 91
      501
 93
      412
310
41D51A1A58DAD95B90D409028333333333333E3BF0000000000000FB010790141107004050150C41D405064090741402480A0350
1001
ACAD
1000
AcDbSavedByObjectVersion
1070
     0
  0
XRECORD
  5
B3
102
{ACAD_REACTORS
330
AA
102
}
330
AA
100
AcDbXrecord
 90
        0
  0
XRECORD
  5
C9
102
{ACAD_REACTORS
330
AA
102
}
330
AA
100
AcDbXrecord
1000
DSTYLE
1002
{
1070
   340
340
11
1002
}
  0
XRECORD
  5
B4
102
{ACAD_REACTORS
330
AA
102
}
330
AA
100
AcDbXrecord
  1
{F06111B4-A71F-410F-9501-4D44EDA35C87}
  0
XRECORD
  5
AD
102
{ACAD_REACTORS
330
AA
102
}
330
AA
100
AcDbXrecord
  1

  0
XRECORD
  5
B2
102
{ACAD_REACTORS
330
AA
102
}
330
AA
100
AcDbXrecord
 90
        4
  0
XRECORD
  5
AF
102
{ACAD_REACTORS
330
AA
102
}
330
AA
100
AcDbXrecord
340
1A
  0
XRECORD
  5
B1
102
{ACAD_REACTORS
330
AA
102
}
330
AA
100
AcDbXrecord
 90
    10781
  0
XRECORD
  5
B0
102
{ACAD_REACTORS
330
AA
102
}
330
AA
100
AcDbXrecord
340
19
  0
XRECORD
  5
B6
102
{ACAD_REACTORS
330
AA
102
}
330
AA
100
AcDbXrecord
 40
0.0
  0
XRECORD
  5
B9
102
{ACAD_REACTORS
330
AA
102
}
330
AA
100
AcDbXrecord
340
0
  0
XRECORD
  5
BF
102
{ACAD_REACTORS
330
AA
102
}
330
AA
100
AcDbXrecord
 10
0.0
 20
0.0
 30
0.0
  0
XRECORD
  5
BB
102
{ACAD_REACTORS
330
AA
102
}
330
AA
100
AcDbXrecord
 10
0.0
 20
0.0
 30
0.0
  0
XRECORD
  5
BE
102
{ACAD_REACTORS
330
AA
102
}
330
AA
100
AcDbXrecord
 10
0.0
 20
0.0
 30
0.0
  0
XRECORD
  5
BC
102
{ACAD_REACTORS
330
AA
102
}
330
AA
100
AcDbXrecord
 10
0.0
 20
0.0
 30
0.0
  0
XRECORD
  5
BD
102
{ACAD_REACTORS
330
AA
102
}
330
AA
100
AcDbXrecord
 10
0.0
 20
0.0
 30
0.0
  0
XRECORD
  5
BA
102
{ACAD_REACTORS
330
AA
102
}
330
AA
100
AcDbXrecord
 10
0.0
 20
0.0
 30
0.0
  0
XRECORD
  5
B7
102
{ACAD_REACTORS
330
AA
102
}
330
AA
100
AcDbXrecord
340
0
  0
XRECORD
  5
B8
102
{ACAD_REACTORS
330
AA
102
}
330
AA
100
AcDbXrecord
 70
     0
  0
XRECORD
  5
AE
102
{ACAD_REACTORS
330
AA
102
}
330
AA
100
AcDbXrecord
  1

  0
XRECORD
  5
AB
102
{ACAD_REACTORS
330
AA
102
}
330
AA
100
AcDbXrecord
 90
        1
  0
XRECORD
  5
AC
102
{ACAD_REACTORS
330
AA
102
}
330
AA
100
AcDbXrecord
 90
       70
  0
XRECORD
  5
C2
102
{ACAD_REACTORS
330
AA
102
}
330
AA
100
AcDbXrecord
340
0
  0
XRECORD
  5
C8
102
{ACAD_REACTORS
330
AA
102
}
330
AA
100
AcDbXrecord
 10
0.0
 20
0.0
 30
0.0
  0
XRECORD
  5
C4
102
{ACAD_REACTORS
330
AA
102
}
330
AA
100
AcDbXrecord
 10
0.0
 20
0.0
 30
0.0
  0
XRECORD
  5
C7
102
{ACAD_REACTORS
330
AA
102
}
330
AA
100
AcDbXrecord
 10
0.0
 20
0.0
 30
0.0
  0
XRECORD
  5
C5
102
{ACAD_REACTORS
330
AA
102
}
330
AA
100
AcDbXrecord
 10
0.0
 20
0.0
 30
0.0
  0
XRECORD
  5
C6
102
{ACAD_REACTORS
330
AA
102
}
330
AA
100
AcDbXrecord
 10
0.0
 20
0.0
 30
0.0
  0
XRECORD
  5
C3
102
{ACAD_REACTORS
330
AA
102
}
330
AA
100
AcDbXrecord
 10
0.0
 20
0.0
 30
0.0
  0
XRECORD
  5
C0
102
{ACAD_REACTORS
330
AA
102
}
330
AA
100
AcDbXrecord
340
0
  0
XRECORD
  5
C1
102
{ACAD_REACTORS
330
AA
102
}
330
AA
100
AcDbXrecord
 70
     0
  0
XRECORD
  5
B5
102
{ACAD_REACTORS
330
AA
102
}
330
AA
100
AcDbXrecord
  1
{FAEB1C32-E019-11D5-929B-00C0DF256EC4}
  0
DICTIONARYVAR
  5
CD
102
{ACAD_REACTORS
330
CA
102
}
330
CA
100
DictionaryVariables
280
     0
  1
2
  0
DICTIONARYVAR
  5
CE
102
{ACAD_REACTORS
330
CA
102
}
330
CA
100
DictionaryVariables
280
     0
  1
1
  0
DICTIONARY
  5
D1
330
3D
100
AcDbDictionary
280
     1
  3
ACAD_XREC_ROUNDTRIP
360
D2
  0
DICTIONARY
  5
CF
330
3C
100
AcDbDictionary
280
     1
  3
ACAD_XREC_ROUNDTRIP
360
D0
  0
DICTIONARY
  5
D3
330
3E
100
AcDbDictionary
280
     1
  3
ACAD_XREC_ROUNDTRIP
360
D4
  0
XRECORD
  5
D2
102
{ACAD_REACTORS
330
D1
102
}
330
D1
100
AcDbXrecord
102
MATERIAL
148
0.0
149
0.0
149
0.0
 93
        0
 94
      127
282
     0
 72
     1
 77
     1
171
     1
175
     1
179
     1
273
     0
  0
XRECORD
  5
D0
102
{ACAD_REACTORS
330
CF
102
}
330
CF
100
AcDbXrecord
102
MATERIAL
148
0.0
149
0.0
149
0.0
 93
        0
 94
      127
282
     0
 72
     1
 77
     1
171
     1
175
     1
179
     1
273
     0
  0
XRECORD
  5
D4
102
{ACAD_REACTORS
330
D3
102
}
330
D3
100
AcDbXrecord
102
MATERIAL
148
0.0
149
0.0
149
0.0
 93
        0
 94
      127
282
     0
 72
     1
 77
     1
171
     1
175
     1
179
     1
273
     0
  0
ENDSEC
  0
EOF
