  0
SECTION
  2
HEADER
  9
$ACADVER
  1
AC1014
  9
$ACADMAINTVER
 70
     9
  9
$DWGCODEPAGE
  3
ANSI_1250
  9
$INSBASE
 10
0.0
 20
0.0
 30
0.0
  9
$EXTMIN
 10
-25.8874
 20
-33.4493
 30
0.0
  9
$EXTMAX
 10
25.9533
 20
33.637
 30
0.0
  9
$LIMMIN
 10
0.0
 20
0.0
  9
$LIMMAX
 10
12.0
 20
9.0
  9
$ORTHOMODE
 70
     0
  9
$REGENMODE
 70
     1
  9
$FILLMODE
 70
     1
  9
$QTEXTMODE
 70
     0
  9
$MIRRTEXT
 70
     1
  9
$DRAGMODE
 70
     2
  9
$LTSCALE
 40
1.0
  9
$OSMODE
 70
    37
  9
$ATTMODE
 70
     1
  9
$TEXTSIZE
 40
0.2
  9
$TRACEWID
 40
0.05
  9
$TEXTSTYLE
  7
STANDARD
  9
$CLAYER
  8
0
  9
$CELTYPE
  6
BYLAYER
  9
$CECOLOR
 62
   256
  9
$CELTSCALE
 40
1.0
  9
$DELOBJ
 70
     1
  9
$DISPSILH
 70
     0
  9
$DIMSCALE
 40
1.0
  9
$DIMASZ
 40
0.18
  9
$DIMEXO
 40
0.0625
  9
$DIMDLI
 40
0.38
  9
$DIMRND
 40
0.0
  9
$DIMDLE
 40
0.0
  9
$DIMEXE
 40
0.18
  9
$DIMTP
 40
0.0
  9
$DIMTM
 40
0.0
  9
$DIMTXT
 40
0.18
  9
$DIMCEN
 40
0.09
  9
$DIMTSZ
 40
0.0
  9
$DIMTOL
 70
     0
  9
$DIMLIM
 70
     0
  9
$DIMTIH
 70
     1
  9
$DIMTOH
 70
     1
  9
$DIMSE1
 70
     0
  9
$DIMSE2
 70
     0
  9
$DIMTAD
 70
     0
  9
$DIMZIN
 70
     0
  9
$DIMBLK
  1

  9
$DIMASO
 70
     1
  9
$DIMSHO
 70
     1
  9
$DIMPOST
  1

  9
$DIMAPOST
  1

  9
$DIMALT
 70
     0
  9
$DIMALTD
 70
     2
  9
$DIMALTF
 40
25.4
  9
$DIMLFAC
 40
1.0
  9
$DIMTOFL
 70
     0
  9
$DIMTVP
 40
0.0
  9
$DIMTIX
 70
     0
  9
$DIMSOXD
 70
     0
  9
$DIMSAH
 70
     0
  9
$DIMBLK1
  1

  9
$DIMBLK2
  1

  9
$DIMSTYLE
  2
STANDARD
  9
$DIMCLRD
 70
     0
  9
$DIMCLRE
 70
     0
  9
$DIMCLRT
 70
     0
  9
$DIMTFAC
 40
1.0
  9
$DIMGAP
 40
0.09
  9
$DIMJUST
 70
     0
  9
$DIMSD1
 70
     0
  9
$DIMSD2
 70
     0
  9
$DIMTOLJ
 70
     1
  9
$DIMTZIN
 70
     0
  9
$DIMALTZ
 70
     0
  9
$DIMALTTZ
 70
     0
  9
$DIMFIT
 70
     3
  9
$DIMUPT
 70
     0
  9
$DIMUNIT
 70
     2
  9
$DIMDEC
 70
     4
  9
$DIMTDEC
 70
     4
  9
$DIMALTU
 70
     2
  9
$DIMALTTD
 70
     2
  9
$DIMTXSTY
  7
STANDARD
  9
$DIMAUNIT
 70
     0
  9
$LUNITS
 70
     2
  9
$LUPREC
 70
     4
  9
$SKETCHINC
 40
0.1
  9
$FILLETRAD
 40
0.5
  9
$AUNITS
 70
     0
  9
$AUPREC
 70
     0
  9
$MENU
  1
.
  9
$ELEVATION
 40
0.0
  9
$PELEVATION
 40
0.0
  9
$THICKNESS
 40
0.0
  9
$LIMCHECK
 70
     0
  9
$CHAMFERA
 40
0.5
  9
$CHAMFERB
 40
0.5
  9
$CHAMFERC
 40
1.0
  9
$CHAMFERD
 40
0.0
  9
$SKPOLY
 70
     0
  9
$TDCREATE
 40
2456240.624290451
  9
$TDUPDATE
 40
2456240.624290463
  9
$TDINDWG
 40
0.0000000116
  9
$TDUSRTIMER
 40
0.0000000116
  9
$USRTIMER
 70
     1
  9
$ANGBASE
 50
0.0
  9
$ANGDIR
 70
     0
  9
$PDMODE
 70
     0
  9
$PDSIZE
 40
0.0
  9
$PLINEWID
 40
0.0
  9
$COORDS
 70
     1
  9
$SPLFRAME
 70
     0
  9
$SPLINETYPE
 70
     6
  9
$SPLINESEGS
 70
     8
  9
$ATTDIA
 70
     0
  9
$ATTREQ
 70
     1
  9
$HANDLING
 70
     1
  9
$HANDSEED
  5
10E
  9
$SURFTAB1
 70
     6
  9
$SURFTAB2
 70
     6
  9
$SURFTYPE
 70
     6
  9
$SURFU
 70
     6
  9
$SURFV
 70
     6
  9
$UCSNAME
  2

  9
$UCSORG
 10
0.0
 20
0.0
 30
0.0
  9
$UCSXDIR
 10
1.0
 20
0.0
 30
0.0
  9
$UCSYDIR
 10
0.0
 20
1.0
 30
0.0
  9
$PUCSNAME
  2

  9
$PUCSORG
 10
0.0
 20
0.0
 30
0.0
  9
$PUCSXDIR
 10
1.0
 20
0.0
 30
0.0
  9
$PUCSYDIR
 10
0.0
 20
1.0
 30
0.0
  9
$USERI1
 70
     0
  9
$USERI2
 70
     0
  9
$USERI3
 70
     0
  9
$USERI4
 70
     0
  9
$USERI5
 70
     0
  9
$USERR1
 40
0.0
  9
$USERR2
 40
0.0
  9
$USERR3
 40
0.0
  9
$USERR4
 40
0.0
  9
$USERR5
 40
0.0
  9
$WORLDVIEW
 70
     1
  9
$SHADEDGE
 70
     3
  9
$SHADEDIF
 70
    70
  9
$TILEMODE
 70
     1
  9
$MAXACTVP
 70
    64
  9
$PINSBASE
 10
0.0
 20
0.0
 30
0.0
  9
$PLIMCHECK
 70
     0
  9
$PEXTMIN
 10
1.000000000000000E+20
 20
1.000000000000000E+20
 30
1.000000000000000E+20
  9
$PEXTMAX
 10
-1.000000000000000E+20
 20
-1.000000000000000E+20
 30
-1.000000000000000E+20
  9
$PLIMMIN
 10
0.0
 20
0.0
  9
$PLIMMAX
 10
12.0
 20
9.0
  9
$UNITMODE
 70
     0
  9
$VISRETAIN
 70
     1
  9
$PLINEGEN
 70
     0
  9
$PSLTSCALE
 70
     1
  9
$TREEDEPTH
 70
  3020
  9
$PICKSTYLE
 70
     1
  9
$CMLSTYLE
  2
STANDARD
  9
$CMLJUST
 70
     0
  9
$CMLSCALE
 40
1.0
  9
$PROXYGRAPHICS
 70
     1
  9
$MEASUREMENT
 70
     0
  0
ENDSEC
  0
SECTION
  2
CLASSES
  0
CLASS
  1
ACDBDICTIONARYWDFLT
  2
AcDbDictionaryWithDefault
  3
ObjectDBX Classes
 90
        0
280
     0
281
     0
  0
CLASS
  1
VISUALSTYLE
  2
AcDbVisualStyle
  3
ObjectDBX Classes
 90
     4095
280
     0
281
     0
  0
CLASS
  1
MATERIAL
  2
AcDbMaterial
  3
ObjectDBX Classes
 90
     1153
280
     0
281
     0
  0
CLASS
  1
DICTIONARYVAR
  2
AcDbDictionaryVar
  3
ObjectDBX Classes
 90
        0
280
     0
281
     0
  0
CLASS
  1
XRECORD
  2
AcDbXrecord
  3
AutoCAD 2000
 90
        0
280
     0
281
     0
  0
CLASS
  1
LWPOLYLINE
  2
AcDbPolyline
  3
AutoCAD 2000
 90
        0
280
     0
281
     1
  0
CLASS
  1
HATCH
  2
AcDbHatch
  3
AutoCAD 2000
 90
        0
280
     0
281
     1
  0
CLASS
  1
ACDBPLACEHOLDER
  2
AcDbPlaceHolder
  3
ObjectDBX Classes
 90
        0
280
     0
281
     0
  0
CLASS
  1
LAYOUT
  2
AcDbLayout
  3
ObjectDBX Classes
 90
        0
280
     0
281
     0
  0
ENDSEC
  0
SECTION
  2
TABLES
  0
TABLE
  2
VPORT
  5
8
330
0
100
AcDbSymbolTable
 70
     1
  0
VPORT
  5
29
330
8
100
AcDbSymbolTableRecord
100
AcDbViewportTableRecord
  2
*ACTIVE
 70
     0
 10
0.0
 20
0.0
 11
1.0
 21
1.0
 12
10.42990654205607
 22
4.5
 13
0.0
 23
0.0
 14
0.5
 24
0.5
 15
0.5
 25
0.5
 16
0.0
 26
0.0
 36
1.0
 17
0.0
 27
0.0
 37
0.0
 40
9.0
 41
1.972972972850329
 42
50.0
 43
0.0
 44
0.0
 50
0.0
 51
0.0
 71
     0
 72
   100
 73
     1
 74
     3
 75
     0
 76
     0
 77
     0
 78
     0
  0
ENDTAB
  0
TABLE
  2
LTYPE
  5
5
330
0
100
AcDbSymbolTable
 70
     3
  0
LTYPE
  5
14
330
5
100
AcDbSymbolTableRecord
100
AcDbLinetypeTableRecord
  2
BYBLOCK
 70
     0
  3

 72
    65
 73
     0
 40
0.0
  0
LTYPE
  5
15
330
5
100
AcDbSymbolTableRecord
100
AcDbLinetypeTableRecord
  2
BYLAYER
 70
     0
  3

 72
    65
 73
     0
 40
0.0
  0
LTYPE
  5
16
330
5
100
AcDbSymbolTableRecord
100
AcDbLinetypeTableRecord
  2
CONTINUOUS
 70
     0
  3
Solid line
 72
    65
 73
     0
 40
0.0
  0
LTYPE
  5
B5
330
5
100
AcDbSymbolTableRecord
100
AcDbLinetypeTableRecord
  2
NEW_LINE1
 70
     0
  3

 72
    65
 73
     4
 40
1.2
 49
0.5
 74
     4
 75
     0
340
0
 46
1.0
 50
0.0
 44
0.0
 45
0.0
 49
-0.3
 74
     4
 75
     0
340
0
 46
1.0
 50
0.0
 44
0.0
 45
0.0
 49
0.1
 74
     4
 75
     0
340
0
 46
1.0
 50
0.0
 44
0.0
 45
0.0
 49
-0.3
 74
     4
 75
     0
340
0
 46
1.0
 50
0.0
 44
0.0
 45
0.0
  0
LTYPE
  5
B7
330
5
100
AcDbSymbolTableRecord
100
AcDbLinetypeTableRecord
  2
NEW_LINE2
 70
     0
  3

 72
    65
 73
     4
 40
1.2
 49
0.5
 74
     4
 75
     0
340
0
 46
1.0
 50
0.0
 44
0.0
 45
0.0
 49
-0.3
 74
     4
 75
     0
340
0
 46
1.0
 50
0.0
 44
0.0
 45
0.0
 49
0.1
 74
     4
 75
     0
340
0
 46
1.0
 50
0.0
 44
0.0
 45
0.0
 49
-0.3
 74
     4
 75
     0
340
0
 46
1.0
 50
0.0
 44
0.0
 45
0.0
  0
ENDTAB
  0
TABLE
  2
LAYER
  5
2
330
0
100
AcDbSymbolTable
 70
     2
  0
LAYER
  5
10
330
2
100
AcDbSymbolTableRecord
100
AcDbLayerTableRecord
  2
0
 70
     0
 62
     7
  6
CONTINUOUS
  0
LAYER
  5
40
330
2
100
AcDbSymbolTableRecord
100
AcDbLayerTableRecord
  2
DEFAULT_1
 70
     0
 62
     7
  6
CONTINUOUS
  0
ENDTAB
  0
TABLE
  2
STYLE
  5
3
330
0
100
AcDbSymbolTable
 70
     1
  0
STYLE
  5
11
330
3
100
AcDbSymbolTableRecord
100
AcDbTextStyleTableRecord
  2
STANDARD
 70
     0
 40
0.0
 41
1.0
 50
0.0
 71
     0
 42
0.2
  3
txt
  4

  0
ENDTAB
  0
TABLE
  2
VIEW
  5
6
330
0
100
AcDbSymbolTable
 70
     0
  0
ENDTAB
  0
TABLE
  2
UCS
  5
7
330
0
100
AcDbSymbolTable
 70
     0
  0
ENDTAB
  0
TABLE
  2
APPID
  5
9
330
0
100
AcDbSymbolTable
 70
     2
  0
APPID
  5
12
330
9
100
AcDbSymbolTableRecord
100
AcDbRegAppTableRecord
  2
ACAD
 70
     0
  0
APPID
  5
3F
330
9
100
AcDbSymbolTableRecord
100
AcDbRegAppTableRecord
  2
ODA
 70
     0
  0
ENDTAB
  0
TABLE
  2
DIMSTYLE
  5
A
330
0
100
AcDbSymbolTable
 70
     1
  0
DIMSTYLE
105
27
330
A
100
AcDbSymbolTableRecord
100
AcDbDimStyleTableRecord
  2
STANDARD
 70
     0
  3

  4

  5

  6

  7

 40
1.0
 41
0.18
 42
0.0625
 43
0.38
 44
0.18
 45
0.0
 46
0.0
 47
0.0
 48
0.0
140
0.18
141
0.09
142
0.0
143
25.4
144
1.0
145
0.0
146
1.0
147
0.09
 71
     0
 72
     0
 73
     1
 74
     1
 75
     0
 76
     0
 77
     0
 78
     0
170
     0
171
     2
172
     0
173
     0
174
     0
175
     0
176
     0
177
     0
178
     0
270
     2
271
     4
272
     4
273
     2
274
     2
340
11
275
     0
280
     0
281
     0
282
     0
283
     1
284
     0
285
     0
286
     0
287
     3
288
     0
  0
ENDTAB
  0
TABLE
  2
BLOCK_RECORD
  5
1
330
0
100
AcDbSymbolTable
 70
     1
  0
BLOCK_RECORD
  5
1F
330
1
100
AcDbSymbolTableRecord
100
AcDbBlockTableRecord
  2
*MODEL_SPACE
  0
BLOCK_RECORD
  5
1B
330
1
100
AcDbSymbolTableRecord
100
AcDbBlockTableRecord
  2
*PAPER_SPACE
  0
ENDTAB
  0
ENDSEC
  0
SECTION
  2
BLOCKS
  0
BLOCK
  5
20
330
1F
100
AcDbEntity
  8
0
100
AcDbBlockBegin
  2
*MODEL_SPACE
 70
     0
 10
0.0
 20
0.0
 30
0.0
  3
*MODEL_SPACE
  1

  0
ENDBLK
  5
21
330
1F
100
AcDbEntity
  8
0
100
AcDbBlockEnd
  0
BLOCK
  5
1C
330
1B
100
AcDbEntity
 67
     1
  8
0
100
AcDbBlockBegin
  2
*PAPER_SPACE
 70
     0
 10
0.0
 20
0.0
 30
0.0
  3
*PAPER_SPACE
  1

  0
ENDBLK
  5
1D
330
1B
100
AcDbEntity
 67
     1
  8
0
100
AcDbBlockEnd
  0
ENDSEC
  0
SECTION
  2
ENTITIES
  0
SPLINE
  5
41
330
1F
100
AcDbEntity
  8
DEFAULT_1
 62
   250
100
AcDbSpline
210
0.0
220
0.0
230
1.0
 70
    24
 71
     3
 72
     8
 73
     4
 74
     0
 42
0.0000000001
 43
0.0000000001
 40
0.0
 40
0.0
 40
0.0
 40
0.0
 40
1.0
 40
1.0
 40
1.0
 40
1.0
 10
15.2796
 20
25.7276
 30
0.0
 10
15.2796
 20
25.7276
 30
0.0
 10
14.9824
 20
25.7276
 30
0.0
 10
14.9824
 20
25.7276
 30
0.0
  0
SPLINE
  5
42
330
1F
100
AcDbEntity
  8
DEFAULT_1
 62
   250
100
AcDbSpline
210
0.0
220
0.0
230
1.0
 70
    24
 71
     3
 72
     8
 73
     4
 74
     0
 42
0.0000000001
 43
0.0000000001
 40
0.0
 40
0.0
 40
0.0
 40
0.0
 40
1.0
 40
1.0
 40
1.0
 40
1.0
 10
19.2529
 20
9.3124
 30
0.0
 10
19.2529
 20
9.3124
 30
0.0
 10
19.2529
 20
-2.1218
 30
0.0
 10
19.2529
 20
-2.1218
 30
0.0
  0
SPLINE
  5
43
330
1F
100
AcDbEntity
  8
DEFAULT_1
 62
   250
100
AcDbSpline
210
0.0
220
0.0
230
1.0
 70
    24
 71
     3
 72
     8
 73
     4
 74
     0
 42
0.0000000001
 43
0.0000000001
 40
0.0
 40
0.0
 40
0.0
 40
0.0
 40
1.0
 40
1.0
 40
1.0
 40
1.0
 10
19.2937
 20
9.8474
 30
0.0
 10
19.2937
 20
9.8474
 30
0.0
 10
19.9619
 20
5.3927
 30
0.0
 10
19.9619
 20
5.3927
 30
0.0
  0
SPLINE
  5
44
330
1F
100
AcDbEntity
  8
DEFAULT_1
 62
   250
100
AcDbSpline
210
0.0
220
0.0
230
1.0
 70
     8
 71
     3
 72
    12
 73
     8
 74
     0
 42
0.0000000001
 43
0.0000000001
 40
0.0
 40
0.0
 40
0.0
 40
0.0
 40
0.3333333333333333
 40
0.3333333333333333
 40
0.3333333333333333
 40
0.3333333333333333
 40
1.0
 40
1.0
 40
1.0
 40
1.0
 10
19.9619
 20
5.3927
 30
0.0
 10
19.9619
 20
5.3927
 30
0.0
 10
18.6255
 20
5.3927
 30
0.0
 10
18.6255
 20
5.3927
 30
0.0
 10
18.6255
 20
5.3927
 30
0.0
 10
18.6255
 20
5.3927
 30
0.0
 10
19.2937
 20
9.8474
 30
0.0
 10
19.2937
 20
9.8474
 30
0.0
  0
SPLINE
  5
45
330
1F
100
AcDbEntity
  8
DEFAULT_1
 62
   250
100
AcDbSpline
210
0.0
220
0.0
230
1.0
 70
    24
 71
     3
 72
     8
 73
     4
 74
     0
 42
0.0000000001
 43
0.0000000001
 40
0.0
 40
0.0
 40
0.0
 40
0.0
 40
1.0
 40
1.0
 40
1.0
 40
1.0
 10
18.6175
 20
-17.4826
 30
0.0
 10
18.6175
 20
-17.4826
 30
0.0
 10
25.8226
 20
-17.4826
 30
0.0
 10
25.8226
 20
-17.4826
 30
0.0
  0
SPLINE
  5
46
330
1F
100
AcDbEntity
  8
DEFAULT_1
 62
   250
100
AcDbSpline
210
0.0
220
0.0
230
1.0
 70
    24
 71
     3
 72
     8
 73
     4
 74
     0
 42
0.0000000001
 43
0.0000000001
 40
0.0
 40
0.0
 40
0.0
 40
0.0
 40
1.0
 40
1.0
 40
1.0
 40
1.0
 10
18.8523
 20
-29.2604
 30
0.0
 10
18.8523
 20
-29.2604
 30
0.0
 10
25.8635
 20
-29.2604
 30
0.0
 10
25.8635
 20
-29.2604
 30
0.0
  0
SPLINE
  5
47
330
1F
100
AcDbEntity
  8
DEFAULT_1
 62
   250
100
AcDbSpline
210
0.0
220
0.0
230
1.0
 70
    24
 71
     3
 72
     8
 73
     4
 74
     0
 42
0.0000000001
 43
0.0000000001
 40
0.0
 40
0.0
 40
0.0
 40
0.0
 40
1.0
 40
1.0
 40
1.0
 40
1.0
 10
-13.6258
 20
-32.7469
 30
0.0
 10
-13.6258
 20
-32.7469
 30
0.0
 10
-23.8217
 20
-32.7469
 30
0.0
 10
-23.8217
 20
-32.7469
 30
0.0
  0
SPLINE
  5
48
330
1F
100
AcDbEntity
  8
DEFAULT_1
 62
   250
100
AcDbSpline
210
0.0
220
0.0
230
1.0
 70
    24
 71
     3
 72
     8
 73
     4
 74
     0
 42
0.0000000001
 43
0.0000000001
 40
0.0
 40
0.0
 40
0.0
 40
0.0
 40
1.0
 40
1.0
 40
1.0
 40
1.0
 10
-19.3259
 20
-8.4296
 30
0.0
 10
-19.3259
 20
-8.4296
 30
0.0
 10
-23.8217
 20
-8.4296
 30
0.0
 10
-23.8217
 20
-8.4296
 30
0.0
  0
SPLINE
  5
49
330
1F
100
AcDbEntity
  8
DEFAULT_1
 62
   250
100
AcDbSpline
210
0.0
220
0.0
230
1.0
 70
    24
 71
     3
 72
     8
 73
     4
 74
     0
 42
0.0000000001
 43
0.0000000001
 40
0.0
 40
0.0
 40
0.0
 40
0.0
 40
1.0
 40
1.0
 40
1.0
 40
1.0
 10
15.2828
 20
25.7915
 30
0.0
 10
15.2828
 20
25.7915
 30
0.0
 10
15.2828
 20
31.3182
 30
0.0
 10
15.2828
 20
31.3182
 30
0.0
  0
SPLINE
  5
4A
330
1F
100
AcDbEntity
  8
DEFAULT_1
 62
   250
100
AcDbSpline
210
0.0
220
0.0
230
1.0
 70
    24
 71
     3
 72
     8
 73
     4
 74
     0
 42
0.0000000001
 43
0.0000000001
 40
0.0
 40
0.0
 40
0.0
 40
0.0
 40
1.0
 40
1.0
 40
1.0
 40
1.0
 10
-18.4161
 20
25.8412
 30
0.0
 10
-18.4161
 20
25.8412
 30
0.0
 10
-18.4161
 20
31.5411
 30
0.0
 10
-18.4161
 20
31.5411
 30
0.0
  0
SPLINE
  5
4B
330
1F
100
AcDbEntity
  8
DEFAULT_1
 62
   250
100
AcDbSpline
210
0.0
220
0.0
230
1.0
 70
    24
 71
     3
 72
     8
 73
     4
 74
     0
 42
0.0000000001
 43
0.0000000001
 40
0.0
 40
0.0
 40
0.0
 40
0.0
 40
1.0
 40
1.0
 40
1.0
 40
1.0
 10
-14.0182
 20
-1.083
 30
0.0
 10
-14.0182
 20
-1.083
 30
0.0
 10
-14.0182
 20
0.7533
 30
0.0
 10
-14.0182
 20
0.7533
 30
0.0
  0
SPLINE
  5
4C
330
1F
100
AcDbEntity
  8
DEFAULT_1
 62
   250
100
AcDbSpline
210
0.0
220
0.0
230
1.0
 70
    24
 71
     3
 72
     8
 73
     4
 74
     0
 42
0.0000000001
 43
0.0000000001
 40
0.0
 40
0.0
 40
0.0
 40
0.0
 40
1.0
 40
1.0
 40
1.0
 40
1.0
 10
10.885
 20
-1.1469
 30
0.0
 10
10.885
 20
-1.1469
 30
0.0
 10
10.885
 20
0.9072
 30
0.0
 10
10.885
 20
0.9072
 30
0.0
  0
SPLINE
  5
4D
330
1F
100
AcDbEntity
  8
DEFAULT_1
 62
   250
100
AcDbSpline
210
0.0
220
0.0
230
1.0
 70
    24
 71
     3
 72
     8
 73
     4
 74
     0
 42
0.0000000001
 43
0.0000000001
 40
0.0
 40
0.0
 40
0.0
 40
0.0
 40
1.0
 40
1.0
 40
1.0
 40
1.0
 10
-11.6234
 20
-32.7469
 30
0.0
 10
-11.6234
 20
-32.7469
 30
0.0
 10
8.4901
 20
-32.7469
 30
0.0
 10
8.4901
 20
-32.7469
 30
0.0
  0
SPLINE
  5
4E
330
1F
100
AcDbEntity
  8
DEFAULT_1
 62
   250
100
AcDbSpline
210
0.0
220
0.0
230
1.0
 70
    24
 71
     3
 72
     8
 73
     4
 74
     0
 42
0.0000000001
 43
0.0000000001
 40
0.0
 40
0.0
 40
0.0
 40
0.0
 40
1.0
 40
1.0
 40
1.0
 40
1.0
 10
17.184
 20
-31.4285
 30
0.0
 10
17.184
 20
-31.4285
 30
0.0
 10
13.6683
 20
-31.4285
 30
0.0
 10
13.6683
 20
-31.4285
 30
0.0
  0
SPLINE
  5
4F
330
1F
100
AcDbEntity
  8
DEFAULT_1
 62
   250
100
AcDbSpline
210
0.0
220
0.0
230
1.0
 70
    24
 71
     3
 72
     8
 73
     4
 74
     0
 42
0.0000000001
 43
0.0000000001
 40
0.0
 40
0.0
 40
0.0
 40
0.0
 40
1.0
 40
1.0
 40
1.0
 40
1.0
 10
17.77
 20
-31.282
 30
0.0
 10
17.77
 20
-31.282
 30
0.0
 10
17.184
 20
-31.282
 30
0.0
 10
17.184
 20
-31.282
 30
0.0
  0
SPLINE
  5
50
330
1F
100
AcDbEntity
  8
DEFAULT_1
 62
   250
100
AcDbSpline
210
0.0
220
0.0
230
1.0
 70
    24
 71
     3
 72
     8
 73
     4
 74
     0
 42
0.0000000001
 43
0.0000000001
 40
0.0
 40
0.0
 40
0.0
 40
0.0
 40
1.0
 40
1.0
 40
1.0
 40
1.0
 10
16.5981
 20
-31.2602
 30
0.0
 10
16.5981
 20
-31.2602
 30
0.0
 10
14.5472
 20
-31.2602
 30
0.0
 10
14.5472
 20
-31.2602
 30
0.0
  0
SPLINE
  5
51
330
1F
100
AcDbEntity
  8
DEFAULT_1
 62
   250
100
AcDbSpline
210
0.0
220
0.0
230
1.0
 70
    24
 71
     3
 72
     8
 73
     4
 74
     0
 42
0.0000000001
 43
0.0000000001
 40
0.0
 40
0.0
 40
0.0
 40
0.0
 40
1.0
 40
1.0
 40
1.0
 40
1.0
 10
13.1116
 20
-30.3298
 30
0.0
 10
13.1116
 20
-30.3298
 30
0.0
 10
13.6683
 20
-30.3298
 30
0.0
 10
13.6683
 20
-30.3298
 30
0.0
  0
SPLINE
  5
52
330
1F
100
AcDbEntity
  8
DEFAULT_1
 62
   250
100
AcDbSpline
210
0.0
220
0.0
230
1.0
 70
    24
 71
     3
 72
     8
 73
     4
 74
     0
 42
0.0000000001
 43
0.0000000001
 40
0.0
 40
0.0
 40
0.0
 40
0.0
 40
1.0
 40
1.0
 40
1.0
 40
1.0
 10
11.6083
 20
-29.8104
 30
0.0
 10
11.6083
 20
-29.8104
 30
0.0
 10
13.1116
 20
-29.8104
 30
0.0
 10
13.1116
 20
-29.8104
 30
0.0
  0
SPLINE
  5
53
330
1F
100
AcDbEntity
  8
DEFAULT_1
 62
   250
100
AcDbSpline
210
0.0
220
0.0
230
1.0
 70
    24
 71
     3
 72
     8
 73
     4
 74
     0
 42
0.0000000001
 43
0.0000000001
 40
0.0
 40
0.0
 40
0.0
 40
0.0
 40
1.0
 40
1.0
 40
1.0
 40
1.0
 10
14.5472
 20
-29.4679
 30
0.0
 10
14.5472
 20
-29.4679
 30
0.0
 10
16.5981
 20
-29.4679
 30
0.0
 10
16.5981
 20
-29.4679
 30
0.0
  0
SPLINE
  5
54
330
1F
100
AcDbEntity
  8
DEFAULT_1
 62
   250
100
AcDbSpline
210
0.0
220
0.0
230
1.0
 70
    24
 71
     3
 72
     8
 73
     4
 74
     0
 42
0.0000000001
 43
0.0000000001
 40
0.0
 40
0.0
 40
0.0
 40
0.0
 40
1.0
 40
1.0
 40
1.0
 40
1.0
 10
14.5472
 20
-28.6392
 30
0.0
 10
14.5472
 20
-28.6392
 30
0.0
 10
16.5981
 20
-28.6392
 30
0.0
 10
16.5981
 20
-28.6392
 30
0.0
  0
SPLINE
  5
55
330
1F
100
AcDbEntity
  8
DEFAULT_1
 62
   250
100
AcDbSpline
210
0.0
220
0.0
230
1.0
 70
    24
 71
     3
 72
     8
 73
     4
 74
     0
 42
0.0000000001
 43
0.0000000001
 40
0.0
 40
0.0
 40
0.0
 40
0.0
 40
1.0
 40
1.0
 40
1.0
 40
1.0
 10
-18.8524
 20
-11.3594
 30
0.0
 10
-18.8524
 20
-11.3594
 30
0.0
 10
-18.8524
 20
-10.334
 30
0.0
 10
-18.8524
 20
-10.334
 30
0.0
  0
SPLINE
  5
56
330
1F
100
AcDbEntity
  8
DEFAULT_1
 62
   250
100
AcDbSpline
210
0.0
220
0.0
230
1.0
 70
    24
 71
     3
 72
     8
 73
     4
 74
     0
 42
0.0000000001
 43
0.0000000001
 40
0.0
 40
0.0
 40
0.0
 40
0.0
 40
1.0
 40
1.0
 40
1.0
 40
1.0
 10
-18.4161
 20
25.7276
 30
0.0
 10
-18.4161
 20
25.7276
 30
0.0
 10
-18.4161
 20
25.5811
 30
0.0
 10
-18.4161
 20
25.5811
 30
0.0
  0
SPLINE
  5
57
330
1F
100
AcDbEntity
  8
DEFAULT_1
 62
   250
100
AcDbSpline
210
0.0
220
0.0
230
1.0
 70
    24
 71
     3
 72
     8
 73
     4
 74
     0
 42
0.0000000001
 43
0.0000000001
 40
0.0
 40
0.0
 40
0.0
 40
0.0
 40
1.0
 40
1.0
 40
1.0
 40
1.0
 10
-18.4129
 20
-10.334
 30
0.0
 10
-18.4129
 20
-10.334
 30
0.0
 10
-18.4129
 20
-8.4296
 30
0.0
 10
-18.4129
 20
-8.4296
 30
0.0
  0
SPLINE
  5
58
330
1F
100
AcDbEntity
  8
DEFAULT_1
 62
   250
100
AcDbSpline
210
0.0
220
0.0
230
1.0
 70
    24
 71
     3
 72
     8
 73
     4
 74
     0
 42
0.0000000001
 43
0.0000000001
 40
0.0
 40
0.0
 40
0.0
 40
0.0
 40
1.0
 40
1.0
 40
1.0
 40
1.0
 10
-18.2664
 20
-1.6911
 30
0.0
 10
-18.2664
 20
-1.6911
 30
0.0
 10
-18.2664
 20
-1.3981
 30
0.0
 10
-18.2664
 20
-1.3981
 30
0.0
  0
SPLINE
  5
59
330
1F
100
AcDbEntity
  8
DEFAULT_1
 62
   250
100
AcDbSpline
210
0.0
220
0.0
230
1.0
 70
    24
 71
     3
 72
     8
 73
     4
 74
     0
 42
0.0000000001
 43
0.0000000001
 40
0.0
 40
0.0
 40
0.0
 40
0.0
 40
1.0
 40
1.0
 40
1.0
 40
1.0
 10
14.5472
 20
-23.9575
 30
0.0
 10
14.5472
 20
-23.9575
 30
0.0
 10
16.5981
 20
-23.9575
 30
0.0
 10
16.5981
 20
-23.9575
 30
0.0
  0
SPLINE
  5
5A
330
1F
100
AcDbEntity
  8
DEFAULT_1
 62
   250
100
AcDbSpline
210
0.0
220
0.0
230
1.0
 70
    24
 71
     3
 72
     8
 73
     4
 74
     0
 42
0.0000000001
 43
0.0000000001
 40
0.0
 40
0.0
 40
0.0
 40
0.0
 40
1.0
 40
1.0
 40
1.0
 40
1.0
 10
14.5472
 20
-22.7856
 30
0.0
 10
14.5472
 20
-22.7856
 30
0.0
 10
16.5981
 20
-22.7856
 30
0.0
 10
16.5981
 20
-22.7856
 30
0.0
  0
SPLINE
  5
5B
330
1F
100
AcDbEntity
  8
DEFAULT_1
 62
   250
100
AcDbSpline
210
0.0
220
0.0
230
1.0
 70
    24
 71
     3
 72
     8
 73
     4
 74
     0
 42
0.0000000001
 43
0.0000000001
 40
0.0
 40
0.0
 40
0.0
 40
0.0
 40
1.0
 40
1.0
 40
1.0
 40
1.0
 10
-17.2109
 20
-11.8827
 30
0.0
 10
-17.2109
 20
-11.8827
 30
0.0
 10
-15.0585
 20
-14.6903
 30
0.0
 10
-15.0585
 20
-14.6903
 30
0.0
  0
SPLINE
  5
5C
330
1F
100
AcDbEntity
  8
DEFAULT_1
 62
   250
100
AcDbSpline
210
0.0
220
0.0
230
1.0
 70
    24
 71
     3
 72
     8
 73
     4
 74
     0
 42
0.0000000001
 43
0.0000000001
 40
0.0
 40
0.0
 40
0.0
 40
0.0
 40
1.0
 40
1.0
 40
1.0
 40
1.0
 10
-15.0621
 20
-14.6856
 30
0.0
 10
-15.0621
 20
-14.6856
 30
0.0
 10
-14.7507
 20
-18.2444
 30
0.0
 10
-14.7507
 20
-18.2444
 30
0.0
  0
SPLINE
  5
5D
330
1F
100
AcDbEntity
  8
DEFAULT_1
 62
   250
100
AcDbSpline
210
0.0
220
0.0
230
1.0
 70
    24
 71
     3
 72
     8
 73
     4
 74
     0
 42
0.0000000001
 43
0.0000000001
 40
0.0
 40
0.0
 40
0.0
 40
0.0
 40
1.0
 40
1.0
 40
1.0
 40
1.0
 10
-14.7507
 20
-29.6196
 30
0.0
 10
-14.7507
 20
-29.6196
 30
0.0
 10
-14.7507
 20
-18.2444
 30
0.0
 10
-14.7507
 20
-18.2444
 30
0.0
  0
SPLINE
  5
5E
330
1F
100
AcDbEntity
  8
DEFAULT_1
 62
   250
100
AcDbSpline
210
0.0
220
0.0
230
1.0
 70
    24
 71
     3
 72
     8
 73
     4
 74
     0
 42
0.0000000001
 43
0.0000000001
 40
0.0
 40
0.0
 40
0.0
 40
0.0
 40
1.0
 40
1.0
 40
1.0
 40
1.0
 10
-14.0182
 20
-8.4296
 30
0.0
 10
-14.0182
 20
-8.4296
 30
0.0
 10
-14.0182
 20
-4.3279
 30
0.0
 10
-14.0182
 20
-4.3279
 30
0.0
  0
SPLINE
  5
5F
330
1F
100
AcDbEntity
  8
DEFAULT_1
 62
   250
100
AcDbSpline
210
0.0
220
0.0
230
1.0
 70
    24
 71
     3
 72
     8
 73
     4
 74
     0
 42
0.0000000001
 43
0.0000000001
 40
0.0
 40
0.0
 40
0.0
 40
0.0
 40
1.0
 40
1.0
 40
1.0
 40
1.0
 10
14.5472
 20
-18.1038
 30
0.0
 10
14.5472
 20
-18.1038
 30
0.0
 10
16.5981
 20
-18.1038
 30
0.0
 10
16.5981
 20
-18.1038
 30
0.0
  0
SPLINE
  5
60
330
1F
100
AcDbEntity
  8
DEFAULT_1
 62
   250
100
AcDbSpline
210
0.0
220
0.0
230
1.0
 70
    24
 71
     3
 72
     8
 73
     4
 74
     0
 42
0.0000000001
 43
0.0000000001
 40
0.0
 40
0.0
 40
0.0
 40
0.0
 40
1.0
 40
1.0
 40
1.0
 40
1.0
 10
-14.0182
 20
-4.3279
 30
0.0
 10
-14.0182
 20
-4.3279
 30
0.0
 10
-14.2001
 20
-3.2964
 30
0.0
 10
-14.2001
 20
-3.2964
 30
0.0
  0
SPLINE
  5
61
330
1F
100
AcDbEntity
  8
DEFAULT_1
 62
   250
100
AcDbSpline
210
0.0
220
0.0
230
1.0
 70
    24
 71
     3
 72
     8
 73
     4
 74
     0
 42
0.0000000001
 43
0.0000000001
 40
0.0
 40
0.0
 40
0.0
 40
0.0
 40
1.0
 40
1.0
 40
1.0
 40
1.0
 10
-13.1393
 20
24.1162
 30
0.0
 10
-13.1393
 20
24.1162
 30
0.0
 10
-13.1393
 20
25.2881
 30
0.0
 10
-13.1393
 20
25.2881
 30
0.0
  0
SPLINE
  5
62
330
1F
100
AcDbEntity
  8
DEFAULT_1
 62
   250
100
AcDbSpline
210
0.0
220
0.0
230
1.0
 70
    24
 71
     3
 72
     8
 73
     4
 74
     0
 42
0.0000000001
 43
0.0000000001
 40
0.0
 40
0.0
 40
0.0
 40
0.0
 40
1.0
 40
1.0
 40
1.0
 40
1.0
 10
14.5472
 20
-17.2752
 30
0.0
 10
14.5472
 20
-17.2752
 30
0.0
 10
16.5981
 20
-17.2752
 30
0.0
 10
16.5981
 20
-17.2752
 30
0.0
  0
SPLINE
  5
63
330
1F
100
AcDbEntity
  8
DEFAULT_1
 62
   250
100
AcDbSpline
210
0.0
220
0.0
230
1.0
 70
    24
 71
     3
 72
     8
 73
     4
 74
     0
 42
0.0000000001
 43
0.0000000001
 40
0.0
 40
0.0
 40
0.0
 40
0.0
 40
1.0
 40
1.0
 40
1.0
 40
1.0
 10
11.7313
 20
-16.926
 30
0.0
 10
11.7313
 20
-16.926
 30
0.0
 10
13.1116
 20
-16.926
 30
0.0
 10
13.1116
 20
-16.926
 30
0.0
  0
SPLINE
  5
64
330
1F
100
AcDbEntity
  8
DEFAULT_1
 62
   250
100
AcDbSpline
210
0.0
220
0.0
230
1.0
 70
    24
 71
     3
 72
     8
 73
     4
 74
     0
 42
0.0000000001
 43
0.0000000001
 40
0.0
 40
0.0
 40
0.0
 40
0.0
 40
1.0
 40
1.0
 40
1.0
 40
1.0
 10
13.1116
 20
-16.4133
 30
0.0
 10
13.1116
 20
-16.4133
 30
0.0
 10
13.6683
 20
-16.4133
 30
0.0
 10
13.6683
 20
-16.4133
 30
0.0
  0
SPLINE
  5
65
330
1F
100
AcDbEntity
  8
DEFAULT_1
 62
   250
100
AcDbSpline
210
0.0
220
0.0
230
1.0
 70
    24
 71
     3
 72
     8
 73
     4
 74
     0
 42
0.0000000001
 43
0.0000000001
 40
0.0
 40
0.0
 40
0.0
 40
0.0
 40
1.0
 40
1.0
 40
1.0
 40
1.0
 10
15.3865
 20
-11.6524
 30
0.0
 10
15.3865
 20
-11.6524
 30
0.0
 10
14.0772
 20
-11.8833
 30
0.0
 10
14.0772
 20
-11.8833
 30
0.0
  0
SPLINE
  5
66
330
1F
100
AcDbEntity
  8
DEFAULT_1
 62
   250
100
AcDbSpline
210
0.0
220
0.0
230
1.0
 70
    24
 71
     3
 72
     8
 73
     4
 74
     0
 42
0.0000000001
 43
0.0000000001
 40
0.0
 40
0.0
 40
0.0
 40
0.0
 40
1.0
 40
1.0
 40
1.0
 40
1.0
 10
16.5981
 20
-15.4828
 30
0.0
 10
16.5981
 20
-15.4828
 30
0.0
 10
14.5472
 20
-15.4828
 30
0.0
 10
14.5472
 20
-15.4828
 30
0.0
  0
SPLINE
  5
67
330
1F
100
AcDbEntity
  8
DEFAULT_1
 62
   250
100
AcDbSpline
210
0.0
220
0.0
230
1.0
 70
    24
 71
     3
 72
     8
 73
     4
 74
     0
 42
0.0000000001
 43
0.0000000001
 40
0.0
 40
0.0
 40
0.0
 40
0.0
 40
1.0
 40
1.0
 40
1.0
 40
1.0
 10
17.77
 20
-15.4611
 30
0.0
 10
17.77
 20
-15.4611
 30
0.0
 10
17.184
 20
-15.4611
 30
0.0
 10
17.184
 20
-15.4611
 30
0.0
  0
SPLINE
  5
68
330
1F
100
AcDbEntity
  8
DEFAULT_1
 62
   250
100
AcDbSpline
210
0.0
220
0.0
230
1.0
 70
    24
 71
     3
 72
     8
 73
     4
 74
     0
 42
0.0000000001
 43
0.0000000001
 40
0.0
 40
0.0
 40
0.0
 40
0.0
 40
1.0
 40
1.0
 40
1.0
 40
1.0
 10
17.184
 20
-15.3146
 30
0.0
 10
17.184
 20
-15.3146
 30
0.0
 10
13.6683
 20
-15.3146
 30
0.0
 10
13.6683
 20
-15.3146
 30
0.0
  0
SPLINE
  5
69
330
1F
100
AcDbEntity
  8
DEFAULT_1
 62
   250
100
AcDbSpline
210
0.0
220
0.0
230
1.0
 70
    24
 71
     3
 72
     8
 73
     4
 74
     0
 42
0.0000000001
 43
0.0000000001
 40
0.0
 40
0.0
 40
0.0
 40
0.0
 40
1.0
 40
1.0
 40
1.0
 40
1.0
 10
-18.5198
 20
-11.6524
 30
0.0
 10
-18.5198
 20
-11.6524
 30
0.0
 10
-17.2105
 20
-11.8833
 30
0.0
 10
-17.2105
 20
-11.8833
 30
0.0
  0
SPLINE
  5
6A
330
1F
100
AcDbEntity
  8
DEFAULT_1
 62
   250
100
AcDbSpline
210
0.0
220
0.0
230
1.0
 70
    24
 71
     3
 72
     8
 73
     4
 74
     0
 42
0.0000000001
 43
0.0000000001
 40
0.0
 40
0.0
 40
0.0
 40
0.0
 40
1.0
 40
1.0
 40
1.0
 40
1.0
 10
-8.5981
 20
4.3401
 30
0.0
 10
-8.5981
 20
4.3401
 30
0.0
 10
-8.7618
 20
23.0907
 30
0.0
 10
-8.7618
 20
23.0907
 30
0.0
  0
SPLINE
  5
6B
330
1F
100
AcDbEntity
  8
DEFAULT_1
 62
   250
100
AcDbSpline
210
0.0
220
0.0
230
1.0
 70
    24
 71
     3
 72
     8
 73
     4
 74
     0
 42
0.0000000001
 43
0.0000000001
 40
0.0
 40
0.0
 40
0.0
 40
0.0
 40
1.0
 40
1.0
 40
1.0
 40
1.0
 10
12.8053
 20
-12.107
 30
0.0
 10
12.8053
 20
-12.107
 30
0.0
 10
-1.2736
 20
-12.107
 30
0.0
 10
-1.2736
 20
-12.107
 30
0.0
  0
SPLINE
  5
6C
330
1F
100
AcDbEntity
  8
DEFAULT_1
 62
   250
100
AcDbSpline
210
0.0
220
0.0
230
1.0
 70
    24
 71
     3
 72
     8
 73
     4
 74
     0
 42
0.0000000001
 43
0.0000000001
 40
0.0
 40
0.0
 40
0.0
 40
0.0
 40
1.0
 40
1.0
 40
1.0
 40
1.0
 10
-1.8596
 20
-12.107
 30
0.0
 10
-1.8596
 20
-12.107
 30
0.0
 10
-15.9386
 20
-12.107
 30
0.0
 10
-15.9386
 20
-12.107
 30
0.0
  0
SPLINE
  5
6D
330
1F
100
AcDbEntity
  8
DEFAULT_1
 62
   250
100
AcDbSpline
210
0.0
220
0.0
230
1.0
 70
    24
 71
     3
 72
     8
 73
     4
 74
     0
 42
0.0000000001
 43
0.0000000001
 40
0.0
 40
0.0
 40
0.0
 40
0.0
 40
1.0
 40
1.0
 40
1.0
 40
1.0
 10
15.7191
 20
-11.3594
 30
0.0
 10
15.7191
 20
-11.3594
 30
0.0
 10
-18.8524
 20
-11.3594
 30
0.0
 10
-18.8524
 20
-11.3594
 30
0.0
  0
SPLINE
  5
6E
330
1F
100
AcDbEntity
  8
DEFAULT_1
 62
   250
100
AcDbSpline
210
0.0
220
0.0
230
1.0
 70
    24
 71
     3
 72
     8
 73
     4
 74
     0
 42
0.0000000001
 43
0.0000000001
 40
0.0
 40
0.0
 40
0.0
 40
0.0
 40
1.0
 40
1.0
 40
1.0
 40
1.0
 10
-18.8524
 20
-10.334
 30
0.0
 10
-18.8524
 20
-10.334
 30
0.0
 10
15.7191
 20
-10.334
 30
0.0
 10
15.7191
 20
-10.334
 30
0.0
  0
SPLINE
  5
6F
330
1F
100
AcDbEntity
  8
DEFAULT_1
 62
   250
100
AcDbSpline
210
0.0
220
0.0
230
1.0
 70
    24
 71
     3
 72
     8
 73
     4
 74
     0
 42
0.0000000001
 43
0.0000000001
 40
0.0
 40
0.0
 40
0.0
 40
0.0
 40
1.0
 40
1.0
 40
1.0
 40
1.0
 10
-16.7441
 20
-2.57
 30
0.0
 10
-16.7441
 20
-2.57
 30
0.0
 10
-18.2664
 20
-1.6911
 30
0.0
 10
-18.2664
 20
-1.6911
 30
0.0
  0
SPLINE
  5
70
330
1F
100
AcDbEntity
  8
DEFAULT_1
 62
   250
100
AcDbSpline
210
0.0
220
0.0
230
1.0
 70
    24
 71
     3
 72
     8
 73
     4
 74
     0
 42
0.0000000001
 43
0.0000000001
 40
0.0
 40
0.0
 40
0.0
 40
0.0
 40
1.0
 40
1.0
 40
1.0
 40
1.0
 10
-13.1393
 20
24.1162
 30
0.0
 10
-13.1393
 20
24.1162
 30
0.0
 10
-12.8645
 20
23.0907
 30
0.0
 10
-12.8645
 20
23.0907
 30
0.0
  0
SPLINE
  5
71
330
1F
100
AcDbEntity
  8
DEFAULT_1
 62
   250
100
AcDbSpline
210
0.0
220
0.0
230
1.0
 70
    24
 71
     3
 72
     8
 73
     4
 74
     0
 42
0.0000000001
 43
0.0000000001
 40
0.0
 40
0.0
 40
0.0
 40
0.0
 40
1.0
 40
1.0
 40
1.0
 40
1.0
 10
-18.4129
 20
-8.4296
 30
0.0
 10
-18.4129
 20
-8.4296
 30
0.0
 10
15.2796
 20
-8.4296
 30
0.0
 10
15.2796
 20
-8.4296
 30
0.0
  0
SPLINE
  5
72
330
1F
100
AcDbEntity
  8
DEFAULT_1
 62
   250
100
AcDbSpline
210
0.0
220
0.0
230
1.0
 70
    24
 71
     3
 72
     8
 73
     4
 74
     0
 42
0.0000000001
 43
0.0000000001
 40
0.0
 40
0.0
 40
0.0
 40
0.0
 40
1.0
 40
1.0
 40
1.0
 40
1.0
 10
-1.8596
 20
-11.8819
 30
0.0
 10
-1.8596
 20
-11.8819
 30
0.0
 10
-1.8596
 20
-14.7667
 30
0.0
 10
-1.8596
 20
-14.7667
 30
0.0
  0
SPLINE
  5
73
330
1F
100
AcDbEntity
  8
DEFAULT_1
 62
   250
100
AcDbSpline
210
0.0
220
0.0
230
1.0
 70
    24
 71
     3
 72
     8
 73
     4
 74
     0
 42
0.0000000001
 43
0.0000000001
 40
0.0
 40
0.0
 40
0.0
 40
0.0
 40
1.0
 40
1.0
 40
1.0
 40
1.0
 10
-1.2736
 20
-11.8819
 30
0.0
 10
-1.2736
 20
-11.8819
 30
0.0
 10
-1.2736
 20
-14.7667
 30
0.0
 10
-1.2736
 20
-14.7667
 30
0.0
  0
SPLINE
  5
74
330
1F
100
AcDbEntity
  8
DEFAULT_1
 62
   250
100
AcDbSpline
210
0.0
220
0.0
230
1.0
 70
    24
 71
     3
 72
     8
 73
     4
 74
     0
 42
0.0000000001
 43
0.0000000001
 40
0.0
 40
0.0
 40
0.0
 40
0.0
 40
1.0
 40
1.0
 40
1.0
 40
1.0
 10
-16.7441
 20
-2.57
 30
0.0
 10
-16.7441
 20
-2.57
 30
0.0
 10
13.6108
 20
-2.57
 30
0.0
 10
13.6108
 20
-2.57
 30
0.0
  0
SPLINE
  5
75
330
1F
100
AcDbEntity
  8
DEFAULT_1
 62
   250
100
AcDbSpline
210
0.0
220
0.0
230
1.0
 70
    24
 71
     3
 72
     8
 73
     4
 74
     0
 42
0.0000000001
 43
0.0000000001
 40
0.0
 40
0.0
 40
0.0
 40
0.0
 40
1.0
 40
1.0
 40
1.0
 40
1.0
 10
10.006
 20
24.1162
 30
0.0
 10
10.006
 20
24.1162
 30
0.0
 10
9.7312
 20
23.0907
 30
0.0
 10
9.7312
 20
23.0907
 30
0.0
  0
SPLINE
  5
76
330
1F
100
AcDbEntity
  8
DEFAULT_1
 62
   250
100
AcDbSpline
210
0.0
220
0.0
230
1.0
 70
    24
 71
     3
 72
     8
 73
     4
 74
     0
 42
0.0000000001
 43
0.0000000001
 40
0.0
 40
0.0
 40
0.0
 40
0.0
 40
1.0
 40
1.0
 40
1.0
 40
1.0
 10
-18.2664
 20
-1.3981
 30
0.0
 10
-18.2664
 20
-1.3981
 30
0.0
 10
15.1332
 20
-1.3981
 30
0.0
 10
15.1332
 20
-1.3981
 30
0.0
  0
SPLINE
  5
77
330
1F
100
AcDbEntity
  8
DEFAULT_1
 62
   250
100
AcDbSpline
210
0.0
220
0.0
230
1.0
 70
    24
 71
     3
 72
     8
 73
     4
 74
     0
 42
0.0000000001
 43
0.0000000001
 40
0.0
 40
0.0
 40
0.0
 40
0.0
 40
1.0
 40
1.0
 40
1.0
 40
1.0
 10
5.4649
 20
4.3401
 30
0.0
 10
5.4649
 20
4.3401
 30
0.0
 10
5.6285
 20
23.0907
 30
0.0
 10
5.6285
 20
23.0907
 30
0.0
  0
SPLINE
  5
78
330
1F
100
AcDbEntity
  8
DEFAULT_1
 62
   250
100
AcDbSpline
210
0.0
220
0.0
230
1.0
 70
    24
 71
     3
 72
     8
 73
     4
 74
     0
 42
0.0000000001
 43
0.0000000001
 40
0.0
 40
0.0
 40
0.0
 40
0.0
 40
1.0
 40
1.0
 40
1.0
 40
1.0
 10
13.6108
 20
-2.57
 30
0.0
 10
13.6108
 20
-2.57
 30
0.0
 10
15.1332
 20
-1.6911
 30
0.0
 10
15.1332
 20
-1.6911
 30
0.0
  0
SPLINE
  5
79
330
1F
100
AcDbEntity
  8
DEFAULT_1
 62
   250
100
AcDbSpline
210
0.0
220
0.0
230
1.0
 70
    24
 71
     3
 72
     8
 73
     4
 74
     0
 42
0.0000000001
 43
0.0000000001
 40
0.0
 40
0.0
 40
0.0
 40
0.0
 40
1.0
 40
1.0
 40
1.0
 40
1.0
 10
-8.5981
 20
4.3401
 30
0.0
 10
-8.5981
 20
4.3401
 30
0.0
 10
5.4649
 20
4.3401
 30
0.0
 10
5.4649
 20
4.3401
 30
0.0
  0
SPLINE
  5
7A
330
1F
100
AcDbEntity
  8
DEFAULT_1
 62
   250
100
AcDbSpline
210
0.0
220
0.0
230
1.0
 70
    24
 71
     3
 72
     8
 73
     4
 74
     0
 42
0.0000000001
 43
0.0000000001
 40
0.0
 40
0.0
 40
0.0
 40
0.0
 40
1.0
 40
1.0
 40
1.0
 40
1.0
 10
10.006
 20
24.1162
 30
0.0
 10
10.006
 20
24.1162
 30
0.0
 10
10.006
 20
25.2881
 30
0.0
 10
10.006
 20
25.2881
 30
0.0
  0
SPLINE
  5
7B
330
1F
100
AcDbEntity
  8
DEFAULT_1
 62
   250
100
AcDbSpline
210
0.0
220
0.0
230
1.0
 70
    24
 71
     3
 72
     8
 73
     4
 74
     0
 42
0.0000000001
 43
0.0000000001
 40
0.0
 40
0.0
 40
0.0
 40
0.0
 40
1.0
 40
1.0
 40
1.0
 40
1.0
 10
10.885
 20
-8.4296
 30
0.0
 10
10.885
 20
-8.4296
 30
0.0
 10
10.885
 20
-4.3279
 30
0.0
 10
10.885
 20
-4.3279
 30
0.0
  0
SPLINE
  5
7C
330
1F
100
AcDbEntity
  8
DEFAULT_1
 62
   250
100
AcDbSpline
210
0.0
220
0.0
230
1.0
 70
    24
 71
     3
 72
     8
 73
     4
 74
     0
 42
0.0000000001
 43
0.0000000001
 40
0.0
 40
0.0
 40
0.0
 40
0.0
 40
1.0
 40
1.0
 40
1.0
 40
1.0
 10
10.885
 20
-4.3279
 30
0.0
 10
10.885
 20
-4.3279
 30
0.0
 10
11.0668
 20
-3.2964
 30
0.0
 10
11.0668
 20
-3.2964
 30
0.0
  0
SPLINE
  5
7D
330
1F
100
AcDbEntity
  8
DEFAULT_1
 62
   250
100
AcDbSpline
210
0.0
220
0.0
230
1.0
 70
    24
 71
     3
 72
     8
 73
     4
 74
     0
 42
0.0000000001
 43
0.0000000001
 40
0.0
 40
0.0
 40
0.0
 40
0.0
 40
1.0
 40
1.0
 40
1.0
 40
1.0
 10
13.1116
 20
-16.4133
 30
0.0
 10
13.1116
 20
-16.4133
 30
0.0
 10
13.1116
 20
-30.3298
 30
0.0
 10
13.1116
 20
-30.3298
 30
0.0
  0
SPLINE
  5
7E
330
1F
100
AcDbEntity
  8
DEFAULT_1
 62
   250
100
AcDbSpline
210
0.0
220
0.0
230
1.0
 70
    24
 71
     3
 72
     8
 73
     4
 74
     0
 42
0.0000000001
 43
0.0000000001
 40
0.0
 40
0.0
 40
0.0
 40
0.0
 40
1.0
 40
1.0
 40
1.0
 40
1.0
 10
11.9287
 20
-14.6856
 30
0.0
 10
11.9287
 20
-14.6856
 30
0.0
 10
11.7327
 20
-16.9268
 30
0.0
 10
11.7327
 20
-16.9268
 30
0.0
  0
SPLINE
  5
7F
330
1F
100
AcDbEntity
  8
DEFAULT_1
 62
   250
100
AcDbSpline
210
0.0
220
0.0
230
1.0
 70
    24
 71
     3
 72
     8
 73
     4
 74
     0
 42
0.0000000001
 43
0.0000000001
 40
0.0
 40
0.0
 40
0.0
 40
0.0
 40
1.0
 40
1.0
 40
1.0
 40
1.0
 10
13.6683
 20
-15.3146
 30
0.0
 10
13.6683
 20
-15.3146
 30
0.0
 10
13.6683
 20
-31.4285
 30
0.0
 10
13.6683
 20
-31.4285
 30
0.0
  0
SPLINE
  5
80
330
1F
100
AcDbEntity
  8
DEFAULT_1
 62
   250
100
AcDbSpline
210
0.0
220
0.0
230
1.0
 70
    24
 71
     3
 72
     8
 73
     4
 74
     0
 42
0.0000000001
 43
0.0000000001
 40
0.0
 40
0.0
 40
0.0
 40
0.0
 40
1.0
 40
1.0
 40
1.0
 40
1.0
 10
14.5472
 20
-15.3359
 30
0.0
 10
14.5472
 20
-15.3359
 30
0.0
 10
14.5472
 20
-17.2752
 30
0.0
 10
14.5472
 20
-17.2752
 30
0.0
  0
SPLINE
  5
81
330
1F
100
AcDbEntity
  8
DEFAULT_1
 62
   250
100
AcDbSpline
210
0.0
220
0.0
230
1.0
 70
    24
 71
     3
 72
     8
 73
     4
 74
     0
 42
0.0000000001
 43
0.0000000001
 40
0.0
 40
0.0
 40
0.0
 40
0.0
 40
1.0
 40
1.0
 40
1.0
 40
1.0
 10
14.5472
 20
-18.1038
 30
0.0
 10
14.5472
 20
-18.1038
 30
0.0
 10
14.5472
 20
-22.7856
 30
0.0
 10
14.5472
 20
-22.7856
 30
0.0
  0
SPLINE
  5
82
330
1F
100
AcDbEntity
  8
DEFAULT_1
 62
   250
100
AcDbSpline
210
0.0
220
0.0
230
1.0
 70
    24
 71
     3
 72
     8
 73
     4
 74
     0
 42
0.0000000001
 43
0.0000000001
 40
0.0
 40
0.0
 40
0.0
 40
0.0
 40
1.0
 40
1.0
 40
1.0
 40
1.0
 10
14.5472
 20
-23.9575
 30
0.0
 10
14.5472
 20
-23.9575
 30
0.0
 10
14.5472
 20
-28.6392
 30
0.0
 10
14.5472
 20
-28.6392
 30
0.0
  0
SPLINE
  5
83
330
1F
100
AcDbEntity
  8
DEFAULT_1
 62
   250
100
AcDbSpline
210
0.0
220
0.0
230
1.0
 70
    24
 71
     3
 72
     8
 73
     4
 74
     0
 42
0.0000000001
 43
0.0000000001
 40
0.0
 40
0.0
 40
0.0
 40
0.0
 40
1.0
 40
1.0
 40
1.0
 40
1.0
 10
14.5472
 20
-29.4679
 30
0.0
 10
14.5472
 20
-29.4679
 30
0.0
 10
14.5472
 20
-31.4071
 30
0.0
 10
14.5472
 20
-31.4071
 30
0.0
  0
SPLINE
  5
84
330
1F
100
AcDbEntity
  8
DEFAULT_1
 62
   250
100
AcDbSpline
210
0.0
220
0.0
230
1.0
 70
    24
 71
     3
 72
     8
 73
     4
 74
     0
 42
0.0000000001
 43
0.0000000001
 40
0.0
 40
0.0
 40
0.0
 40
0.0
 40
1.0
 40
1.0
 40
1.0
 40
1.0
 10
15.1332
 20
-1.6911
 30
0.0
 10
15.1332
 20
-1.6911
 30
0.0
 10
15.1332
 20
-1.3981
 30
0.0
 10
15.1332
 20
-1.3981
 30
0.0
  0
SPLINE
  5
85
330
1F
100
AcDbEntity
  8
DEFAULT_1
 62
   250
100
AcDbSpline
210
0.0
220
0.0
230
1.0
 70
    24
 71
     3
 72
     8
 73
     4
 74
     0
 42
0.0000000001
 43
0.0000000001
 40
0.0
 40
0.0
 40
0.0
 40
0.0
 40
1.0
 40
1.0
 40
1.0
 40
1.0
 10
15.2796
 20
-10.334
 30
0.0
 10
15.2796
 20
-10.334
 30
0.0
 10
15.2796
 20
-8.4296
 30
0.0
 10
15.2796
 20
-8.4296
 30
0.0
  0
SPLINE
  5
86
330
1F
100
AcDbEntity
  8
DEFAULT_1
 62
   250
100
AcDbSpline
210
0.0
220
0.0
230
1.0
 70
    24
 71
     3
 72
     8
 73
     4
 74
     0
 42
0.0000000001
 43
0.0000000001
 40
0.0
 40
0.0
 40
0.0
 40
0.0
 40
1.0
 40
1.0
 40
1.0
 40
1.0
 10
15.2828
 20
25.7276
 30
0.0
 10
15.2828
 20
25.7276
 30
0.0
 10
15.2828
 20
25.5811
 30
0.0
 10
15.2828
 20
25.5811
 30
0.0
  0
SPLINE
  5
87
330
1F
100
AcDbEntity
  8
DEFAULT_1
 62
   250
100
AcDbSpline
210
0.0
220
0.0
230
1.0
 70
    24
 71
     3
 72
     8
 73
     4
 74
     0
 42
0.0000000001
 43
0.0000000001
 40
0.0
 40
0.0
 40
0.0
 40
0.0
 40
1.0
 40
1.0
 40
1.0
 40
1.0
 10
11.9252
 20
-14.6903
 30
0.0
 10
11.9252
 20
-14.6903
 30
0.0
 10
14.0777
 20
-11.8827
 30
0.0
 10
14.0777
 20
-11.8827
 30
0.0
  0
SPLINE
  5
88
330
1F
100
AcDbEntity
  8
DEFAULT_1
 62
   250
100
AcDbSpline
210
0.0
220
0.0
230
1.0
 70
    24
 71
     3
 72
     8
 73
     4
 74
     0
 42
0.0000000001
 43
0.0000000001
 40
0.0
 40
0.0
 40
0.0
 40
0.0
 40
1.0
 40
1.0
 40
1.0
 40
1.0
 10
15.7191
 20
-11.3594
 30
0.0
 10
15.7191
 20
-11.3594
 30
0.0
 10
15.7191
 20
-10.334
 30
0.0
 10
15.7191
 20
-10.334
 30
0.0
  0
SPLINE
  5
89
330
1F
100
AcDbEntity
  8
DEFAULT_1
 62
   250
100
AcDbSpline
210
0.0
220
0.0
230
1.0
 70
    24
 71
     3
 72
     8
 73
     4
 74
     0
 42
0.0000000001
 43
0.0000000001
 40
0.0
 40
0.0
 40
0.0
 40
0.0
 40
1.0
 40
1.0
 40
1.0
 40
1.0
 10
17.184
 20
-15.3146
 30
0.0
 10
17.184
 20
-15.3146
 30
0.0
 10
17.184
 20
-15.4611
 30
0.0
 10
17.184
 20
-15.4611
 30
0.0
  0
SPLINE
  5
8A
330
1F
100
AcDbEntity
  8
DEFAULT_1
 62
   250
100
AcDbSpline
210
0.0
220
0.0
230
1.0
 70
    24
 71
     3
 72
     8
 73
     4
 74
     0
 42
0.0000000001
 43
0.0000000001
 40
0.0
 40
0.0
 40
0.0
 40
0.0
 40
1.0
 40
1.0
 40
1.0
 40
1.0
 10
17.184
 20
-31.4285
 30
0.0
 10
17.184
 20
-31.4285
 30
0.0
 10
17.184
 20
-31.282
 30
0.0
 10
17.184
 20
-31.282
 30
0.0
  0
SPLINE
  5
8B
330
1F
100
AcDbEntity
  8
DEFAULT_1
 62
   250
100
AcDbSpline
210
0.0
220
0.0
230
1.0
 70
    24
 71
     3
 72
     8
 73
     4
 74
     0
 42
0.0000000001
 43
0.0000000001
 40
0.0
 40
0.0
 40
0.0
 40
0.0
 40
1.0
 40
1.0
 40
1.0
 40
1.0
 10
18.3559
 20
-30.696
 30
0.0
 10
18.3559
 20
-30.696
 30
0.0
 10
18.3559
 20
-16.047
 30
0.0
 10
18.3559
 20
-16.047
 30
0.0
  0
SPLINE
  5
8C
330
1F
100
AcDbEntity
  8
DEFAULT_1
 62
   250
100
AcDbSpline
210
0.0
220
0.0
230
1.0
 70
    24
 71
     3
 72
     8
 73
     4
 74
     0
 42
0.0000000001
 43
0.0000000001
 40
0.0
 40
0.0
 40
0.0
 40
0.0
 40
1.0
 40
1.0
 40
1.0
 40
1.0
 10
9.7312
 20
23.0907
 30
0.0
 10
9.7312
 20
23.0907
 30
0.0
 10
-12.8645
 20
23.0907
 30
0.0
 10
-12.8645
 20
23.0907
 30
0.0
  0
SPLINE
  5
8D
330
1F
100
AcDbEntity
  8
DEFAULT_1
 62
   250
100
AcDbSpline
210
0.0
220
0.0
230
1.0
 70
    24
 71
     3
 72
     8
 73
     4
 74
     0
 42
0.0000000001
 43
0.0000000001
 40
0.0
 40
0.0
 40
0.0
 40
0.0
 40
1.0
 40
1.0
 40
1.0
 40
1.0
 10
-13.1393
 20
24.1162
 30
0.0
 10
-13.1393
 20
24.1162
 30
0.0
 10
10.006
 20
24.1162
 30
0.0
 10
10.006
 20
24.1162
 30
0.0
  0
SPLINE
  5
8E
330
1F
100
AcDbEntity
  8
DEFAULT_1
 62
   250
100
AcDbSpline
210
0.0
220
0.0
230
1.0
 70
    24
 71
     3
 72
     8
 73
     4
 74
     0
 42
0.0000000001
 43
0.0000000001
 40
0.0
 40
0.0
 40
0.0
 40
0.0
 40
1.0
 40
1.0
 40
1.0
 40
1.0
 10
-13.1393
 20
25.2881
 30
0.0
 10
-13.1393
 20
25.2881
 30
0.0
 10
10.006
 20
25.2881
 30
0.0
 10
10.006
 20
25.2881
 30
0.0
  0
SPLINE
  5
8F
330
1F
100
AcDbEntity
  8
DEFAULT_1
 62
   250
100
AcDbSpline
210
0.0
220
0.0
230
1.0
 70
    24
 71
     3
 72
     8
 73
     4
 74
     0
 42
0.0000000001
 43
0.0000000001
 40
0.0
 40
0.0
 40
0.0
 40
0.0
 40
1.0
 40
1.0
 40
1.0
 40
1.0
 10
10.4565
 20
-32.0499
 30
0.0
 10
10.4565
 20
-32.0499
 30
0.0
 10
13.1116
 20
-29.9072
 30
0.0
 10
13.1116
 20
-29.9072
 30
0.0
  0
SPLINE
  5
90
330
1F
100
AcDbEntity
  8
DEFAULT_1
 62
   250
100
AcDbSpline
210
0.0
220
0.0
230
1.0
 70
    24
 71
     3
 72
     8
 73
     4
 74
     0
 42
0.0000000001
 43
0.0000000001
 40
0.0
 40
0.0
 40
0.0
 40
0.0
 40
1.0
 40
1.0
 40
1.0
 40
1.0
 10
15.2828
 20
25.5811
 30
0.0
 10
15.2828
 20
25.5811
 30
0.0
 10
-18.4161
 20
25.5811
 30
0.0
 10
-18.4161
 20
25.5811
 30
0.0
  0
SPLINE
  5
91
330
1F
100
AcDbEntity
  8
DEFAULT_1
 62
   250
100
AcDbSpline
210
0.0
220
0.0
230
1.0
 70
    24
 71
     3
 72
     8
 73
     4
 74
     0
 42
0.0000000001
 43
0.0000000001
 40
0.0
 40
0.0
 40
0.0
 40
0.0
 40
1.0
 40
1.0
 40
1.0
 40
1.0
 10
-18.1193
 20
25.7276
 30
0.0
 10
-18.1193
 20
25.7276
 30
0.0
 10
-18.4161
 20
25.7276
 30
0.0
 10
-18.4161
 20
25.7276
 30
0.0
  0
SPLINE
  5
92
330
1F
100
AcDbEntity
  8
DEFAULT_1
 62
   250
100
AcDbSpline
210
0.0
220
0.0
230
1.0
 70
    24
 71
     3
 72
     8
 73
     4
 74
     0
 42
0.0000000001
 43
0.0000000001
 40
0.0
 40
0.0
 40
0.0
 40
0.0
 40
1.0
 40
1.0
 40
1.0
 40
1.0
 10
12.6444
 20
26.2763
 30
0.0
 10
12.6444
 20
26.2763
 30
0.0
 10
-15.7777
 20
26.2763
 30
0.0
 10
-15.7777
 20
26.2763
 30
0.0
  0
SPLINE
  5
93
330
1F
100
AcDbEntity
  8
DEFAULT_1
 62
   250
100
AcDbSpline
210
0.0
220
0.0
230
1.0
 70
     8
 71
     3
 72
     8
 73
     4
 74
     0
 42
0.0000000001
 43
0.0000000001
 40
0.0
 40
0.0
 40
0.0
 40
0.0
 40
1.0
 40
1.0
 40
1.0
 40
1.0
 10
10.3646
 20
25.595
 30
0.0
 10
10.1803
 20
25.5035
 30
0.0
 10
10.0017
 20
25.4011
 30
0.0
 10
9.8298
 20
25.2881
 30
0.0
  0
SPLINE
  5
94
330
1F
100
AcDbEntity
  8
DEFAULT_1
 62
   250
100
AcDbSpline
210
0.0
220
0.0
230
1.0
 70
     8
 71
     3
 72
     8
 73
     4
 74
     0
 42
0.0000000001
 43
0.0000000001
 40
0.0
 40
0.0
 40
0.0
 40
0.0
 40
1.0
 40
1.0
 40
1.0
 40
1.0
 10
-12.963
 20
25.2881
 30
0.0
 10
-13.135
 20
25.4011
 30
0.0
 10
-13.3136
 20
25.5035
 30
0.0
 10
-13.4979
 20
25.595
 30
0.0
  0
SPLINE
  5
95
330
1F
100
AcDbEntity
  8
DEFAULT_1
 62
   250
100
AcDbSpline
210
0.0
220
0.0
230
1.0
 70
     8
 71
     3
 72
     8
 73
     4
 74
     0
 42
0.0000000001
 43
0.0000000001
 40
0.0
 40
0.0
 40
0.0
 40
0.0
 40
1.0
 40
1.0
 40
1.0
 40
1.0
 10
14.9867
 20
25.7276
 30
0.0
 10
14.2586
 20
26.0885
 30
0.0
 10
13.457
 20
26.2763
 30
0.0
 10
12.6444
 20
26.2763
 30
0.0
  0
SPLINE
  5
96
330
1F
100
AcDbEntity
  8
DEFAULT_1
 62
   250
100
AcDbSpline
210
0.0
220
0.0
230
1.0
 70
     8
 71
     3
 72
     8
 73
     4
 74
     0
 42
0.0000000001
 43
0.0000000001
 40
0.0
 40
0.0
 40
0.0
 40
0.0
 40
1.0
 40
1.0
 40
1.0
 40
1.0
 10
-15.7777
 20
26.2763
 30
0.0
 10
-16.5903
 20
26.2763
 30
0.0
 10
-17.3919
 20
26.0885
 30
0.0
 10
-18.1199
 20
25.7276
 30
0.0
  0
SPLINE
  5
97
330
1F
100
AcDbEntity
  8
DEFAULT_1
 62
   250
100
AcDbSpline
210
0.0
220
0.0
230
1.0
 70
     8
 71
     3
 72
    12
 73
     8
 74
     0
 42
0.0000000001
 43
0.0000000001
 40
0.0
 40
0.0
 40
0.0
 40
0.0
 40
0.3333333333333333
 40
0.3333333333333333
 40
0.3333333333333333
 40
0.3333333333333333
 40
1.0
 40
1.0
 40
1.0
 40
1.0
 10
16.5981
 20
-23.9575
 30
0.0
 10
16.9217
 20
-23.9575
 30
0.0
 10
17.184
 20
-23.6951
 30
0.0
 10
17.184
 20
-23.3715
 30
0.0
 10
17.184
 20
-23.3715
 30
0.0
 10
17.184
 20
-23.0479
 30
0.0
 10
16.9217
 20
-22.7856
 30
0.0
 10
16.5981
 20
-22.7856
 30
0.0
  0
SPLINE
  5
98
330
1F
100
AcDbEntity
  8
DEFAULT_1
 62
   250
100
AcDbSpline
210
0.0
220
0.0
230
1.0
 70
     8
 71
     3
 72
     8
 73
     4
 74
     0
 42
0.0000000001
 43
0.0000000001
 40
0.0
 40
0.0
 40
0.0
 40
0.0
 40
1.0
 40
1.0
 40
1.0
 40
1.0
 10
17.77
 20
-31.282
 30
0.0
 10
18.0936
 20
-31.282
 30
0.0
 10
18.3559
 20
-31.0196
 30
0.0
 10
18.3559
 20
-30.696
 30
0.0
  0
SPLINE
  5
99
330
1F
100
AcDbEntity
  8
DEFAULT_1
 62
   250
100
AcDbSpline
210
0.0
220
0.0
230
1.0
 70
     8
 71
     3
 72
     8
 73
     4
 74
     0
 42
0.0000000001
 43
0.0000000001
 40
0.0
 40
0.0
 40
0.0
 40
0.0
 40
1.0
 40
1.0
 40
1.0
 40
1.0
 10
18.3559
 20
-16.047
 30
0.0
 10
18.3559
 20
-15.7234
 30
0.0
 10
18.0936
 20
-15.4611
 30
0.0
 10
17.77
 20
-15.4611
 30
0.0
  0
SPLINE
  5
9A
330
1F
100
AcDbEntity
  8
DEFAULT_1
 62
   250
100
AcDbSpline
210
0.0
220
0.0
230
1.0
 70
     8
 71
     3
 72
     8
 73
     4
 74
     0
 42
0.0000000001
 43
0.0000000001
 40
0.0
 40
0.0
 40
0.0
 40
0.0
 40
1.0
 40
1.0
 40
1.0
 40
1.0
 10
-14.2001
 20
-3.2964
 30
0.0
 10
-14.2742
 20
-2.8763
 30
0.0
 10
-14.6392
 20
-2.57
 30
0.0
 10
-15.0657
 20
-2.57
 30
0.0
  0
SPLINE
  5
9B
330
1F
100
AcDbEntity
  8
DEFAULT_1
 62
   250
100
AcDbSpline
210
0.0
220
0.0
230
1.0
 70
     8
 71
     3
 72
     8
 73
     4
 74
     0
 42
0.0000000001
 43
0.0000000001
 40
0.0
 40
0.0
 40
0.0
 40
0.0
 40
1.0
 40
1.0
 40
1.0
 40
1.0
 10
11.9324
 20
-2.57
 30
0.0
 10
11.5059
 20
-2.57
 30
0.0
 10
11.1409
 20
-2.8763
 30
0.0
 10
11.0668
 20
-3.2964
 30
0.0
  0
SPLINE
  5
9C
330
1F
100
AcDbEntity
  8
DEFAULT_1
 62
   250
100
AcDbSpline
210
0.0
220
0.0
230
1.0
 70
     8
 71
     3
 72
     8
 73
     4
 74
     0
 42
0.0000000001
 43
0.0000000001
 40
0.0
 40
0.0
 40
0.0
 40
0.0
 40
1.0
 40
1.0
 40
1.0
 40
1.0
 10
-18.8524
 20
-11.3594
 30
0.0
 10
-18.8524
 20
-11.5212
 30
0.0
 10
-18.7212
 20
-11.6524
 30
0.0
 10
-18.5594
 20
-11.6524
 30
0.0
  0
SPLINE
  5
9D
330
1F
100
AcDbEntity
  8
DEFAULT_1
 62
   250
100
AcDbSpline
210
0.0
220
0.0
230
1.0
 70
     8
 71
     3
 72
     8
 73
     4
 74
     0
 42
0.0000000001
 43
0.0000000001
 40
0.0
 40
0.0
 40
0.0
 40
0.0
 40
1.0
 40
1.0
 40
1.0
 40
1.0
 10
15.4261
 20
-11.6524
 30
0.0
 10
15.5879
 20
-11.6524
 30
0.0
 10
15.7191
 20
-11.5212
 30
0.0
 10
15.7191
 20
-11.3594
 30
0.0
  0
SPLINE
  5
9E
330
1F
100
AcDbEntity
  8
DEFAULT_1
 62
   250
100
AcDbSpline
210
0.0
220
0.0
230
1.0
 70
     8
 71
     3
 72
     8
 73
     4
 74
     0
 42
0.0000000001
 43
0.0000000001
 40
0.0
 40
0.0
 40
0.0
 40
0.0
 40
1.0
 40
1.0
 40
1.0
 40
1.0
 10
-14.7507
 20
-29.6196
 30
0.0
 10
-14.7507
 20
-31.3467
 30
0.0
 10
-13.3506
 20
-32.7469
 30
0.0
 10
-11.6234
 20
-32.7469
 30
0.0
  0
SPLINE
  5
9F
330
1F
100
AcDbEntity
  8
DEFAULT_1
 62
   250
100
AcDbSpline
210
0.0
220
0.0
230
1.0
 70
     8
 71
     3
 72
     8
 73
     4
 74
     0
 42
0.0000000001
 43
0.0000000001
 40
0.0
 40
0.0
 40
0.0
 40
0.0
 40
1.0
 40
1.0
 40
1.0
 40
1.0
 10
8.4901
 20
-32.7469
 30
0.0
 10
9.2052
 20
-32.7469
 30
0.0
 10
9.8986
 20
-32.5018
 30
0.0
 10
10.4549
 20
-32.0526
 30
0.0
  0
SPLINE
  5
A0
330
1F
100
AcDbEntity
  8
DEFAULT_1
 62
   250
100
AcDbSpline
210
0.0
220
0.0
230
1.0
 70
     8
 71
     3
 72
    28
 73
    24
 74
     0
 42
0.0000000001
 43
0.0000000001
 40
0.0
 40
0.0
 40
0.0
 40
0.0
 40
0.1428571428571428
 40
0.1428571428571428
 40
0.1428571428571428
 40
0.1428571428571428
 40
0.2857142857142857
 40
0.2857142857142857
 40
0.2857142857142857
 40
0.2857142857142857
 40
0.4285714285714285
 40
0.4285714285714285
 40
0.4285714285714285
 40
0.4285714285714285
 40
0.5714285714285714
 40
0.5714285714285714
 40
0.5714285714285714
 40
0.5714285714285714
 40
0.7142857142857143
 40
0.7142857142857143
 40
0.7142857142857143
 40
0.7142857142857143
 40
1.0
 40
1.0
 40
1.0
 40
1.0
 10
17.184
 20
-17.6744
 30
0.0
 10
17.184
 20
-17.6744
 30
0.0
 10
17.1641
 20
-17.5683
 30
0.0
 10
17.1641
 20
-17.5683
 30
0.0
 10
17.1641
 20
-17.5683
 30
0.0
 10
17.1641
 20
-17.5683
 30
0.0
 10
17.1056
 20
-17.4711
 30
0.0
 10
17.1056
 20
-17.4711
 30
0.0
 10
17.1056
 20
-17.4711
 30
0.0
 10
17.1056
 20
-17.4711
 30
0.0
 10
17.0124
 20
-17.389
 30
0.0
 10
17.0124
 20
-17.389
 30
0.0
 10
17.0124
 20
-17.389
 30
0.0
 10
17.0124
 20
-17.389
 30
0.0
 10
16.8909
 20
-17.3269
 30
0.0
 10
16.8909
 20
-17.3269
 30
0.0
 10
16.8909
 20
-17.3269
 30
0.0
 10
16.8909
 20
-17.3269
 30
0.0
 10
16.7495
 20
-17.2883
 30
0.0
 10
16.7495
 20
-17.2883
 30
0.0
 10
16.7495
 20
-17.2883
 30
0.0
 10
16.7495
 20
-17.2883
 30
0.0
 10
16.5981
 20
-17.2752
 30
0.0
 10
16.5981
 20
-17.2752
 30
0.0
  0
SPLINE
  5
A1
330
1F
100
AcDbEntity
  8
DEFAULT_1
 62
   250
100
AcDbSpline
210
0.0
220
0.0
230
1.0
 70
     8
 71
     3
 72
    28
 73
    24
 74
     0
 42
0.0000000001
 43
0.0000000001
 40
0.0
 40
0.0
 40
0.0
 40
0.0
 40
0.1428571428571428
 40
0.1428571428571428
 40
0.1428571428571428
 40
0.1428571428571428
 40
0.2857142857142857
 40
0.2857142857142857
 40
0.2857142857142857
 40
0.2857142857142857
 40
0.4285714285714285
 40
0.4285714285714285
 40
0.4285714285714285
 40
0.4285714285714285
 40
0.5714285714285714
 40
0.5714285714285714
 40
0.5714285714285714
 40
0.5714285714285714
 40
0.7142857142857143
 40
0.7142857142857143
 40
0.7142857142857143
 40
0.7142857142857143
 40
1.0
 40
1.0
 40
1.0
 40
1.0
 10
17.184
 20
-29.0686
 30
0.0
 10
17.184
 20
-29.0686
 30
0.0
 10
17.1641
 20
-29.1747
 30
0.0
 10
17.1641
 20
-29.1747
 30
0.0
 10
17.1641
 20
-29.1747
 30
0.0
 10
17.1641
 20
-29.1747
 30
0.0
 10
17.1056
 20
-29.2719
 30
0.0
 10
17.1056
 20
-29.2719
 30
0.0
 10
17.1056
 20
-29.2719
 30
0.0
 10
17.1056
 20
-29.2719
 30
0.0
 10
17.0124
 20
-29.3541
 30
0.0
 10
17.0124
 20
-29.3541
 30
0.0
 10
17.0124
 20
-29.3541
 30
0.0
 10
17.0124
 20
-29.3541
 30
0.0
 10
16.8909
 20
-29.4162
 30
0.0
 10
16.8909
 20
-29.4162
 30
0.0
 10
16.8909
 20
-29.4162
 30
0.0
 10
16.8909
 20
-29.4162
 30
0.0
 10
16.7495
 20
-29.4548
 30
0.0
 10
16.7495
 20
-29.4548
 30
0.0
 10
16.7495
 20
-29.4548
 30
0.0
 10
16.7495
 20
-29.4548
 30
0.0
 10
16.5981
 20
-29.4679
 30
0.0
 10
16.5981
 20
-29.4679
 30
0.0
  0
SPLINE
  5
A2
330
1F
100
AcDbEntity
  8
DEFAULT_1
 62
   250
100
AcDbSpline
210
0.0
220
0.0
230
1.0
 70
     8
 71
     3
 72
    32
 73
    28
 74
     0
 42
0.0000000001
 43
0.0000000001
 40
0.0
 40
0.0
 40
0.0
 40
0.0
 40
0.125
 40
0.125
 40
0.125
 40
0.125
 40
0.25
 40
0.25
 40
0.25
 40
0.25
 40
0.375
 40
0.375
 40
0.375
 40
0.375
 40
0.5
 40
0.5
 40
0.5
 40
0.5
 40
0.625
 40
0.625
 40
0.625
 40
0.625
 40
0.75
 40
0.75
 40
0.75
 40
0.75
 40
1.0
 40
1.0
 40
1.0
 40
1.0
 10
16.5981
 20
-15.4828
 30
0.0
 10
16.5981
 20
-15.4828
 30
0.0
 10
16.7277
 20
-15.4818
 30
0.0
 10
16.7277
 20
-15.4818
 30
0.0
 10
16.7277
 20
-15.4818
 30
0.0
 10
16.7277
 20
-15.4818
 30
0.0
 10
16.8533
 20
-15.4787
 30
0.0
 10
16.8533
 20
-15.4787
 30
0.0
 10
16.8533
 20
-15.4787
 30
0.0
 10
16.8533
 20
-15.4787
 30
0.0
 10
16.9644
 20
-15.4743
 30
0.0
 10
16.9644
 20
-15.4743
 30
0.0
 10
16.9644
 20
-15.4743
 30
0.0
 10
16.9644
 20
-15.4743
 30
0.0
 10
17.0557
 20
-15.4696
 30
0.0
 10
17.0557
 20
-15.4696
 30
0.0
 10
17.0557
 20
-15.4696
 30
0.0
 10
17.0557
 20
-15.4696
 30
0.0
 10
17.1262
 20
-15.4652
 30
0.0
 10
17.1262
 20
-15.4652
 30
0.0
 10
17.1262
 20
-15.4652
 30
0.0
 10
17.1262
 20
-15.4652
 30
0.0
 10
17.1698
 20
-15.4621
 30
0.0
 10
17.1698
 20
-15.4621
 30
0.0
 10
17.1698
 20
-15.4621
 30
0.0
 10
17.1698
 20
-15.4621
 30
0.0
 10
17.184
 20
-15.4611
 30
0.0
 10
17.184
 20
-15.4611
 30
0.0
  0
SPLINE
  5
A3
330
1F
100
AcDbEntity
  8
DEFAULT_1
 62
   250
100
AcDbSpline
210
0.0
220
0.0
230
1.0
 70
     8
 71
     3
 72
    28
 73
    24
 74
     0
 42
0.0000000001
 43
0.0000000001
 40
0.0
 40
0.0
 40
0.0
 40
0.0
 40
0.1428571428571428
 40
0.1428571428571428
 40
0.1428571428571428
 40
0.1428571428571428
 40
0.2857142857142857
 40
0.2857142857142857
 40
0.2857142857142857
 40
0.2857142857142857
 40
0.4285714285714285
 40
0.4285714285714285
 40
0.4285714285714285
 40
0.4285714285714285
 40
0.5714285714285714
 40
0.5714285714285714
 40
0.5714285714285714
 40
0.5714285714285714
 40
0.7142857142857143
 40
0.7142857142857143
 40
0.7142857142857143
 40
0.7142857142857143
 40
1.0
 40
1.0
 40
1.0
 40
1.0
 10
16.5981
 20
-28.6392
 30
0.0
 10
16.5981
 20
-28.6392
 30
0.0
 10
16.7495
 20
-28.6543
 30
0.0
 10
16.7495
 20
-28.6543
 30
0.0
 10
16.7495
 20
-28.6543
 30
0.0
 10
16.7495
 20
-28.6543
 30
0.0
 10
16.8909
 20
-28.6984
 30
0.0
 10
16.8909
 20
-28.6984
 30
0.0
 10
16.8909
 20
-28.6984
 30
0.0
 10
16.8909
 20
-28.6984
 30
0.0
 10
17.0124
 20
-28.7681
 30
0.0
 10
17.0124
 20
-28.7681
 30
0.0
 10
17.0124
 20
-28.7681
 30
0.0
 10
17.0124
 20
-28.7681
 30
0.0
 10
17.1056
 20
-28.8578
 30
0.0
 10
17.1056
 20
-28.8578
 30
0.0
 10
17.1056
 20
-28.8578
 30
0.0
 10
17.1056
 20
-28.8578
 30
0.0
 10
17.1641
 20
-28.9605
 30
0.0
 10
17.1641
 20
-28.9605
 30
0.0
 10
17.1641
 20
-28.9605
 30
0.0
 10
17.1641
 20
-28.9605
 30
0.0
 10
17.184
 20
-29.0686
 30
0.0
 10
17.184
 20
-29.0686
 30
0.0
  0
SPLINE
  5
A4
330
1F
100
AcDbEntity
  8
DEFAULT_1
 62
   250
100
AcDbSpline
210
0.0
220
0.0
230
1.0
 70
     8
 71
     3
 72
    32
 73
    28
 74
     0
 42
0.0000000001
 43
0.0000000001
 40
0.0
 40
0.0
 40
0.0
 40
0.0
 40
0.125
 40
0.125
 40
0.125
 40
0.125
 40
0.25
 40
0.25
 40
0.25
 40
0.25
 40
0.375
 40
0.375
 40
0.375
 40
0.375
 40
0.5
 40
0.5
 40
0.5
 40
0.5
 40
0.625
 40
0.625
 40
0.625
 40
0.625
 40
0.75
 40
0.75
 40
0.75
 40
0.75
 40
1.0
 40
1.0
 40
1.0
 40
1.0
 10
17.184
 20
-31.282
 30
0.0
 10
17.184
 20
-31.282
 30
0.0
 10
17.1697
 20
-31.2809
 30
0.0
 10
17.1697
 20
-31.2809
 30
0.0
 10
17.1697
 20
-31.2809
 30
0.0
 10
17.1697
 20
-31.2809
 30
0.0
 10
17.126
 20
-31.2779
 30
0.0
 10
17.126
 20
-31.2779
 30
0.0
 10
17.126
 20
-31.2779
 30
0.0
 10
17.126
 20
-31.2779
 30
0.0
 10
17.0556
 20
-31.2735
 30
0.0
 10
17.0556
 20
-31.2735
 30
0.0
 10
17.0556
 20
-31.2735
 30
0.0
 10
17.0556
 20
-31.2735
 30
0.0
 10
16.9644
 20
-31.2687
 30
0.0
 10
16.9644
 20
-31.2687
 30
0.0
 10
16.9644
 20
-31.2687
 30
0.0
 10
16.9644
 20
-31.2687
 30
0.0
 10
16.853
 20
-31.2643
 30
0.0
 10
16.853
 20
-31.2643
 30
0.0
 10
16.853
 20
-31.2643
 30
0.0
 10
16.853
 20
-31.2643
 30
0.0
 10
16.7274
 20
-31.2613
 30
0.0
 10
16.7274
 20
-31.2613
 30
0.0
 10
16.7274
 20
-31.2613
 30
0.0
 10
16.7274
 20
-31.2613
 30
0.0
 10
16.5981
 20
-31.2602
 30
0.0
 10
16.5981
 20
-31.2602
 30
0.0
  0
SPLINE
  5
A5
330
1F
100
AcDbEntity
  8
DEFAULT_1
 62
   250
100
AcDbSpline
210
0.0
220
0.0
230
1.0
 70
     8
 71
     3
 72
    28
 73
    24
 74
     0
 42
0.0000000001
 43
0.0000000001
 40
0.0
 40
0.0
 40
0.0
 40
0.0
 40
0.1428571428571428
 40
0.1428571428571428
 40
0.1428571428571428
 40
0.1428571428571428
 40
0.2857142857142857
 40
0.2857142857142857
 40
0.2857142857142857
 40
0.2857142857142857
 40
0.4285714285714285
 40
0.4285714285714285
 40
0.4285714285714285
 40
0.4285714285714285
 40
0.5714285714285714
 40
0.5714285714285714
 40
0.5714285714285714
 40
0.5714285714285714
 40
0.7142857142857143
 40
0.7142857142857143
 40
0.7142857142857143
 40
0.7142857142857143
 40
1.0
 40
1.0
 40
1.0
 40
1.0
 10
16.5981
 20
-18.1038
 30
0.0
 10
16.5981
 20
-18.1038
 30
0.0
 10
16.7495
 20
-18.0887
 30
0.0
 10
16.7495
 20
-18.0887
 30
0.0
 10
16.7495
 20
-18.0887
 30
0.0
 10
16.7495
 20
-18.0887
 30
0.0
 10
16.8909
 20
-18.0446
 30
0.0
 10
16.8909
 20
-18.0446
 30
0.0
 10
16.8909
 20
-18.0446
 30
0.0
 10
16.8909
 20
-18.0446
 30
0.0
 10
17.0124
 20
-17.9749
 30
0.0
 10
17.0124
 20
-17.9749
 30
0.0
 10
17.0124
 20
-17.9749
 30
0.0
 10
17.0124
 20
-17.9749
 30
0.0
 10
17.1056
 20
-17.8852
 30
0.0
 10
17.1056
 20
-17.8852
 30
0.0
 10
17.1056
 20
-17.8852
 30
0.0
 10
17.1056
 20
-17.8852
 30
0.0
 10
17.1641
 20
-17.7825
 30
0.0
 10
17.1641
 20
-17.7825
 30
0.0
 10
17.1641
 20
-17.7825
 30
0.0
 10
17.1641
 20
-17.7825
 30
0.0
 10
17.184
 20
-17.6744
 30
0.0
 10
17.184
 20
-17.6744
 30
0.0
  0
SPLINE
  5
A6
330
1F
100
AcDbEntity
  8
DEFAULT_1
 62
   250
100
AcDbSpline
210
0.0
220
0.0
230
1.0
 70
     8
 71
     3
 72
    16
 73
    12
 74
     0
 42
0.0000000001
 43
0.0000000001
 40
0.0
 40
0.0
 40
0.0
 40
0.0
 40
0.25
 40
0.25
 40
0.25
 40
0.25
 40
0.5
 40
0.5
 40
0.5
 40
0.5
 40
1.0
 40
1.0
 40
1.0
 40
1.0
 10
11.522
 20
-29.6196
 30
0.0
 10
11.522
 20
-29.6196
 30
0.0
 10
11.5647
 20
-29.7113
 30
0.0
 10
11.5647
 20
-29.7113
 30
0.0
 10
11.5647
 20
-29.7113
 30
0.0
 10
11.5647
 20
-29.7113
 30
0.0
 10
11.5932
 20
-29.7754
 30
0.0
 10
11.5932
 20
-29.7754
 30
0.0
 10
11.5932
 20
-29.7754
 30
0.0
 10
11.5932
 20
-29.7754
 30
0.0
 10
11.6083
 20
-29.8104
 30
0.0
 10
11.6083
 20
-29.8104
 30
0.0
  0
SPLINE
  5
A7
330
1F
100
AcDbEntity
  8
DEFAULT_1
 62
   250
100
AcDbSpline
210
0.0
220
0.0
230
1.0
 70
     8
 71
     3
 72
    24
 73
    20
 74
     0
 42
0.0000000001
 43
0.0000000001
 40
0.0
 40
0.0
 40
0.0
 40
0.0
 40
0.1666666666666667
 40
0.1666666666666667
 40
0.1666666666666667
 40
0.1666666666666667
 40
0.3333333333333333
 40
0.3333333333333333
 40
0.3333333333333333
 40
0.3333333333333333
 40
0.5
 40
0.5
 40
0.5
 40
0.5
 40
0.6666666666666666
 40
0.6666666666666666
 40
0.6666666666666666
 40
0.6666666666666666
 40
1.0
 40
1.0
 40
1.0
 40
1.0
 10
12.8053
 20
-12.107
 30
0.0
 10
12.8053
 20
-12.107
 30
0.0
 10
12.5884
 20
-12.1751
 30
0.0
 10
12.5884
 20
-12.1751
 30
0.0
 10
12.5884
 20
-12.1751
 30
0.0
 10
12.5884
 20
-12.1751
 30
0.0
 10
12.3926
 20
-12.2995
 30
0.0
 10
12.3926
 20
-12.2995
 30
0.0
 10
12.3926
 20
-12.2995
 30
0.0
 10
12.3926
 20
-12.2995
 30
0.0
 10
12.2381
 20
-12.4681
 30
0.0
 10
12.2381
 20
-12.4681
 30
0.0
 10
12.2381
 20
-12.4681
 30
0.0
 10
12.2381
 20
-12.4681
 30
0.0
 10
12.1311
 20
-12.674
 30
0.0
 10
12.1311
 20
-12.674
 30
0.0
 10
12.1311
 20
-12.674
 30
0.0
 10
12.1311
 20
-12.674
 30
0.0
 10
12.0822
 20
-12.896
 30
0.0
 10
12.0822
 20
-12.896
 30
0.0
  0
SPLINE
  5
A8
330
1F
100
AcDbEntity
  8
DEFAULT_1
 62
   250
100
AcDbSpline
210
0.0
220
0.0
230
1.0
 70
     8
 71
     3
 72
    24
 73
    20
 74
     0
 42
0.0000000001
 43
0.0000000001
 40
0.0
 40
0.0
 40
0.0
 40
0.0
 40
0.1666666666666667
 40
0.1666666666666667
 40
0.1666666666666667
 40
0.1666666666666667
 40
0.3333333333333333
 40
0.3333333333333333
 40
0.3333333333333333
 40
0.3333333333333333
 40
0.5
 40
0.5
 40
0.5
 40
0.5
 40
0.6666666666666666
 40
0.6666666666666666
 40
0.6666666666666666
 40
0.6666666666666666
 40
1.0
 40
1.0
 40
1.0
 40
1.0
 10
-15.2155
 20
-12.896
 30
0.0
 10
-15.2155
 20
-12.896
 30
0.0
 10
-15.2644
 20
-12.674
 30
0.0
 10
-15.2644
 20
-12.674
 30
0.0
 10
-15.2644
 20
-12.674
 30
0.0
 10
-15.2644
 20
-12.674
 30
0.0
 10
-15.3714
 20
-12.4681
 30
0.0
 10
-15.3714
 20
-12.4681
 30
0.0
 10
-15.3714
 20
-12.4681
 30
0.0
 10
-15.3714
 20
-12.4681
 30
0.0
 10
-15.5259
 20
-12.2995
 30
0.0
 10
-15.5259
 20
-12.2995
 30
0.0
 10
-15.5259
 20
-12.2995
 30
0.0
 10
-15.5259
 20
-12.2995
 30
0.0
 10
-15.7217
 20
-12.1751
 30
0.0
 10
-15.7217
 20
-12.1751
 30
0.0
 10
-15.7217
 20
-12.1751
 30
0.0
 10
-15.7217
 20
-12.1751
 30
0.0
 10
-15.9386
 20
-12.107
 30
0.0
 10
-15.9386
 20
-12.107
 30
0.0
  0
SPLINE
  5
A9
330
1F
100
AcDbEntity
  8
DEFAULT_1
 62
   250
100
AcDbSpline
210
0.0
220
0.0
230
1.0
 70
     8
 71
     3
 72
    20
 73
    16
 74
     0
 42
0.0000000001
 43
0.0000000001
 40
0.0
 40
0.0
 40
0.0
 40
0.0
 40
0.2
 40
0.2
 40
0.2
 40
0.2
 40
0.4
 40
0.4
 40
0.4
 40
0.4
 40
0.6
 40
0.6
 40
0.6
 40
0.6
 40
1.0
 40
1.0
 40
1.0
 40
1.0
 10
11.0255
 20
-18.2444
 30
0.0
 10
11.0255
 20
-18.2444
 30
0.0
 10
11.2863
 20
-17.7368
 30
0.0
 10
11.2863
 20
-17.7368
 30
0.0
 10
11.2863
 20
-17.7368
 30
0.0
 10
11.2863
 20
-17.7368
 30
0.0
 10
11.4973
 20
-17.3455
 30
0.0
 10
11.4973
 20
-17.3455
 30
0.0
 10
11.4973
 20
-17.3455
 30
0.0
 10
11.4973
 20
-17.3455
 30
0.0
 10
11.6459
 20
-17.0789
 30
0.0
 10
11.6459
 20
-17.0789
 30
0.0
 10
11.6459
 20
-17.0789
 30
0.0
 10
11.6459
 20
-17.0789
 30
0.0
 10
11.7231
 20
-16.9429
 30
0.0
 10
11.7231
 20
-16.9429
 30
0.0
  0
SPLINE
  5
AA
330
1F
100
AcDbEntity
  8
DEFAULT_1
 62
   250
100
AcDbSpline
210
0.0
220
0.0
230
1.0
 70
     8
 71
     3
 72
    72
 73
    68
 74
     0
 42
0.0000000001
 43
0.0000000001
 40
0.0
 40
0.0
 40
0.0
 40
0.0
 40
0.0555555555555556
 40
0.0555555555555556
 40
0.0555555555555556
 40
0.0555555555555556
 40
0.1111111111111111
 40
0.1111111111111111
 40
0.1111111111111111
 40
0.1111111111111111
 40
0.1666666666666667
 40
0.1666666666666667
 40
0.1666666666666667
 40
0.1666666666666667
 40
0.2222222222222222
 40
0.2222222222222222
 40
0.2222222222222222
 40
0.2222222222222222
 40
0.2777777777777778
 40
0.2777777777777778
 40
0.2777777777777778
 40
0.2777777777777778
 40
0.3333333333333333
 40
0.3333333333333333
 40
0.3333333333333333
 40
0.3333333333333333
 40
0.3888888888888889
 40
0.3888888888888889
 40
0.3888888888888889
 40
0.3888888888888889
 40
0.4444444444444444
 40
0.4444444444444444
 40
0.4444444444444444
 40
0.4444444444444444
 40
0.5
 40
0.5
 40
0.5
 40
0.5
 40
0.5555555555555556
 40
0.5555555555555556
 40
0.5555555555555556
 40
0.5555555555555556
 40
0.6111111111111112
 40
0.6111111111111112
 40
0.6111111111111112
 40
0.6111111111111112
 40
0.6666666666666666
 40
0.6666666666666666
 40
0.6666666666666666
 40
0.6666666666666666
 40
0.7222222222222222
 40
0.7222222222222222
 40
0.7222222222222222
 40
0.7222222222222222
 40
0.7777777777777778
 40
0.7777777777777778
 40
0.7777777777777778
 40
0.7777777777777778
 40
0.8333333333333334
 40
0.8333333333333334
 40
0.8333333333333334
 40
0.8333333333333334
 40
0.8888888888888888
 40
0.8888888888888888
 40
0.8888888888888888
 40
0.8888888888888888
 40
1.0
 40
1.0
 40
1.0
 40
1.0
 10
11.0255
 20
-18.2444
 30
0.0
 10
11.0255
 20
-18.2444
 30
0.0
 10
10.7754
 20
-18.8935
 30
0.0
 10
10.7754
 20
-18.8935
 30
0.0
 10
10.7754
 20
-18.8935
 30
0.0
 10
10.7754
 20
-18.8935
 30
0.0
 10
10.5197
 20
-19.6558
 30
0.0
 10
10.5197
 20
-19.6558
 30
0.0
 10
10.5197
 20
-19.6558
 30
0.0
 10
10.5197
 20
-19.6558
 30
0.0
 10
10.2855
 20
-20.5082
 30
0.0
 10
10.2855
 20
-20.5082
 30
0.0
 10
10.2855
 20
-20.5082
 30
0.0
 10
10.2855
 20
-20.5082
 30
0.0
 10
10.1001
 20
-21.4122
 30
0.0
 10
10.1001
 20
-21.4122
 30
0.0
 10
10.1001
 20
-21.4122
 30
0.0
 10
10.1001
 20
-21.4122
 30
0.0
 10
9.9813
 20
-22.3318
 30
0.0
 10
9.9813
 20
-22.3318
 30
0.0
 10
9.9813
 20
-22.3318
 30
0.0
 10
9.9813
 20
-22.3318
 30
0.0
 10
9.9349
 20
-23.2615
 30
0.0
 10
9.9349
 20
-23.2615
 30
0.0
 10
9.9349
 20
-23.2615
 30
0.0
 10
9.9349
 20
-23.2615
 30
0.0
 10
9.9642
 20
-24.1995
 30
0.0
 10
9.9642
 20
-24.1995
 30
0.0
 10
9.9642
 20
-24.1995
 30
0.0
 10
9.9642
 20
-24.1995
 30
0.0
 10
10.0666
 20
-25.1204
 30
0.0
 10
10.0666
 20
-25.1204
 30
0.0
 10
10.0666
 20
-25.1204
 30
0.0
 10
10.0666
 20
-25.1204
 30
0.0
 10
10.2274
 20
-25.9838
 30
0.0
 10
10.2274
 20
-25.9838
 30
0.0
 10
10.2274
 20
-25.9838
 30
0.0
 10
10.2274
 20
-25.9838
 30
0.0
 10
10.4223
 20
-26.7568
 30
0.0
 10
10.4223
 20
-26.7568
 30
0.0
 10
10.4223
 20
-26.7568
 30
0.0
 10
10.4223
 20
-26.7568
 30
0.0
 10
10.6228
 20
-27.41
 30
0.0
 10
10.6228
 20
-27.41
 30
0.0
 10
10.6228
 20
-27.41
 30
0.0
 10
10.6228
 20
-27.41
 30
0.0
 10
10.8124
 20
-27.9505
 30
0.0
 10
10.8124
 20
-27.9505
 30
0.0
 10
10.8124
 20
-27.9505
 30
0.0
 10
10.8124
 20
-27.9505
 30
0.0
 10
10.988
 20
-28.4059
 30
0.0
 10
10.988
 20
-28.4059
 30
0.0
 10
10.988
 20
-28.4059
 30
0.0
 10
10.988
 20
-28.4059
 30
0.0
 10
11.151
 20
-28.7996
 30
0.0
 10
11.151
 20
-28.7996
 30
0.0
 10
11.151
 20
-28.7996
 30
0.0
 10
11.151
 20
-28.7996
 30
0.0
 10
11.2988
 20
-29.1375
 30
0.0
 10
11.2988
 20
-29.1375
 30
0.0
 10
11.2988
 20
-29.1375
 30
0.0
 10
11.2988
 20
-29.1375
 30
0.0
 10
11.4247
 20
-29.4133
 30
0.0
 10
11.4247
 20
-29.4133
 30
0.0
 10
11.4247
 20
-29.4133
 30
0.0
 10
11.4247
 20
-29.4133
 30
0.0
 10
11.522
 20
-29.6196
 30
0.0
 10
11.522
 20
-29.6196
 30
0.0
  0
SPLINE
  5
AB
330
1F
100
AcDbEntity
  8
DEFAULT_1
 62
   250
100
AcDbSpline
210
0.0
220
0.0
230
1.0
 70
     8
 71
     3
 72
    12
 73
     8
 74
     0
 42
0.0000000001
 43
0.0000000001
 40
0.0
 40
0.0
 40
0.0
 40
0.0
 40
0.3333333333333333
 40
0.3333333333333333
 40
0.3333333333333333
 40
0.3333333333333333
 40
1.0
 40
1.0
 40
1.0
 40
1.0
 10
-1.2736
 20
-11.8819
 30
0.0
 10
-1.2736
 20
-11.8819
 30
0.0
 10
-1.4201
 20
-11.8823
 30
0.0
 10
-1.4201
 20
-11.8823
 30
0.0
 10
-1.4201
 20
-11.8823
 30
0.0
 10
-1.4201
 20
-11.8823
 30
0.0
 10
-1.5666
 20
-11.8825
 30
0.0
 10
-1.5666
 20
-11.8825
 30
0.0
  0
SPLINE
  5
AC
330
1F
100
AcDbEntity
  8
DEFAULT_1
 62
   250
100
AcDbSpline
210
0.0
220
0.0
230
1.0
 70
     8
 71
     3
 72
    12
 73
     8
 74
     0
 42
0.0000000001
 43
0.0000000001
 40
0.0
 40
0.0
 40
0.0
 40
0.0
 40
0.3333333333333333
 40
0.3333333333333333
 40
0.3333333333333333
 40
0.3333333333333333
 40
1.0
 40
1.0
 40
1.0
 40
1.0
 10
-1.5666
 20
-11.8825
 30
0.0
 10
-1.5666
 20
-11.8825
 30
0.0
 10
-1.7131
 20
-11.8823
 30
0.0
 10
-1.7131
 20
-11.8823
 30
0.0
 10
-1.7131
 20
-11.8823
 30
0.0
 10
-1.7131
 20
-11.8823
 30
0.0
 10
-1.8596
 20
-11.8819
 30
0.0
 10
-1.8596
 20
-11.8819
 30
0.0
  0
SPLINE
  5
AD
330
1F
100
AcDbEntity
  8
DEFAULT_1
 62
   250
100
AcDbSpline
210
0.0
220
0.0
230
1.0
 70
     8
 71
     3
 72
    12
 73
     8
 74
     0
 42
0.0000000001
 43
0.0000000001
 40
0.0
 40
0.0
 40
0.0
 40
0.0
 40
0.3333333333333333
 40
0.3333333333333333
 40
0.3333333333333333
 40
0.3333333333333333
 40
1.0
 40
1.0
 40
1.0
 40
1.0
 10
-1.5666
 20
-14.7619
 30
0.0
 10
-1.5666
 20
-14.7619
 30
0.0
 10
-1.7131
 20
-14.7631
 30
0.0
 10
-1.7131
 20
-14.7631
 30
0.0
 10
-1.7131
 20
-14.7631
 30
0.0
 10
-1.7131
 20
-14.7631
 30
0.0
 10
-1.8596
 20
-14.7667
 30
0.0
 10
-1.8596
 20
-14.7667
 30
0.0
  0
SPLINE
  5
AE
330
1F
100
AcDbEntity
  8
DEFAULT_1
 62
   250
100
AcDbSpline
210
0.0
220
0.0
230
1.0
 70
     8
 71
     3
 72
    12
 73
     8
 74
     0
 42
0.0000000001
 43
0.0000000001
 40
0.0
 40
0.0
 40
0.0
 40
0.0
 40
0.3333333333333333
 40
0.3333333333333333
 40
0.3333333333333333
 40
0.3333333333333333
 40
1.0
 40
1.0
 40
1.0
 40
1.0
 10
-1.2736
 20
-14.7667
 30
0.0
 10
-1.2736
 20
-14.7667
 30
0.0
 10
-1.4202
 20
-14.7631
 30
0.0
 10
-1.4202
 20
-14.7631
 30
0.0
 10
-1.4202
 20
-14.7631
 30
0.0
 10
-1.4202
 20
-14.7631
 30
0.0
 10
-1.5666
 20
-14.7619
 30
0.0
 10
-1.5666
 20
-14.7619
 30
0.0
  0
SPLINE
  5
AF
330
1F
100
AcDbEntity
  8
DEFAULT_1
 62
   250
100
AcDbSpline
210
0.0
220
0.0
230
1.0
 70
     8
 71
     3
 72
    16
 73
    12
 74
     0
 42
0.0000000001
 43
0.0000000001
 40
0.0
 40
0.0
 40
0.0
 40
0.0
 40
0.25
 40
0.25
 40
0.25
 40
0.25
 40
0.5
 40
0.5
 40
0.5
 40
0.5
 40
1.0
 40
1.0
 40
1.0
 40
1.0
 10
12.0822
 20
-12.896
 30
0.0
 10
12.0822
 20
-12.896
 30
0.0
 10
12.0298
 20
-13.4945
 30
0.0
 10
12.0298
 20
-13.4945
 30
0.0
 10
12.0298
 20
-13.4945
 30
0.0
 10
12.0298
 20
-13.4945
 30
0.0
 10
11.9775
 20
-14.0926
 30
0.0
 10
11.9775
 20
-14.0926
 30
0.0
 10
11.9775
 20
-14.0926
 30
0.0
 10
11.9775
 20
-14.0926
 30
0.0
 10
11.9252
 20
-14.6903
 30
0.0
 10
11.9252
 20
-14.6903
 30
0.0
  0
SPLINE
  5
B0
330
1F
100
AcDbEntity
  8
DEFAULT_1
 62
   250
100
AcDbSpline
210
0.0
220
0.0
230
1.0
 70
     8
 71
     3
 72
    12
 73
     8
 74
     0
 42
0.0000000001
 43
0.0000000001
 40
0.0
 40
0.0
 40
0.0
 40
0.0
 40
0.3333333333333333
 40
0.3333333333333333
 40
0.3333333333333333
 40
0.3333333333333333
 40
1.0
 40
1.0
 40
1.0
 40
1.0
 10
14.0777
 20
-11.8827
 30
0.0
 10
14.0777
 20
-11.8827
 30
0.0
 10
13.4391
 20
-11.9953
 30
0.0
 10
13.4391
 20
-11.9953
 30
0.0
 10
13.4391
 20
-11.9953
 30
0.0
 10
13.4391
 20
-11.9953
 30
0.0
 10
12.8053
 20
-12.107
 30
0.0
 10
12.8053
 20
-12.107
 30
0.0
  0
SPLINE
  5
B1
330
1F
100
AcDbEntity
  8
DEFAULT_1
 62
   250
100
AcDbSpline
210
0.0
220
0.0
230
1.0
 70
     8
 71
     3
 72
    12
 73
     8
 74
     0
 42
0.0000000001
 43
0.0000000001
 40
0.0
 40
0.0
 40
0.0
 40
0.0
 40
0.3333333333333333
 40
0.3333333333333333
 40
0.3333333333333333
 40
0.3333333333333333
 40
1.0
 40
1.0
 40
1.0
 40
1.0
 10
-15.9386
 20
-12.107
 30
0.0
 10
-15.9386
 20
-12.107
 30
0.0
 10
-16.5723
 20
-11.9953
 30
0.0
 10
-16.5723
 20
-11.9953
 30
0.0
 10
-16.5723
 20
-11.9953
 30
0.0
 10
-16.5723
 20
-11.9953
 30
0.0
 10
-17.2109
 20
-11.8827
 30
0.0
 10
-17.2109
 20
-11.8827
 30
0.0
  0
SPLINE
  5
B2
330
1F
100
AcDbEntity
  8
DEFAULT_1
 62
   250
100
AcDbSpline
210
0.0
220
0.0
230
1.0
 70
     8
 71
     3
 72
    36
 73
    32
 74
     0
 42
0.0000000001
 43
0.0000000001
 40
0.0
 40
0.0
 40
0.0
 40
0.0
 40
0.1111111111111111
 40
0.1111111111111111
 40
0.1111111111111111
 40
0.1111111111111111
 40
0.2222222222222222
 40
0.2222222222222222
 40
0.2222222222222222
 40
0.2222222222222222
 40
0.3333333333333333
 40
0.3333333333333333
 40
0.3333333333333333
 40
0.3333333333333333
 40
0.4444444444444444
 40
0.4444444444444444
 40
0.4444444444444444
 40
0.4444444444444444
 40
0.5555555555555556
 40
0.5555555555555556
 40
0.5555555555555556
 40
0.5555555555555556
 40
0.6666666666666666
 40
0.6666666666666666
 40
0.6666666666666666
 40
0.6666666666666666
 40
0.7777777777777778
 40
0.7777777777777778
 40
0.7777777777777778
 40
0.7777777777777778
 40
1.0
 40
1.0
 40
1.0
 40
1.0
 10
11.6083
 20
-29.8104
 30
0.0
 10
11.6083
 20
-29.8104
 30
0.0
 10
11.5641
 20
-30.1766
 30
0.0
 10
11.5641
 20
-30.1766
 30
0.0
 10
11.5641
 20
-30.1766
 30
0.0
 10
11.5641
 20
-30.1766
 30
0.0
 10
11.4848
 20
-30.5096
 30
0.0
 10
11.4848
 20
-30.5096
 30
0.0
 10
11.4848
 20
-30.5096
 30
0.0
 10
11.4848
 20
-30.5096
 30
0.0
 10
11.3764
 20
-30.8155
 30
0.0
 10
11.3764
 20
-30.8155
 30
0.0
 10
11.3764
 20
-30.8155
 30
0.0
 10
11.3764
 20
-30.8155
 30
0.0
 10
11.2418
 20
-31.0993
 30
0.0
 10
11.2418
 20
-31.0993
 30
0.0
 10
11.2418
 20
-31.0993
 30
0.0
 10
11.2418
 20
-31.0993
 30
0.0
 10
11.0815
 20
-31.3651
 30
0.0
 10
11.0815
 20
-31.3651
 30
0.0
 10
11.0815
 20
-31.3651
 30
0.0
 10
11.0815
 20
-31.3651
 30
0.0
 10
10.8961
 20
-31.6132
 30
0.0
 10
10.8961
 20
-31.6132
 30
0.0
 10
10.8961
 20
-31.6132
 30
0.0
 10
10.8961
 20
-31.6132
 30
0.0
 10
10.6871
 20
-31.8417
 30
0.0
 10
10.6871
 20
-31.8417
 30
0.0
 10
10.6871
 20
-31.8417
 30
0.0
 10
10.6871
 20
-31.8417
 30
0.0
 10
10.4565
 20
-32.0499
 30
0.0
 10
10.4565
 20
-32.0499
 30
0.0
  0
SPLINE
  5
B3
330
1F
100
AcDbEntity
  8
DEFAULT_1
 62
   250
100
AcDbSpline
210
0.0
220
0.0
230
1.0
 70
     8
 71
     3
 72
    16
 73
    12
 74
     0
 42
0.0000000001
 43
0.0000000001
 40
0.0
 40
0.0
 40
0.0
 40
0.0
 40
0.25
 40
0.25
 40
0.25
 40
0.25
 40
0.5
 40
0.5
 40
0.5
 40
0.5
 40
1.0
 40
1.0
 40
1.0
 40
1.0
 10
-15.0585
 20
-14.6903
 30
0.0
 10
-15.0585
 20
-14.6903
 30
0.0
 10
-15.1108
 20
-14.0926
 30
0.0
 10
-15.1108
 20
-14.0926
 30
0.0
 10
-15.1108
 20
-14.0926
 30
0.0
 10
-15.1108
 20
-14.0926
 30
0.0
 10
-15.1631
 20
-13.4945
 30
0.0
 10
-15.1631
 20
-13.4945
 30
0.0
 10
-15.1631
 20
-13.4945
 30
0.0
 10
-15.1631
 20
-13.4945
 30
0.0
 10
-15.2155
 20
-12.896
 30
0.0
 10
-15.2155
 20
-12.896
 30
0.0
  0
SPLINE
  5
B4
330
1F
100
AcDbEntity
  8
DEFAULT_1
  6
NEW_LINE1
 62
   250
100
AcDbSpline
210
0.0
220
0.0
230
1.0
 70
    24
 71
     3
 72
     8
 73
     4
 74
     0
 42
0.0000000001
 43
0.0000000001
 40
0.0
 40
0.0
 40
0.0
 40
0.0
 40
1.0
 40
1.0
 40
1.0
 40
1.0
 10
7.7576
 20
-23.3715
 30
0.0
 10
7.7576
 20
-23.3715
 30
0.0
 10
19.3259
 20
-23.3715
 30
0.0
 10
19.3259
 20
-23.3715
 30
0.0
  0
SPLINE
  5
B6
330
1F
100
AcDbEntity
  8
DEFAULT_1
  6
NEW_LINE2
 62
   250
100
AcDbSpline
210
0.0
220
0.0
230
1.0
 70
    24
 71
     3
 72
     8
 73
     4
 74
     0
 42
0.0000000001
 43
0.0000000001
 40
0.0
 40
0.0
 40
0.0
 40
0.0
 40
1.0
 40
1.0
 40
1.0
 40
1.0
 10
-1.5666
 20
27.0825
 30
0.0
 10
-1.5666
 20
27.0825
 30
0.0
 10
-1.5666
 20
-33.637
 30
0.0
 10
-1.5666
 20
-33.637
 30
0.0
  0
SPLINE
  5
B8
330
1F
100
AcDbEntity
  8
DEFAULT_1
 62
   250
100
AcDbSpline
210
0.0
220
0.0
230
1.0
 70
    24
 71
     3
 72
     8
 73
     4
 74
     0
 42
0.0000000001
 43
0.0000000001
 40
0.0
 40
0.0
 40
0.0
 40
0.0
 40
1.0
 40
1.0
 40
1.0
 40
1.0
 10
-23.3852
 20
-9.1156
 30
0.0
 10
-23.3852
 20
-9.1156
 30
0.0
 10
-23.3852
 20
-32.1339
 30
0.0
 10
-23.3852
 20
-32.1339
 30
0.0
  0
SPLINE
  5
B9
330
1F
100
AcDbEntity
  8
DEFAULT_1
 62
   250
100
AcDbSpline
210
0.0
220
0.0
230
1.0
 70
    24
 71
     3
 72
     8
 73
     4
 74
     0
 42
0.0000000001
 43
0.0000000001
 40
0.0
 40
0.0
 40
0.0
 40
0.0
 40
1.0
 40
1.0
 40
1.0
 40
1.0
 10
10.6123
 20
0.5561
 30
0.0
 10
10.6123
 20
0.5561
 30
0.0
 10
-12.3752
 20
0.5561
 30
0.0
 10
-12.3752
 20
0.5561
 30
0.0
  0
SPLINE
  5
BA
330
1F
100
AcDbEntity
  8
DEFAULT_1
 62
   250
100
AcDbSpline
210
0.0
220
0.0
230
1.0
 70
    11
 71
     3
 72
    84
 73
    80
 74
     0
 42
0.0000000001
 43
0.0000000001
 40
0.0
 40
0.0
 40
0.0
 40
0.0
 40
0.0476190476190476
 40
0.0476190476190476
 40
0.0476190476190476
 40
0.0476190476190476
 40
0.0952380952380952
 40
0.0952380952380952
 40
0.0952380952380952
 40
0.0952380952380952
 40
0.1428571428571428
 40
0.1428571428571428
 40
0.1428571428571428
 40
0.1428571428571428
 40
0.1904761904761905
 40
0.1904761904761905
 40
0.1904761904761905
 40
0.1904761904761905
 40
0.2380952380952381
 40
0.2380952380952381
 40
0.2380952380952381
 40
0.2380952380952381
 40
0.2857142857142857
 40
0.2857142857142857
 40
0.2857142857142857
 40
0.2857142857142857
 40
0.3333333333333333
 40
0.3333333333333333
 40
0.3333333333333333
 40
0.3333333333333333
 40
0.3809523809523809
 40
0.3809523809523809
 40
0.3809523809523809
 40
0.3809523809523809
 40
0.4285714285714285
 40
0.4285714285714285
 40
0.4285714285714285
 40
0.4285714285714285
 40
0.4761904761904762
 40
0.4761904761904762
 40
0.4761904761904762
 40
0.4761904761904762
 40
0.5238095238095238
 40
0.5238095238095238
 40
0.5238095238095238
 40
0.5238095238095238
 40
0.5714285714285714
 40
0.5714285714285714
 40
0.5714285714285714
 40
0.5714285714285714
 40
0.6190476190476191
 40
0.6190476190476191
 40
0.6190476190476191
 40
0.6190476190476191
 40
0.6666666666666666
 40
0.6666666666666666
 40
0.6666666666666666
 40
0.6666666666666666
 40
0.7142857142857143
 40
0.7142857142857143
 40
0.7142857142857143
 40
0.7142857142857143
 40
0.7619047619047619
 40
0.7619047619047619
 40
0.7619047619047619
 40
0.7619047619047619
 40
0.8095238095238095
 40
0.8095238095238095
 40
0.8095238095238095
 40
0.8095238095238095
 40
0.8571428571428571
 40
0.8571428571428571
 40
0.8571428571428571
 40
0.8571428571428571
 40
0.9047619047619048
 40
0.9047619047619048
 40
0.9047619047619048
 40
0.9047619047619048
 40
1.0
 40
1.0
 40
1.0
 40
1.0
 10
-1.9584
 20
2.8979
 30
0.0
 10
-1.9584
 20
2.8979
 30
0.0
 10
-1.727
 20
3.157
 30
0.0
 10
-1.727
 20
3.157
 30
0.0
 10
-1.727
 20
3.157
 30
0.0
 10
-1.727
 20
3.157
 30
0.0
 10
-1.5906
 20
3.0413
 30
0.0
 10
-1.5906
 20
3.0413
 30
0.0
 10
-1.5906
 20
3.0413
 30
0.0
 10
-1.5906
 20
3.0413
 30
0.0
 10
-1.8328
 20
2.7685
 30
0.0
 10
-1.8328
 20
2.7685
 30
0.0
 10
-1.8328
 20
2.7685
 30
0.0
 10
-1.7538
 20
2.6509
 30
0.0
 10
-1.7007
 20
2.5479
 30
0.0
 10
-1.6729
 20
2.46
 30
0.0
 10
-1.6729
 20
2.46
 30
0.0
 10
-1.6362
 20
2.3442
 30
0.0
 10
-1.6179
 20
2.2144
 30
0.0
 10
-1.6179
 20
2.0714
 30
0.0
 10
-1.6179
 20
2.0714
 30
0.0
 10
-1.6179
 20
1.8645
 30
0.0
 10
-1.6597
 20
1.6801
 30
0.0
 10
-1.7435
 20
1.5188
 30
0.0
 10
-1.7435
 20
1.5188
 30
0.0
 10
-1.8272
 20
1.3569
 30
0.0
 10
-1.9443
 20
1.2347
 30
0.0
 10
-2.0953
 20
1.1519
 30
0.0
 10
-2.0953
 20
1.1519
 30
0.0
 10
-2.2468
 20
1.0696
 30
0.0
 10
-2.4071
 20
1.0282
 30
0.0
 10
-2.5769
 20
1.0282
 30
0.0
 10
-2.5769
 20
1.0282
 30
0.0
 10
-2.7039
 20
1.0282
 30
0.0
 10
-2.8187
 20
1.046
 30
0.0
 10
-2.9217
 20
1.0818
 30
0.0
 10
-2.9217
 20
1.0818
 30
0.0
 10
-3.0007
 20
1.1095
 30
0.0
 10
-3.0929
 20
1.1622
 30
0.0
 10
-3.1988
 20
1.2403
 30
0.0
 10
-3.1988
 20
1.2403
 30
0.0
 10
-3.1988
 20
1.2403
 30
0.0
 10
-3.4302
 20
0.9811
 30
0.0
 10
-3.4302
 20
0.9811
 30
0.0
 10
-3.4302
 20
0.9811
 30
0.0
 10
-3.4302
 20
0.9811
 30
0.0
 10
-3.5666
 20
1.0968
 30
0.0
 10
-3.5666
 20
1.0968
 30
0.0
 10
-3.5666
 20
1.0968
 30
0.0
 10
-3.5666
 20
1.0968
 30
0.0
 10
-3.3239
 20
1.3682
 30
0.0
 10
-3.3239
 20
1.3682
 30
0.0
 10
-3.3239
 20
1.3682
 30
0.0
 10
-3.4142
 20
1.5051
 30
0.0
 10
-3.4744
 20
1.6222
 30
0.0
 10
-3.5045
 20
1.7191
 30
0.0
 10
-3.5045
 20
1.7191
 30
0.0
 10
-3.5346
 20
1.816
 30
0.0
 10
-3.5501
 20
1.9327
 30
0.0
 10
-3.5501
 20
2.0686
 30
0.0
 10
-3.5501
 20
2.0686
 30
0.0
 10
-3.5501
 20
2.276
 30
0.0
 10
-3.5087
 20
2.4609
 30
0.0
 10
-3.426
 20
2.6232
 30
0.0
 10
-3.426
 20
2.6232
 30
0.0
 10
-3.3432
 20
2.7855
 30
0.0
 10
-3.2275
 20
2.9082
 30
0.0
 10
-3.0779
 20
2.9919
 30
0.0
 10
-3.0779
 20
2.9919
 30
0.0
 10
-2.9288
 20
3.0752
 30
0.0
 10
-2.7627
 20
3.1171
 30
0.0
 10
-2.5798
 20
3.1171
 30
0.0
 10
-2.5798
 20
3.1171
 30
0.0
 10
-2.4565
 20
3.1171
 30
0.0
 10
-2.3488
 20
3.1011
 30
0.0
 10
-2.2566
 20
3.0681
 30
0.0
 10
-2.2566
 20
3.0681
 30
0.0
 10
-2.1644
 20
3.0357
 30
0.0
 10
-2.0647
 20
2.9788
 30
0.0
 10
-1.9584
 20
2.8979
 30
0.0
  0
SPLINE
  5
BB
330
1F
100
AcDbEntity
  8
DEFAULT_1
 62
   250
100
AcDbSpline
210
0.0
220
0.0
230
1.0
 70
    11
 71
     3
 72
    32
 73
    28
 74
     0
 42
0.0000000001
 43
0.0000000001
 40
0.0
 40
0.0
 40
0.0
 40
0.0
 40
0.125
 40
0.125
 40
0.125
 40
0.125
 40
0.25
 40
0.25
 40
0.25
 40
0.25
 40
0.375
 40
0.375
 40
0.375
 40
0.375
 40
0.5
 40
0.5
 40
0.5
 40
0.5
 40
0.625
 40
0.625
 40
0.625
 40
0.625
 40
0.75
 40
0.75
 40
0.75
 40
0.75
 40
1.0
 40
1.0
 40
1.0
 40
1.0
 10
-2.1235
 20
2.7121
 30
0.0
 10
-2.2101
 20
2.7798
 30
0.0
 10
-2.2858
 20
2.8264
 30
0.0
 10
-2.3502
 20
2.8513
 30
0.0
 10
-2.3502
 20
2.8513
 30
0.0
 10
-2.4151
 20
2.8758
 30
0.0
 10
-2.4913
 20
2.8885
 30
0.0
 10
-2.5784
 20
2.8885
 30
0.0
 10
-2.5784
 20
2.8885
 30
0.0
 10
-2.7797
 20
2.8885
 30
0.0
 10
-2.9457
 20
2.8203
 30
0.0
 10
-3.0774
 20
2.6839
 30
0.0
 10
-3.0774
 20
2.6839
 30
0.0
 10
-3.2087
 20
2.5474
 30
0.0
 10
-3.2745
 20
2.3438
 30
0.0
 10
-3.2745
 20
2.0724
 30
0.0
 10
-3.2745
 20
2.0724
 30
0.0
 10
-3.2745
 20
1.9661
 30
0.0
 10
-3.2642
 20
1.8715
 30
0.0
 10
-3.2439
 20
1.7887
 30
0.0
 10
-3.2439
 20
1.7887
 30
0.0
 10
-3.2293
 20
1.7271
 30
0.0
 10
-3.1988
 20
1.6514
 30
0.0
 10
-3.1517
 20
1.5616
 30
0.0
 10
-3.1517
 20
1.5616
 30
0.0
 10
-3.1517
 20
1.5616
 30
0.0
 10
-2.1235
 20
2.7121
 30
0.0
 10
-2.1235
 20
2.7121
 30
0.0
  0
SPLINE
  5
BC
330
1F
100
AcDbEntity
  8
DEFAULT_1
 62
   250
100
AcDbSpline
210
0.0
220
0.0
230
1.0
 70
    11
 71
     3
 72
    28
 73
    24
 74
     0
 42
0.0000000001
 43
0.0000000001
 40
0.0
 40
0.0
 40
0.0
 40
0.0
 40
0.1428571428571428
 40
0.1428571428571428
 40
0.1428571428571428
 40
0.1428571428571428
 40
0.2857142857142857
 40
0.2857142857142857
 40
0.2857142857142857
 40
0.2857142857142857
 40
0.4285714285714285
 40
0.4285714285714285
 40
0.4285714285714285
 40
0.4285714285714285
 40
0.5714285714285714
 40
0.5714285714285714
 40
0.5714285714285714
 40
0.5714285714285714
 40
0.7142857142857143
 40
0.7142857142857143
 40
0.7142857142857143
 40
0.7142857142857143
 40
1.0
 40
1.0
 40
1.0
 40
1.0
 10
-2.0106
 20
2.57
 30
0.0
 10
-2.0106
 20
2.57
 30
0.0
 10
-3.0346
 20
1.4237
 30
0.0
 10
-3.0346
 20
1.4237
 30
0.0
 10
-3.0346
 20
1.4237
 30
0.0
 10
-2.9641
 20
1.3659
 30
0.0
 10
-2.8987
 20
1.3254
 30
0.0
 10
-2.8389
 20
1.3024
 30
0.0
 10
-2.8389
 20
1.3024
 30
0.0
 10
-2.7609
 20
1.2718
 30
0.0
 10
-2.6762
 20
1.2568
 30
0.0
 10
-2.5854
 20
1.2568
 30
0.0
 10
-2.5854
 20
1.2568
 30
0.0
 10
-2.385
 20
1.2568
 30
0.0
 10
-2.2199
 20
1.3273
 30
0.0
 10
-2.0892
 20
1.4689
 30
0.0
 10
-2.0892
 20
1.4689
 30
0.0
 10
-1.9589
 20
1.6105
 30
0.0
 10
-1.8935
 20
1.809
 30
0.0
 10
-1.8935
 20
2.0644
 30
0.0
 10
-1.8935
 20
2.0644
 30
0.0
 10
-1.8935
 20
2.2553
 30
0.0
 10
-1.9325
 20
2.4242
 30
0.0
 10
-2.0106
 20
2.57
 30
0.0
  0
SPLINE
  5
BD
330
1F
100
AcDbEntity
  8
DEFAULT_1
 62
   250
100
AcDbSpline
210
0.0
220
0.0
230
1.0
 70
    11
 71
     3
 72
    68
 73
    64
 74
     0
 42
0.0000000001
 43
0.0000000001
 40
0.0
 40
0.0
 40
0.0
 40
0.0
 40
0.0588235294117647
 40
0.0588235294117647
 40
0.0588235294117647
 40
0.0588235294117647
 40
0.1176470588235294
 40
0.1176470588235294
 40
0.1176470588235294
 40
0.1176470588235294
 40
0.1764705882352941
 40
0.1764705882352941
 40
0.1764705882352941
 40
0.1764705882352941
 40
0.2352941176470588
 40
0.2352941176470588
 40
0.2352941176470588
 40
0.2352941176470588
 40
0.2941176470588235
 40
0.2941176470588235
 40
0.2941176470588235
 40
0.2941176470588235
 40
0.3529411764705883
 40
0.3529411764705883
 40
0.3529411764705883
 40
0.3529411764705883
 40
0.4117647058823529
 40
0.4117647058823529
 40
0.4117647058823529
 40
0.4117647058823529
 40
0.4705882352941176
 40
0.4705882352941176
 40
0.4705882352941176
 40
0.4705882352941176
 40
0.5294117647058824
 40
0.5294117647058824
 40
0.5294117647058824
 40
0.5294117647058824
 40
0.5882352941176471
 40
0.5882352941176471
 40
0.5882352941176471
 40
0.5882352941176471
 40
0.6470588235294118
 40
0.6470588235294118
 40
0.6470588235294118
 40
0.6470588235294118
 40
0.7058823529411765
 40
0.7058823529411765
 40
0.7058823529411765
 40
0.7058823529411765
 40
0.7647058823529411
 40
0.7647058823529411
 40
0.7647058823529411
 40
0.7647058823529411
 40
0.8235294117647058
 40
0.8235294117647058
 40
0.8235294117647058
 40
0.8235294117647058
 40
0.8823529411764706
 40
0.8823529411764706
 40
0.8823529411764706
 40
0.8823529411764706
 40
1.0
 40
1.0
 40
1.0
 40
1.0
 10
-0.9866
 20
2.158
 30
0.0
 10
-1.0897
 20
2.1956
 30
0.0
 10
-1.1659
 20
2.2492
 30
0.0
 10
-1.2157
 20
2.3193
 30
0.0
 10
-1.2157
 20
2.3193
 30
0.0
 10
-1.2651
 20
2.3889
 30
0.0
 10
-1.29
 20
2.4727
 30
0.0
 10
-1.29
 20
2.57
 30
0.0
 10
-1.29
 20
2.57
 30
0.0
 10
-1.29
 20
2.7172
 30
0.0
 10
-1.2373
 20
2.8405
 30
0.0
 10
-1.1315
 20
2.9407
 30
0.0
 10
-1.1315
 20
2.9407
 30
0.0
 10
-1.0257
 20
3.0409
 30
0.0
 10
-0.8855
 20
3.0912
 30
0.0
 10
-0.7101
 20
3.0912
 30
0.0
 10
-0.7101
 20
3.0912
 30
0.0
 10
-0.5337
 20
3.0912
 30
0.0
 10
-0.3916
 20
3.0399
 30
0.0
 10
-0.2839
 20
2.9374
 30
0.0
 10
-0.2839
 20
2.9374
 30
0.0
 10
-0.1767
 20
2.8348
 30
0.0
 10
-0.123
 20
2.7102
 30
0.0
 10
-0.123
 20
2.563
 30
0.0
 10
-0.123
 20
2.563
 30
0.0
 10
-0.123
 20
2.4694
 30
0.0
 10
-0.1475
 20
2.388
 30
0.0
 10
-0.1964
 20
2.3184
 30
0.0
 10
-0.1964
 20
2.3184
 30
0.0
 10
-0.2458
 20
2.2492
 30
0.0
 10
-0.3201
 20
2.1956
 30
0.0
 10
-0.4203
 20
2.158
 30
0.0
 10
-0.4203
 20
2.158
 30
0.0
 10
-0.2966
 20
2.1175
 30
0.0
 10
-0.2021
 20
2.0526
 30
0.0
 10
-0.1372
 20
1.9623
 30
0.0
 10
-0.1372
 20
1.9623
 30
0.0
 10
-0.0727
 20
1.8725
 30
0.0
 10
-0.0403
 20
1.7648
 30
0.0
 10
-0.0403
 20
1.6401
 30
0.0
 10
-0.0403
 20
1.6401
 30
0.0
 10
-0.0403
 20
1.467
 30
0.0
 10
-0.1014
 20
1.3221
 30
0.0
 10
-0.2232
 20
1.2046
 30
0.0
 10
-0.2232
 20
1.2046
 30
0.0
 10
-0.3455
 20
1.087
 30
0.0
 10
-0.5064
 20
1.0282
 30
0.0
 10
-0.7058
 20
1.0282
 30
0.0
 10
-0.7058
 20
1.0282
 30
0.0
 10
-0.9053
 20
1.0282
 30
0.0
 10
-1.0657
 20
1.087
 30
0.0
 10
-1.188
 20
1.205
 30
0.0
 10
-1.188
 20
1.205
 30
0.0
 10
-1.3103
 20
1.3231
 30
0.0
 10
-1.3714
 20
1.4703
 30
0.0
 10
-1.3714
 20
1.6467
 30
0.0
 10
-1.3714
 20
1.6467
 30
0.0
 10
-1.3714
 20
1.7779
 30
0.0
 10
-1.338
 20
1.888
 30
0.0
 10
-1.2712
 20
1.9769
 30
0.0
 10
-1.2712
 20
1.9769
 30
0.0
 10
-1.2049
 20
2.0653
 30
0.0
 10
-1.1099
 20
2.126
 30
0.0
 10
-0.9866
 20
2.158
 30
0.0
  0
SPLINE
  5
BE
330
1F
100
AcDbEntity
  8
DEFAULT_1
 62
   250
100
AcDbSpline
210
0.0
220
0.0
230
1.0
 70
    11
 71
     3
 72
    36
 73
    32
 74
     0
 42
0.0000000001
 43
0.0000000001
 40
0.0
 40
0.0
 40
0.0
 40
0.0
 40
0.1111111111111111
 40
0.1111111111111111
 40
0.1111111111111111
 40
0.1111111111111111
 40
0.2222222222222222
 40
0.2222222222222222
 40
0.2222222222222222
 40
0.2222222222222222
 40
0.3333333333333333
 40
0.3333333333333333
 40
0.3333333333333333
 40
0.3333333333333333
 40
0.4444444444444444
 40
0.4444444444444444
 40
0.4444444444444444
 40
0.4444444444444444
 40
0.5555555555555556
 40
0.5555555555555556
 40
0.5555555555555556
 40
0.5555555555555556
 40
0.6666666666666666
 40
0.6666666666666666
 40
0.6666666666666666
 40
0.6666666666666666
 40
0.7777777777777778
 40
0.7777777777777778
 40
0.7777777777777778
 40
0.7777777777777778
 40
1.0
 40
1.0
 40
1.0
 40
1.0
 10
-1.0365
 20
2.5785
 30
0.0
 10
-1.0365
 20
2.483
 30
0.0
 10
-1.0055
 20
2.4049
 30
0.0
 10
-0.9443
 20
2.3442
 30
0.0
 10
-0.9443
 20
2.3442
 30
0.0
 10
-0.8827
 20
2.2836
 30
0.0
 10
-0.8027
 20
2.253
 30
0.0
 10
-0.7044
 20
2.253
 30
0.0
 10
-0.7044
 20
2.253
 30
0.0
 10
-0.6089
 20
2.253
 30
0.0
 10
-0.5304
 20
2.2831
 30
0.0
 10
-0.4692
 20
2.3433
 30
0.0
 10
-0.4692
 20
2.3433
 30
0.0
 10
-0.4081
 20
2.4035
 30
0.0
 10
-0.378
 20
2.4774
 30
0.0
 10
-0.378
 20
2.5644
 30
0.0
 10
-0.378
 20
2.5644
 30
0.0
 10
-0.378
 20
2.6556
 30
0.0
 10
-0.409
 20
2.7318
 30
0.0
 10
-0.4721
 20
2.7939
 30
0.0
 10
-0.4721
 20
2.7939
 30
0.0
 10
-0.5351
 20
2.856
 30
0.0
 10
-0.6132
 20
2.8871
 30
0.0
 10
-0.7072
 20
2.8871
 30
0.0
 10
-0.7072
 20
2.8871
 30
0.0
 10
-0.8018
 20
2.8871
 30
0.0
 10
-0.8803
 20
2.8565
 30
0.0
 10
-0.9429
 20
2.7963
 30
0.0
 10
-0.9429
 20
2.7963
 30
0.0
 10
-1.0055
 20
2.7356
 30
0.0
 10
-1.0365
 20
2.6627
 30
0.0
 10
-1.0365
 20
2.5785
 30
0.0
  0
SPLINE
  5
BF
330
1F
100
AcDbEntity
  8
DEFAULT_1
 62
   250
100
AcDbSpline
210
0.0
220
0.0
230
1.0
 70
    11
 71
     3
 72
    40
 73
    36
 74
     0
 42
0.0000000001
 43
0.0000000001
 40
0.0
 40
0.0
 40
0.0
 40
0.0
 40
0.1
 40
0.1
 40
0.1
 40
0.1
 40
0.2
 40
0.2
 40
0.2
 40
0.2
 40
0.3
 40
0.3
 40
0.3
 40
0.3
 40
0.4
 40
0.4
 40
0.4
 40
0.4
 40
0.5
 40
0.5
 40
0.5
 40
0.5
 40
0.6
 40
0.6
 40
0.6
 40
0.6
 40
0.7
 40
0.7
 40
0.7
 40
0.7
 40
0.8
 40
0.8
 40
0.8
 40
0.8
 40
1.0
 40
1.0
 40
1.0
 40
1.0
 10
-1.1165
 20
1.6453
 30
0.0
 10
-1.1165
 20
1.5747
 30
0.0
 10
-1.0995
 20
1.5061
 30
0.0
 10
-1.0661
 20
1.4402
 30
0.0
 10
-1.0661
 20
1.4402
 30
0.0
 10
-1.0327
 20
1.3739
 30
0.0
 10
-0.9829
 20
1.3226
 30
0.0
 10
-0.9166
 20
1.2864
 30
0.0
 10
-0.9166
 20
1.2864
 30
0.0
 10
-0.8502
 20
1.2502
 30
0.0
 10
-0.7792
 20
1.2318
 30
0.0
 10
-0.703
 20
1.2318
 30
0.0
 10
-0.703
 20
1.2318
 30
0.0
 10
-0.5845
 20
1.2318
 30
0.0
 10
-0.4866
 20
1.2699
 30
0.0
 10
-0.4095
 20
1.3466
 30
0.0
 10
-0.4095
 20
1.3466
 30
0.0
 10
-0.3324
 20
1.4228
 30
0.0
 10
-0.2938
 20
1.5197
 30
0.0
 10
-0.2938
 20
1.6373
 30
0.0
 10
-0.2938
 20
1.6373
 30
0.0
 10
-0.2938
 20
1.7568
 30
0.0
 10
-0.3333
 20
1.8555
 30
0.0
 10
-0.4128
 20
1.9336
 30
0.0
 10
-0.4128
 20
1.9336
 30
0.0
 10
-0.4923
 20
2.0117
 30
0.0
 10
-0.592
 20
2.0507
 30
0.0
 10
-0.7115
 20
2.0507
 30
0.0
 10
-0.7115
 20
2.0507
 30
0.0
 10
-0.8281
 20
2.0507
 30
0.0
 10
-0.9246
 20
2.0122
 30
0.0
 10
-1.0012
 20
1.935
 30
0.0
 10
-1.0012
 20
1.935
 30
0.0
 10
-1.0779
 20
1.8574
 30
0.0
 10
-1.1165
 20
1.761
 30
0.0
 10
-1.1165
 20
1.6453
 30
0.0
  0
SPLINE
  5
C0
330
1F
100
AcDbEntity
  8
DEFAULT_1
 62
   250
100
AcDbSpline
210
0.0
220
0.0
230
1.0
 70
    11
 71
     3
 72
    92
 73
    88
 74
     0
 42
0.0000000001
 43
0.0000000001
 40
0.0
 40
0.0
 40
0.0
 40
0.0
 40
0.0434782608695652
 40
0.0434782608695652
 40
0.0434782608695652
 40
0.0434782608695652
 40
0.0869565217391304
 40
0.0869565217391304
 40
0.0869565217391304
 40
0.0869565217391304
 40
0.1304347826086956
 40
0.1304347826086956
 40
0.1304347826086956
 40
0.1304347826086956
 40
0.1739130434782609
 40
0.1739130434782609
 40
0.1739130434782609
 40
0.1739130434782609
 40
0.2173913043478261
 40
0.2173913043478261
 40
0.2173913043478261
 40
0.2173913043478261
 40
0.2608695652173913
 40
0.2608695652173913
 40
0.2608695652173913
 40
0.2608695652173913
 40
0.3043478260869565
 40
0.3043478260869565
 40
0.3043478260869565
 40
0.3043478260869565
 40
0.3478260869565217
 40
0.3478260869565217
 40
0.3478260869565217
 40
0.3478260869565217
 40
0.391304347826087
 40
0.391304347826087
 40
0.391304347826087
 40
0.391304347826087
 40
0.4347826086956522
 40
0.4347826086956522
 40
0.4347826086956522
 40
0.4347826086956522
 40
0.4782608695652174
 40
0.4782608695652174
 40
0.4782608695652174
 40
0.4782608695652174
 40
0.5217391304347826
 40
0.5217391304347826
 40
0.5217391304347826
 40
0.5217391304347826
 40
0.5652173913043478
 40
0.5652173913043478
 40
0.5652173913043478
 40
0.5652173913043478
 40
0.6086956521739131
 40
0.6086956521739131
 40
0.6086956521739131
 40
0.6086956521739131
 40
0.6521739130434783
 40
0.6521739130434783
 40
0.6521739130434783
 40
0.6521739130434783
 40
0.6956521739130435
 40
0.6956521739130435
 40
0.6956521739130435
 40
0.6956521739130435
 40
0.7391304347826086
 40
0.7391304347826086
 40
0.7391304347826086
 40
0.7391304347826086
 40
0.782608695652174
 40
0.782608695652174
 40
0.782608695652174
 40
0.782608695652174
 40
0.8260869565217391
 40
0.8260869565217391
 40
0.8260869565217391
 40
0.8260869565217391
 40
0.8695652173913043
 40
0.8695652173913043
 40
0.8695652173913043
 40
0.8695652173913043
 40
0.9130434782608695
 40
0.9130434782608695
 40
0.9130434782608695
 40
0.9130434782608695
 40
1.0
 40
1.0
 40
1.0
 40
1.0
 10
0.201
 20
1.5917
 30
0.0
 10
0.201
 20
1.5917
 30
0.0
 10
0.4616
 20
1.6138
 30
0.0
 10
0.4616
 20
1.6138
 30
0.0
 10
0.4616
 20
1.6138
 30
0.0
 10
0.4809
 20
1.4868
 30
0.0
 10
0.5256
 20
1.3918
 30
0.0
 10
0.5957
 20
1.3278
 30
0.0
 10
0.5957
 20
1.3278
 30
0.0
 10
0.6662
 20
1.2638
 30
0.0
 10
0.7509
 20
1.2318
 30
0.0
 10
0.8501
 20
1.2318
 30
0.0
 10
0.8501
 20
1.2318
 30
0.0
 10
0.9696
 20
1.2318
 30
0.0
 10
1.0707
 20
1.277
 30
0.0
 10
1.153
 20
1.3668
 30
0.0
 10
1.153
 20
1.3668
 30
0.0
 10
1.2358
 20
1.4571
 30
0.0
 10
1.2772
 20
1.5766
 30
0.0
 10
1.2772
 20
1.7252
 30
0.0
 10
1.2772
 20
1.7252
 30
0.0
 10
1.2772
 20
1.8668
 30
0.0
 10
1.2377
 20
1.9783
 30
0.0
 10
1.1582
 20
2.0601
 30
0.0
 10
1.1582
 20
2.0601
 30
0.0
 10
1.0787
 20
2.142
 30
0.0
 10
0.9748
 20
2.1829
 30
0.0
 10
0.8459
 20
2.1829
 30
0.0
 10
0.8459
 20
2.1829
 30
0.0
 10
0.7659
 20
2.1829
 30
0.0
 10
0.694
 20
2.1646
 30
0.0
 10
0.6295
 20
2.1284
 30
0.0
 10
0.6295
 20
2.1284
 30
0.0
 10
0.5651
 20
2.0921
 30
0.0
 10
0.5148
 20
2.0451
 30
0.0
 10
0.4781
 20
1.9872
 30
0.0
 10
0.4781
 20
1.9872
 30
0.0
 10
0.4781
 20
1.9872
 30
0.0
 10
0.2452
 20
2.0173
 30
0.0
 10
0.2452
 20
2.0173
 30
0.0
 10
0.2452
 20
2.0173
 30
0.0
 10
0.2452
 20
2.0173
 30
0.0
 10
0.4409
 20
3.055
 30
0.0
 10
0.4409
 20
3.055
 30
0.0
 10
0.4409
 20
3.055
 30
0.0
 10
0.4409
 20
3.055
 30
0.0
 10
1.4456
 20
3.055
 30
0.0
 10
1.4456
 20
3.055
 30
0.0
 10
1.4456
 20
3.055
 30
0.0
 10
1.4456
 20
3.055
 30
0.0
 10
1.4456
 20
2.8179
 30
0.0
 10
1.4456
 20
2.8179
 30
0.0
 10
1.4456
 20
2.8179
 30
0.0
 10
1.4456
 20
2.8179
 30
0.0
 10
0.6394
 20
2.8179
 30
0.0
 10
0.6394
 20
2.8179
 30
0.0
 10
0.6394
 20
2.8179
 30
0.0
 10
0.6394
 20
2.8179
 30
0.0
 10
0.5303
 20
2.2751
 30
0.0
 10
0.5303
 20
2.2751
 30
0.0
 10
0.5303
 20
2.2751
 30
0.0
 10
0.6516
 20
2.3598
 30
0.0
 10
0.7791
 20
2.4021
 30
0.0
 10
0.9122
 20
2.4021
 30
0.0
 10
0.9122
 20
2.4021
 30
0.0
 10
1.0886
 20
2.4021
 30
0.0
 10
1.2372
 20
2.341
 30
0.0
 10
1.3586
 20
2.2187
 30
0.0
 10
1.3586
 20
2.2187
 30
0.0
 10
1.4799
 20
2.0964
 30
0.0
 10
1.5406
 20
1.9393
 30
0.0
 10
1.5406
 20
1.7474
 30
0.0
 10
1.5406
 20
1.7474
 30
0.0
 10
1.5406
 20
1.5644
 30
0.0
 10
1.487
 20
1.4063
 30
0.0
 10
1.3807
 20
1.2732
 30
0.0
 10
1.3807
 20
1.2732
 30
0.0
 10
1.2509
 20
1.11
 30
0.0
 10
1.074
 20
1.0282
 30
0.0
 10
0.8501
 20
1.0282
 30
0.0
 10
0.8501
 20
1.0282
 30
0.0
 10
0.6662
 20
1.0282
 30
0.0
 10
0.5162
 20
1.0794
 30
0.0
 10
0.4
 20
1.1824
 30
0.0
 10
0.4
 20
1.1824
 30
0.0
 10
0.2838
 20
1.2855
 30
0.0
 10
0.2175
 20
1.4219
 30
0.0
 10
0.201
 20
1.5917
 30
0.0
  0
SPLINE
  5
C1
330
1F
100
AcDbEntity
  8
DEFAULT_1
 62
   250
100
AcDbSpline
210
0.0
220
0.0
230
1.0
 70
    11
 71
     3
 72
    20
 73
    16
 74
     0
 42
0.0000000001
 43
0.0000000001
 40
0.0
 40
0.0
 40
0.0
 40
0.0
 40
0.2
 40
0.2
 40
0.2
 40
0.2
 40
0.4
 40
0.4
 40
0.4
 40
0.4
 40
0.6
 40
0.6
 40
0.6
 40
0.6
 40
1.0
 40
1.0
 40
1.0
 40
1.0
 10
7.6342
 20
1.0608
 30
0.0
 10
7.6342
 20
1.0608
 30
0.0
 10
10.7593
 20
0.6198
 30
0.0
 10
10.7593
 20
0.6198
 30
0.0
 10
10.7593
 20
0.6198
 30
0.0
 10
10.7593
 20
0.6198
 30
0.0
 10
10.7593
 20
0.5218
 30
0.0
 10
10.7593
 20
0.5218
 30
0.0
 10
10.7593
 20
0.5218
 30
0.0
 10
10.7593
 20
0.5218
 30
0.0
 10
7.6342
 20
0.0514
 30
0.0
 10
7.6342
 20
0.0514
 30
0.0
 10
7.6342
 20
0.0514
 30
0.0
 10
7.6342
 20
0.0514
 30
0.0
 10
7.6342
 20
1.0608
 30
0.0
 10
7.6342
 20
1.0608
 30
0.0
  0
SPLINE
  5
C2
330
1F
100
AcDbEntity
  8
DEFAULT_1
 62
   250
100
AcDbSpline
210
0.0
220
0.0
230
1.0
 70
    11
 71
     3
 72
    20
 73
    16
 74
     0
 42
0.0000000001
 43
0.0000000001
 40
0.0
 40
0.0
 40
0.0
 40
0.0
 40
0.2
 40
0.2
 40
0.2
 40
0.2
 40
0.4
 40
0.4
 40
0.4
 40
0.4
 40
0.6
 40
0.6
 40
0.6
 40
0.6
 40
1.0
 40
1.0
 40
1.0
 40
1.0
 10
-10.8455
 20
0.0069
 30
0.0
 10
-10.8455
 20
0.0069
 30
0.0
 10
-13.9706
 20
0.4479
 30
0.0
 10
-13.9706
 20
0.4479
 30
0.0
 10
-13.9706
 20
0.4479
 30
0.0
 10
-13.9706
 20
0.4479
 30
0.0
 10
-13.9706
 20
0.5459
 30
0.0
 10
-13.9706
 20
0.5459
 30
0.0
 10
-13.9706
 20
0.5459
 30
0.0
 10
-13.9706
 20
0.5459
 30
0.0
 10
-10.8455
 20
1.0163
 30
0.0
 10
-10.8455
 20
1.0163
 30
0.0
 10
-10.8455
 20
1.0163
 30
0.0
 10
-10.8455
 20
1.0163
 30
0.0
 10
-10.8455
 20
0.0069
 30
0.0
 10
-10.8455
 20
0.0069
 30
0.0
  0
SPLINE
  5
C3
330
1F
100
AcDbEntity
  8
DEFAULT_1
 62
   250
100
AcDbSpline
210
0.0
220
0.0
230
1.0
 70
    11
 71
     3
 72
    20
 73
    16
 74
     0
 42
0.0000000001
 43
0.0000000001
 40
0.0
 40
0.0
 40
0.0
 40
0.0
 40
0.2
 40
0.2
 40
0.2
 40
0.2
 40
0.4
 40
0.4
 40
0.4
 40
0.4
 40
0.6
 40
0.6
 40
0.6
 40
0.6
 40
1.0
 40
1.0
 40
1.0
 40
1.0
 10
-23.8899
 20
-11.5956
 30
0.0
 10
-23.8899
 20
-11.5956
 30
0.0
 10
-23.4489
 20
-8.4705
 30
0.0
 10
-23.4489
 20
-8.4705
 30
0.0
 10
-23.4489
 20
-8.4705
 30
0.0
 10
-23.4489
 20
-8.4705
 30
0.0
 10
-23.3509
 20
-8.4705
 30
0.0
 10
-23.3509
 20
-8.4705
 30
0.0
 10
-23.3509
 20
-8.4705
 30
0.0
 10
-23.3509
 20
-8.4705
 30
0.0
 10
-22.8806
 20
-11.5956
 30
0.0
 10
-22.8806
 20
-11.5956
 30
0.0
 10
-22.8806
 20
-11.5956
 30
0.0
 10
-22.8806
 20
-11.5956
 30
0.0
 10
-23.8899
 20
-11.5956
 30
0.0
 10
-23.8899
 20
-11.5956
 30
0.0
  0
SPLINE
  5
C4
330
1F
100
AcDbEntity
  8
DEFAULT_1
 62
   250
100
AcDbSpline
210
0.0
220
0.0
230
1.0
 70
    11
 71
     3
 72
    20
 73
    16
 74
     0
 42
0.0000000001
 43
0.0000000001
 40
0.0
 40
0.0
 40
0.0
 40
0.0
 40
0.2
 40
0.2
 40
0.2
 40
0.2
 40
0.4
 40
0.4
 40
0.4
 40
0.4
 40
0.6
 40
0.6
 40
0.6
 40
0.6
 40
1.0
 40
1.0
 40
1.0
 40
1.0
 10
-22.8806
 20
-29.5543
 30
0.0
 10
-22.8806
 20
-29.5543
 30
0.0
 10
-23.3216
 20
-32.6794
 30
0.0
 10
-23.3216
 20
-32.6794
 30
0.0
 10
-23.3216
 20
-32.6794
 30
0.0
 10
-23.3216
 20
-32.6794
 30
0.0
 10
-23.4196
 20
-32.6794
 30
0.0
 10
-23.4196
 20
-32.6794
 30
0.0
 10
-23.4196
 20
-32.6794
 30
0.0
 10
-23.4196
 20
-32.6794
 30
0.0
 10
-23.8899
 20
-29.5543
 30
0.0
 10
-23.8899
 20
-29.5543
 30
0.0
 10
-23.8899
 20
-29.5543
 30
0.0
 10
-23.8899
 20
-29.5543
 30
0.0
 10
-22.8806
 20
-29.5543
 30
0.0
 10
-22.8806
 20
-29.5543
 30
0.0
  0
SPLINE
  5
C5
330
1F
100
AcDbEntity
  8
DEFAULT_1
 62
   250
100
AcDbSpline
210
0.0
220
0.0
230
1.0
 70
    11
 71
     3
 72
    68
 73
    64
 74
     0
 42
0.0000000001
 43
0.0000000001
 40
0.0
 40
0.0
 40
0.0
 40
0.0
 40
0.0588235294117647
 40
0.0588235294117647
 40
0.0588235294117647
 40
0.0588235294117647
 40
0.1176470588235294
 40
0.1176470588235294
 40
0.1176470588235294
 40
0.1176470588235294
 40
0.1764705882352941
 40
0.1764705882352941
 40
0.1764705882352941
 40
0.1764705882352941
 40
0.2352941176470588
 40
0.2352941176470588
 40
0.2352941176470588
 40
0.2352941176470588
 40
0.2941176470588235
 40
0.2941176470588235
 40
0.2941176470588235
 40
0.2941176470588235
 40
0.3529411764705883
 40
0.3529411764705883
 40
0.3529411764705883
 40
0.3529411764705883
 40
0.4117647058823529
 40
0.4117647058823529
 40
0.4117647058823529
 40
0.4117647058823529
 40
0.4705882352941176
 40
0.4705882352941176
 40
0.4705882352941176
 40
0.4705882352941176
 40
0.5294117647058824
 40
0.5294117647058824
 40
0.5294117647058824
 40
0.5294117647058824
 40
0.5882352941176471
 40
0.5882352941176471
 40
0.5882352941176471
 40
0.5882352941176471
 40
0.6470588235294118
 40
0.6470588235294118
 40
0.6470588235294118
 40
0.6470588235294118
 40
0.7058823529411765
 40
0.7058823529411765
 40
0.7058823529411765
 40
0.7058823529411765
 40
0.7647058823529411
 40
0.7647058823529411
 40
0.7647058823529411
 40
0.7647058823529411
 40
0.8235294117647058
 40
0.8235294117647058
 40
0.8235294117647058
 40
0.8235294117647058
 40
0.8823529411764706
 40
0.8823529411764706
 40
0.8823529411764706
 40
0.8823529411764706
 40
1.0
 40
1.0
 40
1.0
 40
1.0
 10
-24.9542
 20
-21.1965
 30
0.0
 10
-24.9919
 20
-21.2995
 30
0.0
 10
-25.0455
 20
-21.3757
 30
0.0
 10
-25.1156
 20
-21.4255
 30
0.0
 10
-25.1156
 20
-21.4255
 30
0.0
 10
-25.1852
 20
-21.4749
 30
0.0
 10
-25.2689
 20
-21.4998
 30
0.0
 10
-25.3663
 20
-21.4998
 30
0.0
 10
-25.3663
 20
-21.4998
 30
0.0
 10
-25.5135
 20
-21.4998
 30
0.0
 10
-25.6367
 20
-21.4472
 30
0.0
 10
-25.7369
 20
-21.3413
 30
0.0
 10
-25.7369
 20
-21.3413
 30
0.0
 10
-25.8371
 20
-21.2355
 30
0.0
 10
-25.8874
 20
-21.0953
 30
0.0
 10
-25.8874
 20
-20.9199
 30
0.0
 10
-25.8874
 20
-20.9199
 30
0.0
 10
-25.8874
 20
-20.7435
 30
0.0
 10
-25.8362
 20
-20.6015
 30
0.0
 10
-25.7336
 20
-20.4938
 30
0.0
 10
-25.7336
 20
-20.4938
 30
0.0
 10
-25.6311
 20
-20.3865
 30
0.0
 10
-25.5064
 20
-20.3329
 30
0.0
 10
-25.3592
 20
-20.3329
 30
0.0
 10
-25.3592
 20
-20.3329
 30
0.0
 10
-25.2656
 20
-20.3329
 30
0.0
 10
-25.1842
 20
-20.3574
 30
0.0
 10
-25.1146
 20
-20.4063
 30
0.0
 10
-25.1146
 20
-20.4063
 30
0.0
 10
-25.0455
 20
-20.4557
 30
0.0
 10
-24.9919
 20
-20.53
 30
0.0
 10
-24.9542
 20
-20.6302
 30
0.0
 10
-24.9542
 20
-20.6302
 30
0.0
 10
-24.9138
 20
-20.5065
 30
0.0
 10
-24.8489
 20
-20.4119
 30
0.0
 10
-24.7586
 20
-20.347
 30
0.0
 10
-24.7586
 20
-20.347
 30
0.0
 10
-24.6687
 20
-20.2826
 30
0.0
 10
-24.561
 20
-20.2501
 30
0.0
 10
-24.4364
 20
-20.2501
 30
0.0
 10
-24.4364
 20
-20.2501
 30
0.0
 10
-24.2633
 20
-20.2501
 30
0.0
 10
-24.1184
 20
-20.3113
 30
0.0
 10
-24.0008
 20
-20.4331
 30
0.0
 10
-24.0008
 20
-20.4331
 30
0.0
 10
-23.8833
 20
-20.5554
 30
0.0
 10
-23.8245
 20
-20.7162
 30
0.0
 10
-23.8245
 20
-20.9157
 30
0.0
 10
-23.8245
 20
-20.9157
 30
0.0
 10
-23.8245
 20
-21.1151
 30
0.0
 10
-23.8833
 20
-21.2755
 30
0.0
 10
-24.0013
 20
-21.3978
 30
0.0
 10
-24.0013
 20
-21.3978
 30
0.0
 10
-24.1194
 20
-21.5201
 30
0.0
 10
-24.2666
 20
-21.5812
 30
0.0
 10
-24.443
 20
-21.5812
 30
0.0
 10
-24.443
 20
-21.5812
 30
0.0
 10
-24.5742
 20
-21.5812
 30
0.0
 10
-24.6843
 20
-21.5478
 30
0.0
 10
-24.7732
 20
-21.481
 30
0.0
 10
-24.7732
 20
-21.481
 30
0.0
 10
-24.8616
 20
-21.4147
 30
0.0
 10
-24.9223
 20
-21.3197
 30
0.0
 10
-24.9542
 20
-21.1965
 30
0.0
  0
SPLINE
  5
C6
330
1F
100
AcDbEntity
  8
DEFAULT_1
 62
   250
100
AcDbSpline
210
0.0
220
0.0
230
1.0
 70
    11
 71
     3
 72
    36
 73
    32
 74
     0
 42
0.0000000001
 43
0.0000000001
 40
0.0
 40
0.0
 40
0.0
 40
0.0
 40
0.1111111111111111
 40
0.1111111111111111
 40
0.1111111111111111
 40
0.1111111111111111
 40
0.2222222222222222
 40
0.2222222222222222
 40
0.2222222222222222
 40
0.2222222222222222
 40
0.3333333333333333
 40
0.3333333333333333
 40
0.3333333333333333
 40
0.3333333333333333
 40
0.4444444444444444
 40
0.4444444444444444
 40
0.4444444444444444
 40
0.4444444444444444
 40
0.5555555555555556
 40
0.5555555555555556
 40
0.5555555555555556
 40
0.5555555555555556
 40
0.6666666666666666
 40
0.6666666666666666
 40
0.6666666666666666
 40
0.6666666666666666
 40
0.7777777777777778
 40
0.7777777777777778
 40
0.7777777777777778
 40
0.7777777777777778
 40
1.0
 40
1.0
 40
1.0
 40
1.0
 10
-25.3747
 20
-21.2463
 30
0.0
 10
-25.2793
 20
-21.2463
 30
0.0
 10
-25.2012
 20
-21.2153
 30
0.0
 10
-25.1405
 20
-21.1541
 30
0.0
 10
-25.1405
 20
-21.1541
 30
0.0
 10
-25.0798
 20
-21.0925
 30
0.0
 10
-25.0493
 20
-21.0126
 30
0.0
 10
-25.0493
 20
-20.9142
 30
0.0
 10
-25.0493
 20
-20.9142
 30
0.0
 10
-25.0493
 20
-20.8188
 30
0.0
 10
-25.0794
 20
-20.7402
 30
0.0
 10
-25.1396
 20
-20.6791
 30
0.0
 10
-25.1396
 20
-20.6791
 30
0.0
 10
-25.1998
 20
-20.6179
 30
0.0
 10
-25.2736
 20
-20.5878
 30
0.0
 10
-25.3606
 20
-20.5878
 30
0.0
 10
-25.3606
 20
-20.5878
 30
0.0
 10
-25.4519
 20
-20.5878
 30
0.0
 10
-25.5281
 20
-20.6189
 30
0.0
 10
-25.5902
 20
-20.6819
 30
0.0
 10
-25.5902
 20
-20.6819
 30
0.0
 10
-25.6522
 20
-20.7449
 30
0.0
 10
-25.6833
 20
-20.823
 30
0.0
 10
-25.6833
 20
-20.9171
 30
0.0
 10
-25.6833
 20
-20.9171
 30
0.0
 10
-25.6833
 20
-21.0116
 30
0.0
 10
-25.6527
 20
-21.0902
 30
0.0
 10
-25.5925
 20
-21.1527
 30
0.0
 10
-25.5925
 20
-21.1527
 30
0.0
 10
-25.5318
 20
-21.2153
 30
0.0
 10
-25.4589
 20
-21.2463
 30
0.0
 10
-25.3747
 20
-21.2463
 30
0.0
  0
SPLINE
  5
C7
330
1F
100
AcDbEntity
  8
DEFAULT_1
 62
   250
100
AcDbSpline
210
0.0
220
0.0
230
1.0
 70
    11
 71
     3
 72
    40
 73
    36
 74
     0
 42
0.0000000001
 43
0.0000000001
 40
0.0
 40
0.0
 40
0.0
 40
0.0
 40
0.1
 40
0.1
 40
0.1
 40
0.1
 40
0.2
 40
0.2
 40
0.2
 40
0.2
 40
0.3
 40
0.3
 40
0.3
 40
0.3
 40
0.4
 40
0.4
 40
0.4
 40
0.4
 40
0.5
 40
0.5
 40
0.5
 40
0.5
 40
0.6
 40
0.6
 40
0.6
 40
0.6
 40
0.7
 40
0.7
 40
0.7
 40
0.7
 40
0.8
 40
0.8
 40
0.8
 40
0.8
 40
1.0
 40
1.0
 40
1.0
 40
1.0
 10
-24.4416
 20
-21.3263
 30
0.0
 10
-24.371
 20
-21.3263
 30
0.0
 10
-24.3023
 20
-21.3093
 30
0.0
 10
-24.2365
 20
-21.2759
 30
0.0
 10
-24.2365
 20
-21.2759
 30
0.0
 10
-24.1702
 20
-21.2426
 30
0.0
 10
-24.1189
 20
-21.1927
 30
0.0
 10
-24.0827
 20
-21.1264
 30
0.0
 10
-24.0827
 20
-21.1264
 30
0.0
 10
-24.0465
 20
-21.0601
 30
0.0
 10
-24.0281
 20
-20.989
 30
0.0
 10
-24.0281
 20
-20.9128
 30
0.0
 10
-24.0281
 20
-20.9128
 30
0.0
 10
-24.0281
 20
-20.7943
 30
0.0
 10
-24.0662
 20
-20.6965
 30
0.0
 10
-24.1429
 20
-20.6193
 30
0.0
 10
-24.1429
 20
-20.6193
 30
0.0
 10
-24.2191
 20
-20.5422
 30
0.0
 10
-24.316
 20
-20.5036
 30
0.0
 10
-24.4336
 20
-20.5036
 30
0.0
 10
-24.4336
 20
-20.5036
 30
0.0
 10
-24.553
 20
-20.5036
 30
0.0
 10
-24.6518
 20
-20.5431
 30
0.0
 10
-24.7299
 20
-20.6226
 30
0.0
 10
-24.7299
 20
-20.6226
 30
0.0
 10
-24.808
 20
-20.7021
 30
0.0
 10
-24.847
 20
-20.8018
 30
0.0
 10
-24.847
 20
-20.9213
 30
0.0
 10
-24.847
 20
-20.9213
 30
0.0
 10
-24.847
 20
-21.038
 30
0.0
 10
-24.8084
 20
-21.1344
 30
0.0
 10
-24.7313
 20
-21.211
 30
0.0
 10
-24.7313
 20
-21.211
 30
0.0
 10
-24.6537
 20
-21.2877
 30
0.0
 10
-24.5573
 20
-21.3263
 30
0.0
 10
-24.4416
 20
-21.3263
 30
0.0
  0
SPLINE
  5
C8
330
1F
100
AcDbEntity
  8
DEFAULT_1
 62
   250
100
AcDbSpline
210
0.0
220
0.0
230
1.0
 70
    11
 71
     3
 72
    48
 73
    44
 74
     0
 42
0.0000000001
 43
0.0000000001
 40
0.0
 40
0.0
 40
0.0
 40
0.0
 40
0.0833333333333333
 40
0.0833333333333333
 40
0.0833333333333333
 40
0.0833333333333333
 40
0.1666666666666667
 40
0.1666666666666667
 40
0.1666666666666667
 40
0.1666666666666667
 40
0.25
 40
0.25
 40
0.25
 40
0.25
 40
0.3333333333333333
 40
0.3333333333333333
 40
0.3333333333333333
 40
0.3333333333333333
 40
0.4166666666666667
 40
0.4166666666666667
 40
0.4166666666666667
 40
0.4166666666666667
 40
0.5
 40
0.5
 40
0.5
 40
0.5
 40
0.5833333333333334
 40
0.5833333333333334
 40
0.5833333333333334
 40
0.5833333333333334
 40
0.6666666666666666
 40
0.6666666666666666
 40
0.6666666666666666
 40
0.6666666666666666
 40
0.75
 40
0.75
 40
0.75
 40
0.75
 40
0.8333333333333334
 40
0.8333333333333334
 40
0.8333333333333334
 40
0.8333333333333334
 40
1.0
 40
1.0
 40
1.0
 40
1.0
 10
-23.8588
 20
-19.2139
 30
0.0
 10
-23.8588
 20
-19.2139
 30
0.0
 10
-24.3423
 20
-19.2139
 30
0.0
 10
-24.3423
 20
-19.2139
 30
0.0
 10
-24.3423
 20
-19.2139
 30
0.0
 10
-24.3423
 20
-19.2139
 30
0.0
 10
-24.3423
 20
-20.0902
 30
0.0
 10
-24.3423
 20
-20.0902
 30
0.0
 10
-24.3423
 20
-20.0902
 30
0.0
 10
-24.3423
 20
-20.0902
 30
0.0
 10
-24.57
 20
-20.0902
 30
0.0
 10
-24.57
 20
-20.0902
 30
0.0
 10
-24.57
 20
-20.0902
 30
0.0
 10
-24.57
 20
-20.0902
 30
0.0
 10
-25.879
 20
-19.1683
 30
0.0
 10
-25.879
 20
-19.1683
 30
0.0
 10
-25.879
 20
-19.1683
 30
0.0
 10
-25.879
 20
-19.1683
 30
0.0
 10
-25.879
 20
-18.9655
 30
0.0
 10
-25.879
 20
-18.9655
 30
0.0
 10
-25.879
 20
-18.9655
 30
0.0
 10
-25.879
 20
-18.9655
 30
0.0
 10
-24.57
 20
-18.9655
 30
0.0
 10
-24.57
 20
-18.9655
 30
0.0
 10
-24.57
 20
-18.9655
 30
0.0
 10
-24.57
 20
-18.9655
 30
0.0
 10
-24.57
 20
-18.6927
 30
0.0
 10
-24.57
 20
-18.6927
 30
0.0
 10
-24.57
 20
-18.6927
 30
0.0
 10
-24.57
 20
-18.6927
 30
0.0
 10
-24.3423
 20
-18.6927
 30
0.0
 10
-24.3423
 20
-18.6927
 30
0.0
 10
-24.3423
 20
-18.6927
 30
0.0
 10
-24.3423
 20
-18.6927
 30
0.0
 10
-24.3423
 20
-18.9655
 30
0.0
 10
-24.3423
 20
-18.9655
 30
0.0
 10
-24.3423
 20
-18.9655
 30
0.0
 10
-24.3423
 20
-18.9655
 30
0.0
 10
-23.8588
 20
-18.9655
 30
0.0
 10
-23.8588
 20
-18.9655
 30
0.0
 10
-23.8588
 20
-18.9655
 30
0.0
 10
-23.8588
 20
-18.9655
 30
0.0
 10
-23.8588
 20
-19.2139
 30
0.0
 10
-23.8588
 20
-19.2139
 30
0.0
  0
SPLINE
  5
C9
330
1F
100
AcDbEntity
  8
DEFAULT_1
 62
   250
100
AcDbSpline
210
0.0
220
0.0
230
1.0
 70
    11
 71
     3
 72
    16
 73
    12
 74
     0
 42
0.0000000001
 43
0.0000000001
 40
0.0
 40
0.0
 40
0.0
 40
0.0
 40
0.25
 40
0.25
 40
0.25
 40
0.25
 40
0.5
 40
0.5
 40
0.5
 40
0.5
 40
1.0
 40
1.0
 40
1.0
 40
1.0
 10
-24.57
 20
-19.2139
 30
0.0
 10
-24.57
 20
-19.2139
 30
0.0
 10
-25.4806
 20
-19.2139
 30
0.0
 10
-25.4806
 20
-19.2139
 30
0.0
 10
-25.4806
 20
-19.2139
 30
0.0
 10
-25.4806
 20
-19.2139
 30
0.0
 10
-24.57
 20
-19.846
 30
0.0
 10
-24.57
 20
-19.846
 30
0.0
 10
-24.57
 20
-19.846
 30
0.0
 10
-24.57
 20
-19.846
 30
0.0
 10
-24.57
 20
-19.2139
 30
0.0
 10
-24.57
 20
-19.2139
 30
0.0
  0
SPLINE
  5
CA
330
1F
100
AcDbEntity
  8
DEFAULT_1
 62
   250
100
AcDbSpline
210
0.0
220
0.0
230
1.0
 70
    24
 71
     3
 72
     8
 73
     4
 74
     0
 42
0.0000000001
 43
0.0000000001
 40
0.0
 40
0.0
 40
0.0
 40
0.0
 40
1.0
 40
1.0
 40
1.0
 40
1.0
 10
25.3827
 20
-17.9026
 30
0.0
 10
25.3827
 20
-17.9026
 30
0.0
 10
25.3827
 20
-28.7539
 30
0.0
 10
25.3827
 20
-28.7539
 30
0.0
  0
SPLINE
  5
CB
330
1F
100
AcDbEntity
  8
DEFAULT_1
 62
   250
100
AcDbSpline
210
0.0
220
0.0
230
1.0
 70
    11
 71
     3
 72
    84
 73
    80
 74
     0
 42
0.0000000001
 43
0.0000000001
 40
0.0
 40
0.0
 40
0.0
 40
0.0
 40
0.0476190476190476
 40
0.0476190476190476
 40
0.0476190476190476
 40
0.0476190476190476
 40
0.0952380952380952
 40
0.0952380952380952
 40
0.0952380952380952
 40
0.0952380952380952
 40
0.1428571428571428
 40
0.1428571428571428
 40
0.1428571428571428
 40
0.1428571428571428
 40
0.1904761904761905
 40
0.1904761904761905
 40
0.1904761904761905
 40
0.1904761904761905
 40
0.2380952380952381
 40
0.2380952380952381
 40
0.2380952380952381
 40
0.2380952380952381
 40
0.2857142857142857
 40
0.2857142857142857
 40
0.2857142857142857
 40
0.2857142857142857
 40
0.3333333333333333
 40
0.3333333333333333
 40
0.3333333333333333
 40
0.3333333333333333
 40
0.3809523809523809
 40
0.3809523809523809
 40
0.3809523809523809
 40
0.3809523809523809
 40
0.4285714285714285
 40
0.4285714285714285
 40
0.4285714285714285
 40
0.4285714285714285
 40
0.4761904761904762
 40
0.4761904761904762
 40
0.4761904761904762
 40
0.4761904761904762
 40
0.5238095238095238
 40
0.5238095238095238
 40
0.5238095238095238
 40
0.5238095238095238
 40
0.5714285714285714
 40
0.5714285714285714
 40
0.5714285714285714
 40
0.5714285714285714
 40
0.6190476190476191
 40
0.6190476190476191
 40
0.6190476190476191
 40
0.6190476190476191
 40
0.6666666666666666
 40
0.6666666666666666
 40
0.6666666666666666
 40
0.6666666666666666
 40
0.7142857142857143
 40
0.7142857142857143
 40
0.7142857142857143
 40
0.7142857142857143
 40
0.7619047619047619
 40
0.7619047619047619
 40
0.7619047619047619
 40
0.7619047619047619
 40
0.8095238095238095
 40
0.8095238095238095
 40
0.8095238095238095
 40
0.8095238095238095
 40
0.8571428571428571
 40
0.8571428571428571
 40
0.8571428571428571
 40
0.8571428571428571
 40
0.9047619047619048
 40
0.9047619047619048
 40
0.9047619047619048
 40
0.9047619047619048
 40
1.0
 40
1.0
 40
1.0
 40
1.0
 10
22.6056
 20
-24.2555
 30
0.0
 10
22.6056
 20
-24.2555
 30
0.0
 10
22.3465
 20
-24.0241
 30
0.0
 10
22.3465
 20
-24.0241
 30
0.0
 10
22.3465
 20
-24.0241
 30
0.0
 10
22.3465
 20
-24.0241
 30
0.0
 10
22.4622
 20
-23.8877
 30
0.0
 10
22.4622
 20
-23.8877
 30
0.0
 10
22.4622
 20
-23.8877
 30
0.0
 10
22.4622
 20
-23.8877
 30
0.0
 10
22.735
 20
-24.1299
 30
0.0
 10
22.735
 20
-24.1299
 30
0.0
 10
22.735
 20
-24.1299
 30
0.0
 10
22.8526
 20
-24.0509
 30
0.0
 10
22.9556
 20
-23.9978
 30
0.0
 10
23.0435
 20
-23.97
 30
0.0
 10
23.0435
 20
-23.97
 30
0.0
 10
23.1593
 20
-23.9333
 30
0.0
 10
23.2891
 20
-23.915
 30
0.0
 10
23.4321
 20
-23.915
 30
0.0
 10
23.4321
 20
-23.915
 30
0.0
 10
23.639
 20
-23.915
 30
0.0
 10
23.8234
 20
-23.9568
 30
0.0
 10
23.9847
 20
-24.0406
 30
0.0
 10
23.9847
 20
-24.0406
 30
0.0
 10
24.1466
 20
-24.1243
 30
0.0
 10
24.2688
 20
-24.2414
 30
0.0
 10
24.3516
 20
-24.3924
 30
0.0
 10
24.3516
 20
-24.3924
 30
0.0
 10
24.4339
 20
-24.5439
 30
0.0
 10
24.4753
 20
-24.7042
 30
0.0
 10
24.4753
 20
-24.874
 30
0.0
 10
24.4753
 20
-24.874
 30
0.0
 10
24.4753
 20
-25.001
 30
0.0
 10
24.4575
 20
-25.1158
 30
0.0
 10
24.4217
 20
-25.2188
 30
0.0
 10
24.4217
 20
-25.2188
 30
0.0
 10
24.394
 20
-25.2978
 30
0.0
 10
24.3413
 20
-25.39
 30
0.0
 10
24.2632
 20
-25.4959
 30
0.0
 10
24.2632
 20
-25.4959
 30
0.0
 10
24.2632
 20
-25.4959
 30
0.0
 10
24.5224
 20
-25.7273
 30
0.0
 10
24.5224
 20
-25.7273
 30
0.0
 10
24.5224
 20
-25.7273
 30
0.0
 10
24.5224
 20
-25.7273
 30
0.0
 10
24.4067
 20
-25.8637
 30
0.0
 10
24.4067
 20
-25.8637
 30
0.0
 10
24.4067
 20
-25.8637
 30
0.0
 10
24.4067
 20
-25.8637
 30
0.0
 10
24.1353
 20
-25.621
 30
0.0
 10
24.1353
 20
-25.621
 30
0.0
 10
24.1353
 20
-25.621
 30
0.0
 10
23.9984
 20
-25.7113
 30
0.0
 10
23.8813
 20
-25.7715
 30
0.0
 10
23.7844
 20
-25.8016
 30
0.0
 10
23.7844
 20
-25.8016
 30
0.0
 10
23.6875
 20
-25.8317
 30
0.0
 10
23.5708
 20
-25.8472
 30
0.0
 10
23.4349
 20
-25.8472
 30
0.0
 10
23.4349
 20
-25.8472
 30
0.0
 10
23.2275
 20
-25.8472
 30
0.0
 10
23.0426
 20
-25.8058
 30
0.0
 10
22.8803
 20
-25.7231
 30
0.0
 10
22.8803
 20
-25.7231
 30
0.0
 10
22.718
 20
-25.6403
 30
0.0
 10
22.5953
 20
-25.5246
 30
0.0
 10
22.5116
 20
-25.375
 30
0.0
 10
22.5116
 20
-25.375
 30
0.0
 10
22.4283
 20
-25.2259
 30
0.0
 10
22.3864
 20
-25.0598
 30
0.0
 10
22.3864
 20
-24.8769
 30
0.0
 10
22.3864
 20
-24.8769
 30
0.0
 10
22.3864
 20
-24.7536
 30
0.0
 10
22.4024
 20
-24.6459
 30
0.0
 10
22.4354
 20
-24.5537
 30
0.0
 10
22.4354
 20
-24.5537
 30
0.0
 10
22.4678
 20
-24.4615
 30
0.0
 10
22.5247
 20
-24.3618
 30
0.0
 10
22.6056
 20
-24.2555
 30
0.0
  0
SPLINE
  5
CC
330
1F
100
AcDbEntity
  8
DEFAULT_1
 62
   250
100
AcDbSpline
210
0.0
220
0.0
230
1.0
 70
    11
 71
     3
 72
    32
 73
    28
 74
     0
 42
0.0000000001
 43
0.0000000001
 40
0.0
 40
0.0
 40
0.0
 40
0.0
 40
0.125
 40
0.125
 40
0.125
 40
0.125
 40
0.25
 40
0.25
 40
0.25
 40
0.25
 40
0.375
 40
0.375
 40
0.375
 40
0.375
 40
0.5
 40
0.5
 40
0.5
 40
0.5
 40
0.625
 40
0.625
 40
0.625
 40
0.625
 40
0.75
 40
0.75
 40
0.75
 40
0.75
 40
1.0
 40
1.0
 40
1.0
 40
1.0
 10
22.7914
 20
-24.4206
 30
0.0
 10
22.7237
 20
-24.5072
 30
0.0
 10
22.6771
 20
-24.5829
 30
0.0
 10
22.6522
 20
-24.6473
 30
0.0
 10
22.6522
 20
-24.6473
 30
0.0
 10
22.6277
 20
-24.7122
 30
0.0
 10
22.615
 20
-24.7884
 30
0.0
 10
22.615
 20
-24.8755
 30
0.0
 10
22.615
 20
-24.8755
 30
0.0
 10
22.615
 20
-25.0768
 30
0.0
 10
22.6832
 20
-25.2428
 30
0.0
 10
22.8196
 20
-25.3745
 30
0.0
 10
22.8196
 20
-25.3745
 30
0.0
 10
22.9561
 20
-25.5058
 30
0.0
 10
23.1597
 20
-25.5716
 30
0.0
 10
23.4311
 20
-25.5716
 30
0.0
 10
23.4311
 20
-25.5716
 30
0.0
 10
23.5374
 20
-25.5716
 30
0.0
 10
23.632
 20
-25.5613
 30
0.0
 10
23.7148
 20
-25.541
 30
0.0
 10
23.7148
 20
-25.541
 30
0.0
 10
23.7764
 20
-25.5264
 30
0.0
 10
23.8521
 20
-25.4959
 30
0.0
 10
23.9419
 20
-25.4488
 30
0.0
 10
23.9419
 20
-25.4488
 30
0.0
 10
23.9419
 20
-25.4488
 30
0.0
 10
22.7914
 20
-24.4206
 30
0.0
 10
22.7914
 20
-24.4206
 30
0.0
  0
SPLINE
  5
CD
330
1F
100
AcDbEntity
  8
DEFAULT_1
 62
   250
100
AcDbSpline
210
0.0
220
0.0
230
1.0
 70
    11
 71
     3
 72
    28
 73
    24
 74
     0
 42
0.0000000001
 43
0.0000000001
 40
0.0
 40
0.0
 40
0.0
 40
0.0
 40
0.1428571428571428
 40
0.1428571428571428
 40
0.1428571428571428
 40
0.1428571428571428
 40
0.2857142857142857
 40
0.2857142857142857
 40
0.2857142857142857
 40
0.2857142857142857
 40
0.4285714285714285
 40
0.4285714285714285
 40
0.4285714285714285
 40
0.4285714285714285
 40
0.5714285714285714
 40
0.5714285714285714
 40
0.5714285714285714
 40
0.5714285714285714
 40
0.7142857142857143
 40
0.7142857142857143
 40
0.7142857142857143
 40
0.7142857142857143
 40
1.0
 40
1.0
 40
1.0
 40
1.0
 10
22.9335
 20
-24.3077
 30
0.0
 10
22.9335
 20
-24.3077
 30
0.0
 10
24.0798
 20
-25.3317
 30
0.0
 10
24.0798
 20
-25.3317
 30
0.0
 10
24.0798
 20
-25.3317
 30
0.0
 10
24.1376
 20
-25.2612
 30
0.0
 10
24.1781
 20
-25.1958
 30
0.0
 10
24.2011
 20
-25.136
 30
0.0
 10
24.2011
 20
-25.136
 30
0.0
 10
24.2317
 20
-25.058
 30
0.0
 10
24.2467
 20
-24.9733
 30
0.0
 10
24.2467
 20
-24.8825
 30
0.0
 10
24.2467
 20
-24.8825
 30
0.0
 10
24.2467
 20
-24.6821
 30
0.0
 10
24.1762
 20
-24.517
 30
0.0
 10
24.0346
 20
-24.3863
 30
0.0
 10
24.0346
 20
-24.3863
 30
0.0
 10
23.893
 20
-24.256
 30
0.0
 10
23.6945
 20
-24.1906
 30
0.0
 10
23.4391
 20
-24.1906
 30
0.0
 10
23.4391
 20
-24.1906
 30
0.0
 10
23.2482
 20
-24.1906
 30
0.0
 10
23.0793
 20
-24.2296
 30
0.0
 10
22.9335
 20
-24.3077
 30
0.0
  0
SPLINE
  5
CE
330
1F
100
AcDbEntity
  8
DEFAULT_1
 62
   250
100
AcDbSpline
210
0.0
220
0.0
230
1.0
 70
    11
 71
     3
 72
    48
 73
    44
 74
     0
 42
0.0000000001
 43
0.0000000001
 40
0.0
 40
0.0
 40
0.0
 40
0.0
 40
0.0833333333333333
 40
0.0833333333333333
 40
0.0833333333333333
 40
0.0833333333333333
 40
0.1666666666666667
 40
0.1666666666666667
 40
0.1666666666666667
 40
0.1666666666666667
 40
0.25
 40
0.25
 40
0.25
 40
0.25
 40
0.3333333333333333
 40
0.3333333333333333
 40
0.3333333333333333
 40
0.3333333333333333
 40
0.4166666666666667
 40
0.4166666666666667
 40
0.4166666666666667
 40
0.4166666666666667
 40
0.5
 40
0.5
 40
0.5
 40
0.5
 40
0.5833333333333334
 40
0.5833333333333334
 40
0.5833333333333334
 40
0.5833333333333334
 40
0.6666666666666666
 40
0.6666666666666666
 40
0.6666666666666666
 40
0.6666666666666666
 40
0.75
 40
0.75
 40
0.75
 40
0.75
 40
0.8333333333333334
 40
0.8333333333333334
 40
0.8333333333333334
 40
0.8333333333333334
 40
1.0
 40
1.0
 40
1.0
 40
1.0
 10
24.441
 20
-22.8708
 30
0.0
 10
24.441
 20
-22.8708
 30
0.0
 10
23.9575
 20
-22.8708
 30
0.0
 10
23.9575
 20
-22.8708
 30
0.0
 10
23.9575
 20
-22.8708
 30
0.0
 10
23.9575
 20
-22.8708
 30
0.0
 10
23.9575
 20
-23.7471
 30
0.0
 10
23.9575
 20
-23.7471
 30
0.0
 10
23.9575
 20
-23.7471
 30
0.0
 10
23.9575
 20
-23.7471
 30
0.0
 10
23.7298
 20
-23.7471
 30
0.0
 10
23.7298
 20
-23.7471
 30
0.0
 10
23.7298
 20
-23.7471
 30
0.0
 10
23.7298
 20
-23.7471
 30
0.0
 10
22.4208
 20
-22.8251
 30
0.0
 10
22.4208
 20
-22.8251
 30
0.0
 10
22.4208
 20
-22.8251
 30
0.0
 10
22.4208
 20
-22.8251
 30
0.0
 10
22.4208
 20
-22.6224
 30
0.0
 10
22.4208
 20
-22.6224
 30
0.0
 10
22.4208
 20
-22.6224
 30
0.0
 10
22.4208
 20
-22.6224
 30
0.0
 10
23.7298
 20
-22.6224
 30
0.0
 10
23.7298
 20
-22.6224
 30
0.0
 10
23.7298
 20
-22.6224
 30
0.0
 10
23.7298
 20
-22.6224
 30
0.0
 10
23.7298
 20
-22.3496
 30
0.0
 10
23.7298
 20
-22.3496
 30
0.0
 10
23.7298
 20
-22.3496
 30
0.0
 10
23.7298
 20
-22.3496
 30
0.0
 10
23.9575
 20
-22.3496
 30
0.0
 10
23.9575
 20
-22.3496
 30
0.0
 10
23.9575
 20
-22.3496
 30
0.0
 10
23.9575
 20
-22.3496
 30
0.0
 10
23.9575
 20
-22.6224
 30
0.0
 10
23.9575
 20
-22.6224
 30
0.0
 10
23.9575
 20
-22.6224
 30
0.0
 10
23.9575
 20
-22.6224
 30
0.0
 10
24.441
 20
-22.6224
 30
0.0
 10
24.441
 20
-22.6224
 30
0.0
 10
24.441
 20
-22.6224
 30
0.0
 10
24.441
 20
-22.6224
 30
0.0
 10
24.441
 20
-22.8708
 30
0.0
 10
24.441
 20
-22.8708
 30
0.0
  0
SPLINE
  5
CF
330
1F
100
AcDbEntity
  8
DEFAULT_1
 62
   250
100
AcDbSpline
210
0.0
220
0.0
230
1.0
 70
    11
 71
     3
 72
    16
 73
    12
 74
     0
 42
0.0000000001
 43
0.0000000001
 40
0.0
 40
0.0
 40
0.0
 40
0.0
 40
0.25
 40
0.25
 40
0.25
 40
0.25
 40
0.5
 40
0.5
 40
0.5
 40
0.5
 40
1.0
 40
1.0
 40
1.0
 40
1.0
 10
23.7298
 20
-22.8708
 30
0.0
 10
23.7298
 20
-22.8708
 30
0.0
 10
22.8192
 20
-22.8708
 30
0.0
 10
22.8192
 20
-22.8708
 30
0.0
 10
22.8192
 20
-22.8708
 30
0.0
 10
22.8192
 20
-22.8708
 30
0.0
 10
23.7298
 20
-23.5029
 30
0.0
 10
23.7298
 20
-23.5029
 30
0.0
 10
23.7298
 20
-23.5029
 30
0.0
 10
23.7298
 20
-23.5029
 30
0.0
 10
23.7298
 20
-22.8708
 30
0.0
 10
23.7298
 20
-22.8708
 30
0.0
  0
SPLINE
  5
D0
330
1F
100
AcDbEntity
  8
DEFAULT_1
 62
   250
100
AcDbSpline
210
0.0
220
0.0
230
1.0
 70
    11
 71
     3
 72
    52
 73
    48
 74
     0
 42
0.0000000001
 43
0.0000000001
 40
0.0
 40
0.0
 40
0.0
 40
0.0
 40
0.0769230769230769
 40
0.0769230769230769
 40
0.0769230769230769
 40
0.0769230769230769
 40
0.1538461538461539
 40
0.1538461538461539
 40
0.1538461538461539
 40
0.1538461538461539
 40
0.2307692307692308
 40
0.2307692307692308
 40
0.2307692307692308
 40
0.2307692307692308
 40
0.3076923076923077
 40
0.3076923076923077
 40
0.3076923076923077
 40
0.3076923076923077
 40
0.3846153846153846
 40
0.3846153846153846
 40
0.3846153846153846
 40
0.3846153846153846
 40
0.4615384615384616
 40
0.4615384615384616
 40
0.4615384615384616
 40
0.4615384615384616
 40
0.5384615384615384
 40
0.5384615384615384
 40
0.5384615384615384
 40
0.5384615384615384
 40
0.6153846153846154
 40
0.6153846153846154
 40
0.6153846153846154
 40
0.6153846153846154
 40
0.6923076923076923
 40
0.6923076923076923
 40
0.6923076923076923
 40
0.6923076923076923
 40
0.7692307692307693
 40
0.7692307692307693
 40
0.7692307692307693
 40
0.7692307692307693
 40
0.8461538461538461
 40
0.8461538461538461
 40
0.8461538461538461
 40
0.8461538461538461
 40
1.0
 40
1.0
 40
1.0
 40
1.0
 10
23.4448
 20
-22.0961
 30
0.0
 10
23.2058
 20
-22.0961
 30
0.0
 10
23.0134
 20
-22.0716
 30
0.0
 10
22.8681
 20
-22.0222
 30
0.0
 10
22.8681
 20
-22.0222
 30
0.0
 10
22.7223
 20
-21.9733
 30
0.0
 10
22.6099
 20
-21.8999
 30
0.0
 10
22.5308
 20
-21.803
 30
0.0
 10
22.5308
 20
-21.803
 30
0.0
 10
22.4518
 20
-21.7061
 30
0.0
 10
22.4123
 20
-21.5843
 30
0.0
 10
22.4123
 20
-21.4376
 30
0.0
 10
22.4123
 20
-21.4376
 30
0.0
 10
22.4123
 20
-21.3289
 30
0.0
 10
22.4344
 20
-21.2339
 30
0.0
 10
22.4782
 20
-21.1521
 30
0.0
 10
22.4782
 20
-21.1521
 30
0.0
 10
22.5214
 20
-21.0702
 30
0.0
 10
22.5845
 20
-21.0029
 30
0.0
 10
22.6668
 20
-20.9493
 30
0.0
 10
22.6668
 20
-20.9493
 30
0.0
 10
22.7491
 20
-20.8962
 30
0.0
 10
22.8493
 20
-20.8543
 30
0.0
 10
22.9673
 20
-20.8242
 30
0.0
 10
22.9673
 20
-20.8242
 30
0.0
 10
23.0854
 20
-20.7936
 30
0.0
 10
23.2444
 20
-20.7786
 30
0.0
 10
23.4448
 20
-20.7786
 30
0.0
 10
23.4448
 20
-20.7786
 30
0.0
 10
23.6818
 20
-20.7786
 30
0.0
 10
23.8728
 20
-20.803
 30
0.0
 10
24.0186
 20
-20.8515
 30
0.0
 10
24.0186
 20
-20.8515
 30
0.0
 10
24.1644
 20
-20.9004
 30
0.0
 10
24.2768
 20
-20.9733
 30
0.0
 10
24.3563
 20
-21.0702
 30
0.0
 10
24.3563
 20
-21.0702
 30
0.0
 10
24.4358
 20
-21.1671
 30
0.0
 10
24.4753
 20
-21.2894
 30
0.0
 10
24.4753
 20
-21.4376
 30
0.0
 10
24.4753
 20
-21.4376
 30
0.0
 10
24.4753
 20
-21.6323
 30
0.0
 10
24.4057
 20
-21.7852
 30
0.0
 10
24.266
 20
-21.8962
 30
0.0
 10
24.266
 20
-21.8962
 30
0.0
 10
24.0981
 20
-22.0293
 30
0.0
 10
23.8239
 20
-22.0961
 30
0.0
 10
23.4448
 20
-22.0961
 30
0.0
  0
SPLINE
  5
D1
330
1F
100
AcDbEntity
  8
DEFAULT_1
 62
   250
100
AcDbSpline
210
0.0
220
0.0
230
1.0
 70
    11
 71
     3
 72
    36
 73
    32
 74
     0
 42
0.0000000001
 43
0.0000000001
 40
0.0
 40
0.0
 40
0.0
 40
0.0
 40
0.1111111111111111
 40
0.1111111111111111
 40
0.1111111111111111
 40
0.1111111111111111
 40
0.2222222222222222
 40
0.2222222222222222
 40
0.2222222222222222
 40
0.2222222222222222
 40
0.3333333333333333
 40
0.3333333333333333
 40
0.3333333333333333
 40
0.3333333333333333
 40
0.4444444444444444
 40
0.4444444444444444
 40
0.4444444444444444
 40
0.4444444444444444
 40
0.5555555555555556
 40
0.5555555555555556
 40
0.5555555555555556
 40
0.5555555555555556
 40
0.6666666666666666
 40
0.6666666666666666
 40
0.6666666666666666
 40
0.6666666666666666
 40
0.7777777777777778
 40
0.7777777777777778
 40
0.7777777777777778
 40
0.7777777777777778
 40
1.0
 40
1.0
 40
1.0
 40
1.0
 10
23.4448
 20
-21.8411
 30
0.0
 10
23.7764
 20
-21.8411
 30
0.0
 10
23.997
 20
-21.8021
 30
0.0
 10
24.107
 20
-21.7245
 30
0.0
 10
24.107
 20
-21.7245
 30
0.0
 10
24.2166
 20
-21.6469
 30
0.0
 10
24.2717
 20
-21.5514
 30
0.0
 10
24.2717
 20
-21.4376
 30
0.0
 10
24.2717
 20
-21.4376
 30
0.0
 10
24.2717
 20
-21.3233
 30
0.0
 10
24.2162
 20
-21.2278
 30
0.0
 10
24.1061
 20
-21.1502
 30
0.0
 10
24.1061
 20
-21.1502
 30
0.0
 10
23.996
 20
-21.0726
 30
0.0
 10
23.7754
 20
-21.0335
 30
0.0
 10
23.4448
 20
-21.0335
 30
0.0
 10
23.4448
 20
-21.0335
 30
0.0
 10
23.1122
 20
-21.0335
 30
0.0
 10
22.8911
 20
-21.0726
 30
0.0
 10
22.782
 20
-21.1502
 30
0.0
 10
22.782
 20
-21.1502
 30
0.0
 10
22.6724
 20
-21.2278
 30
0.0
 10
22.6179
 20
-21.3242
 30
0.0
 10
22.6179
 20
-21.4399
 30
0.0
 10
22.6179
 20
-21.4399
 30
0.0
 10
22.6179
 20
-21.5542
 30
0.0
 10
22.6663
 20
-21.645
 30
0.0
 10
22.7627
 20
-21.7132
 30
0.0
 10
22.7627
 20
-21.7132
 30
0.0
 10
22.8855
 20
-21.7983
 30
0.0
 10
23.1132
 20
-21.8411
 30
0.0
 10
23.4448
 20
-21.8411
 30
0.0
  0
SPLINE
  5
D2
330
1F
100
AcDbEntity
  8
DEFAULT_1
 62
   250
100
AcDbSpline
210
0.0
220
0.0
230
1.0
 70
    11
 71
     3
 72
    20
 73
    16
 74
     0
 42
0.0000000001
 43
0.0000000001
 40
0.0
 40
0.0
 40
0.0
 40
0.0
 40
0.2
 40
0.2
 40
0.2
 40
0.2
 40
0.4
 40
0.4
 40
0.4
 40
0.4
 40
0.6
 40
0.6
 40
0.6
 40
0.6
 40
1.0
 40
1.0
 40
1.0
 40
1.0
 10
24.8687
 20
-20.6873
 30
0.0
 10
24.8687
 20
-20.6873
 30
0.0
 10
25.3098
 20
-17.5623
 30
0.0
 10
25.3098
 20
-17.5623
 30
0.0
 10
25.3098
 20
-17.5623
 30
0.0
 10
25.3098
 20
-17.5623
 30
0.0
 10
25.4077
 20
-17.5623
 30
0.0
 10
25.4077
 20
-17.5623
 30
0.0
 10
25.4077
 20
-17.5623
 30
0.0
 10
25.4077
 20
-17.5623
 30
0.0
 10
25.8781
 20
-20.6873
 30
0.0
 10
25.8781
 20
-20.6873
 30
0.0
 10
25.8781
 20
-20.6873
 30
0.0
 10
25.8781
 20
-20.6873
 30
0.0
 10
24.8687
 20
-20.6873
 30
0.0
 10
24.8687
 20
-20.6873
 30
0.0
  0
SPLINE
  5
D3
330
1F
100
AcDbEntity
  8
DEFAULT_1
 62
   250
100
AcDbSpline
210
0.0
220
0.0
230
1.0
 70
    11
 71
     3
 72
    20
 73
    16
 74
     0
 42
0.0000000001
 43
0.0000000001
 40
0.0
 40
0.0
 40
0.0
 40
0.0
 40
0.2
 40
0.2
 40
0.2
 40
0.2
 40
0.4
 40
0.4
 40
0.4
 40
0.4
 40
0.6
 40
0.6
 40
0.6
 40
0.6
 40
1.0
 40
1.0
 40
1.0
 40
1.0
 10
25.8873
 20
-26.0658
 30
0.0
 10
25.8873
 20
-26.0658
 30
0.0
 10
25.4463
 20
-29.1908
 30
0.0
 10
25.4463
 20
-29.1908
 30
0.0
 10
25.4463
 20
-29.1908
 30
0.0
 10
25.4463
 20
-29.1908
 30
0.0
 10
25.3483
 20
-29.1908
 30
0.0
 10
25.3483
 20
-29.1908
 30
0.0
 10
25.3483
 20
-29.1908
 30
0.0
 10
25.3483
 20
-29.1908
 30
0.0
 10
24.878
 20
-26.0658
 30
0.0
 10
24.878
 20
-26.0658
 30
0.0
 10
24.878
 20
-26.0658
 30
0.0
 10
24.878
 20
-26.0658
 30
0.0
 10
25.8873
 20
-26.0658
 30
0.0
 10
25.8873
 20
-26.0658
 30
0.0
  0
SPLINE
  5
D4
330
1F
100
AcDbEntity
  8
DEFAULT_1
 62
   250
100
AcDbSpline
210
0.0
220
0.0
230
1.0
 70
    24
 71
     3
 72
     8
 73
     4
 74
     0
 42
0.0000000001
 43
0.0000000001
 40
0.0
 40
0.0
 40
0.0
 40
0.0
 40
1.0
 40
1.0
 40
1.0
 40
1.0
 10
14.9849
 20
31.0361
 30
0.0
 10
14.9849
 20
31.0361
 30
0.0
 10
-18.0185
 20
31.0361
 30
0.0
 10
-18.0185
 20
31.0361
 30
0.0
  0
SPLINE
  5
D5
330
1F
100
AcDbEntity
  8
DEFAULT_1
 62
   250
100
AcDbSpline
210
0.0
220
0.0
230
1.0
 70
    11
 71
     3
 72
    84
 73
    80
 74
     0
 42
0.0000000001
 43
0.0000000001
 40
0.0
 40
0.0
 40
0.0
 40
0.0
 40
0.0476190476190476
 40
0.0476190476190476
 40
0.0476190476190476
 40
0.0476190476190476
 40
0.0952380952380952
 40
0.0952380952380952
 40
0.0952380952380952
 40
0.0952380952380952
 40
0.1428571428571428
 40
0.1428571428571428
 40
0.1428571428571428
 40
0.1428571428571428
 40
0.1904761904761905
 40
0.1904761904761905
 40
0.1904761904761905
 40
0.1904761904761905
 40
0.2380952380952381
 40
0.2380952380952381
 40
0.2380952380952381
 40
0.2380952380952381
 40
0.2857142857142857
 40
0.2857142857142857
 40
0.2857142857142857
 40
0.2857142857142857
 40
0.3333333333333333
 40
0.3333333333333333
 40
0.3333333333333333
 40
0.3333333333333333
 40
0.3809523809523809
 40
0.3809523809523809
 40
0.3809523809523809
 40
0.3809523809523809
 40
0.4285714285714285
 40
0.4285714285714285
 40
0.4285714285714285
 40
0.4285714285714285
 40
0.4761904761904762
 40
0.4761904761904762
 40
0.4761904761904762
 40
0.4761904761904762
 40
0.5238095238095238
 40
0.5238095238095238
 40
0.5238095238095238
 40
0.5238095238095238
 40
0.5714285714285714
 40
0.5714285714285714
 40
0.5714285714285714
 40
0.5714285714285714
 40
0.6190476190476191
 40
0.6190476190476191
 40
0.6190476190476191
 40
0.6190476190476191
 40
0.6666666666666666
 40
0.6666666666666666
 40
0.6666666666666666
 40
0.6666666666666666
 40
0.7142857142857143
 40
0.7142857142857143
 40
0.7142857142857143
 40
0.7142857142857143
 40
0.7619047619047619
 40
0.7619047619047619
 40
0.7619047619047619
 40
0.7619047619047619
 40
0.8095238095238095
 40
0.8095238095238095
 40
0.8095238095238095
 40
0.8095238095238095
 40
0.8571428571428571
 40
0.8571428571428571
 40
0.8571428571428571
 40
0.8571428571428571
 40
0.9047619047619048
 40
0.9047619047619048
 40
0.9047619047619048
 40
0.9047619047619048
 40
1.0
 40
1.0
 40
1.0
 40
1.0
 10
-1.9584
 20
33.3779
 30
0.0
 10
-1.9584
 20
33.3779
 30
0.0
 10
-1.727
 20
33.637
 30
0.0
 10
-1.727
 20
33.637
 30
0.0
 10
-1.727
 20
33.637
 30
0.0
 10
-1.727
 20
33.637
 30
0.0
 10
-1.5906
 20
33.5213
 30
0.0
 10
-1.5906
 20
33.5213
 30
0.0
 10
-1.5906
 20
33.5213
 30
0.0
 10
-1.5906
 20
33.5213
 30
0.0
 10
-1.8328
 20
33.2485
 30
0.0
 10
-1.8328
 20
33.2485
 30
0.0
 10
-1.8328
 20
33.2485
 30
0.0
 10
-1.7538
 20
33.1309
 30
0.0
 10
-1.7007
 20
33.0279
 30
0.0
 10
-1.6729
 20
32.94
 30
0.0
 10
-1.6729
 20
32.94
 30
0.0
 10
-1.6362
 20
32.8242
 30
0.0
 10
-1.6179
 20
32.6944
 30
0.0
 10
-1.6179
 20
32.5514
 30
0.0
 10
-1.6179
 20
32.5514
 30
0.0
 10
-1.6179
 20
32.3445
 30
0.0
 10
-1.6597
 20
32.1601
 30
0.0
 10
-1.7435
 20
31.9988
 30
0.0
 10
-1.7435
 20
31.9988
 30
0.0
 10
-1.8272
 20
31.8369
 30
0.0
 10
-1.9443
 20
31.7147
 30
0.0
 10
-2.0953
 20
31.6319
 30
0.0
 10
-2.0953
 20
31.6319
 30
0.0
 10
-2.2468
 20
31.5496
 30
0.0
 10
-2.4071
 20
31.5082
 30
0.0
 10
-2.5769
 20
31.5082
 30
0.0
 10
-2.5769
 20
31.5082
 30
0.0
 10
-2.7039
 20
31.5082
 30
0.0
 10
-2.8187
 20
31.526
 30
0.0
 10
-2.9217
 20
31.5618
 30
0.0
 10
-2.9217
 20
31.5618
 30
0.0
 10
-3.0007
 20
31.5895
 30
0.0
 10
-3.0929
 20
31.6422
 30
0.0
 10
-3.1988
 20
31.7203
 30
0.0
 10
-3.1988
 20
31.7203
 30
0.0
 10
-3.1988
 20
31.7203
 30
0.0
 10
-3.4302
 20
31.4611
 30
0.0
 10
-3.4302
 20
31.4611
 30
0.0
 10
-3.4302
 20
31.4611
 30
0.0
 10
-3.4302
 20
31.4611
 30
0.0
 10
-3.5666
 20
31.5768
 30
0.0
 10
-3.5666
 20
31.5768
 30
0.0
 10
-3.5666
 20
31.5768
 30
0.0
 10
-3.5666
 20
31.5768
 30
0.0
 10
-3.3239
 20
31.8482
 30
0.0
 10
-3.3239
 20
31.8482
 30
0.0
 10
-3.3239
 20
31.8482
 30
0.0
 10
-3.4142
 20
31.9851
 30
0.0
 10
-3.4744
 20
32.1022
 30
0.0
 10
-3.5045
 20
32.1991
 30
0.0
 10
-3.5045
 20
32.1991
 30
0.0
 10
-3.5346
 20
32.296
 30
0.0
 10
-3.5501
 20
32.4127
 30
0.0
 10
-3.5501
 20
32.5486
 30
0.0
 10
-3.5501
 20
32.5486
 30
0.0
 10
-3.5501
 20
32.756
 30
0.0
 10
-3.5087
 20
32.9409
 30
0.0
 10
-3.426
 20
33.1032
 30
0.0
 10
-3.426
 20
33.1032
 30
0.0
 10
-3.3432
 20
33.2655
 30
0.0
 10
-3.2275
 20
33.3882
 30
0.0
 10
-3.0779
 20
33.4719
 30
0.0
 10
-3.0779
 20
33.4719
 30
0.0
 10
-2.9288
 20
33.5552
 30
0.0
 10
-2.7627
 20
33.5971
 30
0.0
 10
-2.5798
 20
33.5971
 30
0.0
 10
-2.5798
 20
33.5971
 30
0.0
 10
-2.4565
 20
33.5971
 30
0.0
 10
-2.3488
 20
33.5811
 30
0.0
 10
-2.2566
 20
33.5481
 30
0.0
 10
-2.2566
 20
33.5481
 30
0.0
 10
-2.1644
 20
33.5157
 30
0.0
 10
-2.0647
 20
33.4588
 30
0.0
 10
-1.9584
 20
33.3779
 30
0.0
  0
SPLINE
  5
D6
330
1F
100
AcDbEntity
  8
DEFAULT_1
 62
   250
100
AcDbSpline
210
0.0
220
0.0
230
1.0
 70
    11
 71
     3
 72
    32
 73
    28
 74
     0
 42
0.0000000001
 43
0.0000000001
 40
0.0
 40
0.0
 40
0.0
 40
0.0
 40
0.125
 40
0.125
 40
0.125
 40
0.125
 40
0.25
 40
0.25
 40
0.25
 40
0.25
 40
0.375
 40
0.375
 40
0.375
 40
0.375
 40
0.5
 40
0.5
 40
0.5
 40
0.5
 40
0.625
 40
0.625
 40
0.625
 40
0.625
 40
0.75
 40
0.75
 40
0.75
 40
0.75
 40
1.0
 40
1.0
 40
1.0
 40
1.0
 10
-2.1235
 20
33.1921
 30
0.0
 10
-2.2101
 20
33.2598
 30
0.0
 10
-2.2858
 20
33.3064
 30
0.0
 10
-2.3502
 20
33.3313
 30
0.0
 10
-2.3502
 20
33.3313
 30
0.0
 10
-2.4151
 20
33.3558
 30
0.0
 10
-2.4913
 20
33.3685
 30
0.0
 10
-2.5784
 20
33.3685
 30
0.0
 10
-2.5784
 20
33.3685
 30
0.0
 10
-2.7797
 20
33.3685
 30
0.0
 10
-2.9457
 20
33.3003
 30
0.0
 10
-3.0774
 20
33.1639
 30
0.0
 10
-3.0774
 20
33.1639
 30
0.0
 10
-3.2087
 20
33.0274
 30
0.0
 10
-3.2745
 20
32.8238
 30
0.0
 10
-3.2745
 20
32.5524
 30
0.0
 10
-3.2745
 20
32.5524
 30
0.0
 10
-3.2745
 20
32.4461
 30
0.0
 10
-3.2642
 20
32.3515
 30
0.0
 10
-3.2439
 20
32.2687
 30
0.0
 10
-3.2439
 20
32.2687
 30
0.0
 10
-3.2293
 20
32.2071
 30
0.0
 10
-3.1988
 20
32.1314
 30
0.0
 10
-3.1517
 20
32.0416
 30
0.0
 10
-3.1517
 20
32.0416
 30
0.0
 10
-3.1517
 20
32.0416
 30
0.0
 10
-2.1235
 20
33.1921
 30
0.0
 10
-2.1235
 20
33.1921
 30
0.0
  0
SPLINE
  5
D7
330
1F
100
AcDbEntity
  8
DEFAULT_1
 62
   250
100
AcDbSpline
210
0.0
220
0.0
230
1.0
 70
    11
 71
     3
 72
    28
 73
    24
 74
     0
 42
0.0000000001
 43
0.0000000001
 40
0.0
 40
0.0
 40
0.0
 40
0.0
 40
0.1428571428571428
 40
0.1428571428571428
 40
0.1428571428571428
 40
0.1428571428571428
 40
0.2857142857142857
 40
0.2857142857142857
 40
0.2857142857142857
 40
0.2857142857142857
 40
0.4285714285714285
 40
0.4285714285714285
 40
0.4285714285714285
 40
0.4285714285714285
 40
0.5714285714285714
 40
0.5714285714285714
 40
0.5714285714285714
 40
0.5714285714285714
 40
0.7142857142857143
 40
0.7142857142857143
 40
0.7142857142857143
 40
0.7142857142857143
 40
1.0
 40
1.0
 40
1.0
 40
1.0
 10
-2.0106
 20
33.05
 30
0.0
 10
-2.0106
 20
33.05
 30
0.0
 10
-3.0346
 20
31.9037
 30
0.0
 10
-3.0346
 20
31.9037
 30
0.0
 10
-3.0346
 20
31.9037
 30
0.0
 10
-2.9641
 20
31.8459
 30
0.0
 10
-2.8987
 20
31.8054
 30
0.0
 10
-2.8389
 20
31.7824
 30
0.0
 10
-2.8389
 20
31.7824
 30
0.0
 10
-2.7609
 20
31.7518
 30
0.0
 10
-2.6762
 20
31.7368
 30
0.0
 10
-2.5854
 20
31.7368
 30
0.0
 10
-2.5854
 20
31.7368
 30
0.0
 10
-2.385
 20
31.7368
 30
0.0
 10
-2.2199
 20
31.8073
 30
0.0
 10
-2.0892
 20
31.9489
 30
0.0
 10
-2.0892
 20
31.9489
 30
0.0
 10
-1.9589
 20
32.0905
 30
0.0
 10
-1.8935
 20
32.289
 30
0.0
 10
-1.8935
 20
32.5444
 30
0.0
 10
-1.8935
 20
32.5444
 30
0.0
 10
-1.8935
 20
32.7353
 30
0.0
 10
-1.9325
 20
32.9042
 30
0.0
 10
-2.0106
 20
33.05
 30
0.0
  0
SPLINE
  5
D8
330
1F
100
AcDbEntity
  8
DEFAULT_1
 62
   250
100
AcDbSpline
210
0.0
220
0.0
230
1.0
 70
    11
 71
     3
 72
    40
 73
    36
 74
     0
 42
0.0000000001
 43
0.0000000001
 40
0.0
 40
0.0
 40
0.0
 40
0.0
 40
0.1
 40
0.1
 40
0.1
 40
0.1
 40
0.2
 40
0.2
 40
0.2
 40
0.2
 40
0.3
 40
0.3
 40
0.3
 40
0.3
 40
0.4
 40
0.4
 40
0.4
 40
0.4
 40
0.5
 40
0.5
 40
0.5
 40
0.5
 40
0.6
 40
0.6
 40
0.6
 40
0.6
 40
0.7
 40
0.7
 40
0.7
 40
0.7
 40
0.8
 40
0.8
 40
0.8
 40
0.8
 40
1.0
 40
1.0
 40
1.0
 40
1.0
 10
-0.4344
 20
31.5425
 30
0.0
 10
-0.4344
 20
31.5425
 30
0.0
 10
-0.6823
 20
31.5425
 30
0.0
 10
-0.6823
 20
31.5425
 30
0.0
 10
-0.6823
 20
31.5425
 30
0.0
 10
-0.6823
 20
31.5425
 30
0.0
 10
-0.6823
 20
33.1229
 30
0.0
 10
-0.6823
 20
33.1229
 30
0.0
 10
-0.6823
 20
33.1229
 30
0.0
 10
-0.7421
 20
33.066
 30
0.0
 10
-0.8201
 20
33.0091
 30
0.0
 10
-0.917
 20
32.9522
 30
0.0
 10
-0.917
 20
32.9522
 30
0.0
 10
-1.0144
 20
32.8953
 30
0.0
 10
-1.1014
 20
32.8525
 30
0.0
 10
-1.1786
 20
32.8242
 30
0.0
 10
-1.1786
 20
32.8242
 30
0.0
 10
-1.1786
 20
32.8242
 30
0.0
 10
-1.1786
 20
33.0637
 30
0.0
 10
-1.1786
 20
33.0637
 30
0.0
 10
-1.1786
 20
33.0637
 30
0.0
 10
-1.0398
 20
33.129
 30
0.0
 10
-0.9184
 20
33.2081
 30
0.0
 10
-0.8145
 20
33.3007
 30
0.0
 10
-0.8145
 20
33.3007
 30
0.0
 10
-0.711
 20
33.3939
 30
0.0
 10
-0.6372
 20
33.4837
 30
0.0
 10
-0.5939
 20
33.5712
 30
0.0
 10
-0.5939
 20
33.5712
 30
0.0
 10
-0.5939
 20
33.5712
 30
0.0
 10
-0.4344
 20
33.5712
 30
0.0
 10
-0.4344
 20
33.5712
 30
0.0
 10
-0.4344
 20
33.5712
 30
0.0
 10
-0.4344
 20
33.5712
 30
0.0
 10
-0.4344
 20
31.5425
 30
0.0
 10
-0.4344
 20
31.5425
 30
0.0
  0
SPLINE
  5
D9
330
1F
100
AcDbEntity
  8
DEFAULT_1
 62
   250
100
AcDbSpline
210
0.0
220
0.0
230
1.0
 70
    11
 71
     3
 72
    40
 73
    36
 74
     0
 42
0.0000000001
 43
0.0000000001
 40
0.0
 40
0.0
 40
0.0
 40
0.0
 40
0.1
 40
0.1
 40
0.1
 40
0.1
 40
0.2
 40
0.2
 40
0.2
 40
0.2
 40
0.3
 40
0.3
 40
0.3
 40
0.3
 40
0.4
 40
0.4
 40
0.4
 40
0.4
 40
0.5
 40
0.5
 40
0.5
 40
0.5
 40
0.6
 40
0.6
 40
0.6
 40
0.6
 40
0.7
 40
0.7
 40
0.7
 40
0.7
 40
0.8
 40
0.8
 40
0.8
 40
0.8
 40
1.0
 40
1.0
 40
1.0
 40
1.0
 10
0.9259
 20
31.5425
 30
0.0
 10
0.9259
 20
31.5425
 30
0.0
 10
0.678
 20
31.5425
 30
0.0
 10
0.678
 20
31.5425
 30
0.0
 10
0.678
 20
31.5425
 30
0.0
 10
0.678
 20
31.5425
 30
0.0
 10
0.678
 20
33.1229
 30
0.0
 10
0.678
 20
33.1229
 30
0.0
 10
0.678
 20
33.1229
 30
0.0
 10
0.6182
 20
33.066
 30
0.0
 10
0.5402
 20
33.0091
 30
0.0
 10
0.4433
 20
32.9522
 30
0.0
 10
0.4433
 20
32.9522
 30
0.0
 10
0.3459
 20
32.8953
 30
0.0
 10
0.2589
 20
32.8525
 30
0.0
 10
0.1817
 20
32.8242
 30
0.0
 10
0.1817
 20
32.8242
 30
0.0
 10
0.1817
 20
32.8242
 30
0.0
 10
0.1817
 20
33.0637
 30
0.0
 10
0.1817
 20
33.0637
 30
0.0
 10
0.1817
 20
33.0637
 30
0.0
 10
0.3205
 20
33.129
 30
0.0
 10
0.4419
 20
33.2081
 30
0.0
 10
0.5458
 20
33.3007
 30
0.0
 10
0.5458
 20
33.3007
 30
0.0
 10
0.6493
 20
33.3939
 30
0.0
 10
0.7231
 20
33.4837
 30
0.0
 10
0.7664
 20
33.5712
 30
0.0
 10
0.7664
 20
33.5712
 30
0.0
 10
0.7664
 20
33.5712
 30
0.0
 10
0.9259
 20
33.5712
 30
0.0
 10
0.9259
 20
33.5712
 30
0.0
 10
0.9259
 20
33.5712
 30
0.0
 10
0.9259
 20
33.5712
 30
0.0
 10
0.9259
 20
31.5425
 30
0.0
 10
0.9259
 20
31.5425
 30
0.0
  0
SPLINE
  5
DA
330
1F
100
AcDbEntity
  8
DEFAULT_1
 62
   250
100
AcDbSpline
210
0.0
220
0.0
230
1.0
 70
    11
 71
     3
 72
    92
 73
    88
 74
     0
 42
0.0000000001
 43
0.0000000001
 40
0.0
 40
0.0
 40
0.0
 40
0.0
 40
0.0434782608695652
 40
0.0434782608695652
 40
0.0434782608695652
 40
0.0434782608695652
 40
0.0869565217391304
 40
0.0869565217391304
 40
0.0869565217391304
 40
0.0869565217391304
 40
0.1304347826086956
 40
0.1304347826086956
 40
0.1304347826086956
 40
0.1304347826086956
 40
0.1739130434782609
 40
0.1739130434782609
 40
0.1739130434782609
 40
0.1739130434782609
 40
0.2173913043478261
 40
0.2173913043478261
 40
0.2173913043478261
 40
0.2173913043478261
 40
0.2608695652173913
 40
0.2608695652173913
 40
0.2608695652173913
 40
0.2608695652173913
 40
0.3043478260869565
 40
0.3043478260869565
 40
0.3043478260869565
 40
0.3043478260869565
 40
0.3478260869565217
 40
0.3478260869565217
 40
0.3478260869565217
 40
0.3478260869565217
 40
0.391304347826087
 40
0.391304347826087
 40
0.391304347826087
 40
0.391304347826087
 40
0.4347826086956522
 40
0.4347826086956522
 40
0.4347826086956522
 40
0.4347826086956522
 40
0.4782608695652174
 40
0.4782608695652174
 40
0.4782608695652174
 40
0.4782608695652174
 40
0.5217391304347826
 40
0.5217391304347826
 40
0.5217391304347826
 40
0.5217391304347826
 40
0.5652173913043478
 40
0.5652173913043478
 40
0.5652173913043478
 40
0.5652173913043478
 40
0.6086956521739131
 40
0.6086956521739131
 40
0.6086956521739131
 40
0.6086956521739131
 40
0.6521739130434783
 40
0.6521739130434783
 40
0.6521739130434783
 40
0.6521739130434783
 40
0.6956521739130435
 40
0.6956521739130435
 40
0.6956521739130435
 40
0.6956521739130435
 40
0.7391304347826086
 40
0.7391304347826086
 40
0.7391304347826086
 40
0.7391304347826086
 40
0.782608695652174
 40
0.782608695652174
 40
0.782608695652174
 40
0.782608695652174
 40
0.8260869565217391
 40
0.8260869565217391
 40
0.8260869565217391
 40
0.8260869565217391
 40
0.8695652173913043
 40
0.8695652173913043
 40
0.8695652173913043
 40
0.8695652173913043
 40
0.9130434782608695
 40
0.9130434782608695
 40
0.9130434782608695
 40
0.9130434782608695
 40
1.0
 40
1.0
 40
1.0
 40
1.0
 10
1.5613
 20
32.0717
 30
0.0
 10
1.5613
 20
32.0717
 30
0.0
 10
1.8219
 20
32.0938
 30
0.0
 10
1.8219
 20
32.0938
 30
0.0
 10
1.8219
 20
32.0938
 30
0.0
 10
1.8412
 20
31.9668
 30
0.0
 10
1.8859
 20
31.8718
 30
0.0
 10
1.956
 20
31.8078
 30
0.0
 10
1.956
 20
31.8078
 30
0.0
 10
2.0265
 20
31.7438
 30
0.0
 10
2.1112
 20
31.7118
 30
0.0
 10
2.2104
 20
31.7118
 30
0.0
 10
2.2104
 20
31.7118
 30
0.0
 10
2.3299
 20
31.7118
 30
0.0
 10
2.431
 20
31.757
 30
0.0
 10
2.5133
 20
31.8468
 30
0.0
 10
2.5133
 20
31.8468
 30
0.0
 10
2.5961
 20
31.9371
 30
0.0
 10
2.6375
 20
32.0566
 30
0.0
 10
2.6375
 20
32.2052
 30
0.0
 10
2.6375
 20
32.2052
 30
0.0
 10
2.6375
 20
32.3468
 30
0.0
 10
2.598
 20
32.4583
 30
0.0
 10
2.5185
 20
32.5401
 30
0.0
 10
2.5185
 20
32.5401
 30
0.0
 10
2.439
 20
32.622
 30
0.0
 10
2.3351
 20
32.6629
 30
0.0
 10
2.2062
 20
32.6629
 30
0.0
 10
2.2062
 20
32.6629
 30
0.0
 10
2.1262
 20
32.6629
 30
0.0
 10
2.0543
 20
32.6446
 30
0.0
 10
1.9898
 20
32.6084
 30
0.0
 10
1.9898
 20
32.6084
 30
0.0
 10
1.9254
 20
32.5721
 30
0.0
 10
1.8751
 20
32.5251
 30
0.0
 10
1.8384
 20
32.4672
 30
0.0
 10
1.8384
 20
32.4672
 30
0.0
 10
1.8384
 20
32.4672
 30
0.0
 10
1.6055
 20
32.4973
 30
0.0
 10
1.6055
 20
32.4973
 30
0.0
 10
1.6055
 20
32.4973
 30
0.0
 10
1.6055
 20
32.4973
 30
0.0
 10
1.8012
 20
33.535
 30
0.0
 10
1.8012
 20
33.535
 30
0.0
 10
1.8012
 20
33.535
 30
0.0
 10
1.8012
 20
33.535
 30
0.0
 10
2.8059
 20
33.535
 30
0.0
 10
2.8059
 20
33.535
 30
0.0
 10
2.8059
 20
33.535
 30
0.0
 10
2.8059
 20
33.535
 30
0.0
 10
2.8059
 20
33.2979
 30
0.0
 10
2.8059
 20
33.2979
 30
0.0
 10
2.8059
 20
33.2979
 30
0.0
 10
2.8059
 20
33.2979
 30
0.0
 10
1.9997
 20
33.2979
 30
0.0
 10
1.9997
 20
33.2979
 30
0.0
 10
1.9997
 20
33.2979
 30
0.0
 10
1.9997
 20
33.2979
 30
0.0
 10
1.8906
 20
32.7551
 30
0.0
 10
1.8906
 20
32.7551
 30
0.0
 10
1.8906
 20
32.7551
 30
0.0
 10
2.0119
 20
32.8398
 30
0.0
 10
2.1394
 20
32.8821
 30
0.0
 10
2.2725
 20
32.8821
 30
0.0
 10
2.2725
 20
32.8821
 30
0.0
 10
2.4489
 20
32.8821
 30
0.0
 10
2.5975
 20
32.821
 30
0.0
 10
2.7189
 20
32.6987
 30
0.0
 10
2.7189
 20
32.6987
 30
0.0
 10
2.8402
 20
32.5764
 30
0.0
 10
2.9009
 20
32.4193
 30
0.0
 10
2.9009
 20
32.2274
 30
0.0
 10
2.9009
 20
32.2274
 30
0.0
 10
2.9009
 20
32.0444
 30
0.0
 10
2.8473
 20
31.8863
 30
0.0
 10
2.741
 20
31.7532
 30
0.0
 10
2.741
 20
31.7532
 30
0.0
 10
2.6112
 20
31.59
 30
0.0
 10
2.4343
 20
31.5082
 30
0.0
 10
2.2104
 20
31.5082
 30
0.0
 10
2.2104
 20
31.5082
 30
0.0
 10
2.0265
 20
31.5082
 30
0.0
 10
1.8765
 20
31.5594
 30
0.0
 10
1.7603
 20
31.6624
 30
0.0
 10
1.7603
 20
31.6624
 30
0.0
 10
1.6441
 20
31.7655
 30
0.0
 10
1.5778
 20
31.9019
 30
0.0
 10
1.5613
 20
32.0717
 30
0.0
  0
SPLINE
  5
DB
330
1F
100
AcDbEntity
  8
DEFAULT_1
 62
   250
100
AcDbSpline
210
0.0
220
0.0
230
1.0
 70
    11
 71
     3
 72
    20
 73
    16
 74
     0
 42
0.0000000001
 43
0.0000000001
 40
0.0
 40
0.0
 40
0.0
 40
0.0
 40
0.2
 40
0.2
 40
0.2
 40
0.2
 40
0.4
 40
0.4
 40
0.4
 40
0.4
 40
0.6
 40
0.6
 40
0.6
 40
0.6
 40
1.0
 40
1.0
 40
1.0
 40
1.0
 10
12.0665
 20
31.5408
 30
0.0
 10
12.0665
 20
31.5408
 30
0.0
 10
15.1915
 20
31.0998
 30
0.0
 10
15.1915
 20
31.0998
 30
0.0
 10
15.1915
 20
31.0998
 30
0.0
 10
15.1915
 20
31.0998
 30
0.0
 10
15.1915
 20
31.0018
 30
0.0
 10
15.1915
 20
31.0018
 30
0.0
 10
15.1915
 20
31.0018
 30
0.0
 10
15.1915
 20
31.0018
 30
0.0
 10
12.0665
 20
30.5314
 30
0.0
 10
12.0665
 20
30.5314
 30
0.0
 10
12.0665
 20
30.5314
 30
0.0
 10
12.0665
 20
30.5314
 30
0.0
 10
12.0665
 20
31.5408
 30
0.0
 10
12.0665
 20
31.5408
 30
0.0
  0
SPLINE
  5
DC
330
1F
100
AcDbEntity
  8
DEFAULT_1
 62
   250
100
AcDbSpline
210
0.0
220
0.0
230
1.0
 70
    11
 71
     3
 72
    20
 73
    16
 74
     0
 42
0.0000000001
 43
0.0000000001
 40
0.0
 40
0.0
 40
0.0
 40
0.0
 40
0.2
 40
0.2
 40
0.2
 40
0.2
 40
0.4
 40
0.4
 40
0.4
 40
0.4
 40
0.6
 40
0.6
 40
0.6
 40
0.6
 40
1.0
 40
1.0
 40
1.0
 40
1.0
 10
-15.1374
 20
30.4763
 30
0.0
 10
-15.1374
 20
30.4763
 30
0.0
 10
-18.2625
 20
30.9173
 30
0.0
 10
-18.2625
 20
30.9173
 30
0.0
 10
-18.2625
 20
30.9173
 30
0.0
 10
-18.2625
 20
30.9173
 30
0.0
 10
-18.2625
 20
31.0153
 30
0.0
 10
-18.2625
 20
31.0153
 30
0.0
 10
-18.2625
 20
31.0153
 30
0.0
 10
-18.2625
 20
31.0153
 30
0.0
 10
-15.1374
 20
31.4857
 30
0.0
 10
-15.1374
 20
31.4857
 30
0.0
 10
-15.1374
 20
31.4857
 30
0.0
 10
-15.1374
 20
31.4857
 30
0.0
 10
-15.1374
 20
30.4763
 30
0.0
 10
-15.1374
 20
30.4763
 30
0.0
  0
SPLINE
  5
DD
330
1F
100
AcDbEntity
  8
DEFAULT_1
 62
   250
100
AcDbSpline
210
0.0
220
0.0
230
1.0
 70
    24
 71
     3
 72
     8
 73
     4
 74
     0
 42
0.0000000001
 43
0.0000000001
 40
0.0
 40
0.0
 40
0.0
 40
0.0
 40
1.0
 40
1.0
 40
1.0
 40
1.0
 10
-14.0075
 20
-8.3469
 30
0.0
 10
-14.0075
 20
-8.3469
 30
0.0
 10
10.7946
 20
-7.7077
 30
0.0
 10
10.7946
 20
-7.7077
 30
0.0
  0
SPLINE
  5
DE
330
1F
100
AcDbEntity
  8
DEFAULT_1
 62
   250
100
AcDbSpline
210
0.0
220
0.0
230
1.0
 70
    24
 71
     3
 72
     8
 73
     4
 74
     0
 42
0.0000000001
 43
0.0000000001
 40
0.0
 40
0.0
 40
0.0
 40
0.0
 40
1.0
 40
1.0
 40
1.0
 40
1.0
 10
-13.9324
 20
-7.4445
 30
0.0
 10
-13.9324
 20
-7.4445
 30
0.0
 10
10.8697
 20
-6.8053
 30
0.0
 10
10.8697
 20
-6.8053
 30
0.0
  0
SPLINE
  5
DF
330
1F
100
AcDbEntity
  8
DEFAULT_1
 62
   250
100
AcDbSpline
210
0.0
220
0.0
230
1.0
 70
    24
 71
     3
 72
     8
 73
     4
 74
     0
 42
0.0000000001
 43
0.0000000001
 40
0.0
 40
0.0
 40
0.0
 40
0.0
 40
1.0
 40
1.0
 40
1.0
 40
1.0
 10
-14.0075
 20
-6.3428
 30
0.0
 10
-14.0075
 20
-6.3428
 30
0.0
 10
10.7946
 20
-5.7036
 30
0.0
 10
10.7946
 20
-5.7036
 30
0.0
  0
SPLINE
  5
E0
330
1F
100
AcDbEntity
  8
DEFAULT_1
 62
   250
100
AcDbSpline
210
0.0
220
0.0
230
1.0
 70
    24
 71
     3
 72
     8
 73
     4
 74
     0
 42
0.0000000001
 43
0.0000000001
 40
0.0
 40
0.0
 40
0.0
 40
0.0
 40
1.0
 40
1.0
 40
1.0
 40
1.0
 10
-13.9324
 20
-5.4404
 30
0.0
 10
-13.9324
 20
-5.4404
 30
0.0
 10
10.8697
 20
-4.8012
 30
0.0
 10
10.8697
 20
-4.8012
 30
0.0
  0
SPLINE
  5
E1
330
1F
100
AcDbEntity
  8
DEFAULT_1
 62
   250
100
AcDbSpline
210
0.0
220
0.0
230
1.0
 70
    24
 71
     3
 72
     8
 73
     4
 74
     0
 42
0.0000000001
 43
0.0000000001
 40
0.0
 40
0.0
 40
0.0
 40
0.0
 40
1.0
 40
1.0
 40
1.0
 40
1.0
 10
-14.0075
 20
-4.6659
 30
0.0
 10
-14.0075
 20
-4.6659
 30
0.0
 10
10.7946
 20
-4.0267
 30
0.0
 10
10.7946
 20
-4.0267
 30
0.0
  0
SPLINE
  5
E2
330
1F
100
AcDbEntity
  8
DEFAULT_1
 62
   250
100
AcDbSpline
210
0.0
220
0.0
230
1.0
 70
    24
 71
     3
 72
     8
 73
     4
 74
     0
 42
0.0000000001
 43
0.0000000001
 40
0.0
 40
0.0
 40
0.0
 40
0.0
 40
1.0
 40
1.0
 40
1.0
 40
1.0
 10
-13.9324
 20
-3.7635
 30
0.0
 10
-13.9324
 20
-3.7635
 30
0.0
 10
10.8697
 20
-3.1243
 30
0.0
 10
10.8697
 20
-3.1243
 30
0.0
  0
ENDSEC
  0
SECTION
  2
OBJECTS
  0
DICTIONARY
  5
C
330
0
100
AcDbDictionary
  3
ACAD_GROUP
350
D
  3
ACAD_LAYOUT
350
1A
  3
ACAD_MATERIAL
350
3B
  3
ACAD_MLEADERSTYLE
350
105
  3
ACAD_MLINESTYLE
350
17
  3
ACAD_PLOTSETTINGS
350
19
  3
ACAD_VISUALSTYLE
350
2A
  3
ACDBHEADERROUNDTRIPXREC
350
E3
  3
ACDBVARIABLEDICTIONARY
350
103
  0
DICTIONARY
  5
D
102
{ACAD_REACTORS
330
C
102
}
330
C
100
AcDbDictionary
  0
DICTIONARY
  5
1A
102
{ACAD_REACTORS
330
C
102
}
330
C
100
AcDbDictionary
  0
DICTIONARY
  5
3B
102
{ACAD_REACTORS
330
C
102
}
330
C
100
AcDbDictionary
  3
BYBLOCK
350
3D
  3
BYLAYER
350
3C
  3
GLOBAL
350
3E
  0
DICTIONARY
  5
105
102
{ACAD_REACTORS
330
C
102
}
330
C
100
AcDbDictionary
  0
DICTIONARY
  5
17
102
{ACAD_REACTORS
330
C
102
}
330
C
100
AcDbDictionary
  3
STANDARD
350
18
  0
DICTIONARY
  5
19
102
{ACAD_REACTORS
330
C
102
}
330
C
100
AcDbDictionary
  0
DICTIONARY
  5
2A
102
{ACAD_REACTORS
330
C
102
}
330
C
100
AcDbDictionary
  3
2DWIREFRAME
350
2F
  3
3D_HIDDEN
350
31
  3
3DWIREFRAME
350
30
  3
BASIC
350
32
  3
BRIGHTEN
350
36
  3
COLORCHANGE
350
3A
  3
CONCEPTUAL
350
34
  3
DIM
350
35
  3
FACEPATTERN
350
39
  3
FLAT
350
2B
  3
FLATWITHEDGES
350
2C
  3
GOURAUD
350
2D
  3
GOURAUDWITHEDGES
350
2E
  3
LINEPATTERN
350
38
  3
REALISTIC
350
33
  3
THICKEN
350
37
  0
DICTIONARY
  5
E3
102
{ACAD_REACTORS
330
C
102
}
330
C
100
AcDbDictionary
  3
CEPSNTYPE
350
EC
  3
DIMSTYLEDATA
350
102
  3
FINGERPRINTGUID
350
ED
  3
HYPERLINKBASE
350
E6
  3
INSUNITS
350
EB
  3
LAYOUTDICT
350
E8
  3
LWETCUNION
350
EA
  3
PLOTSETDICT
350
E9
  3
PSVPSCALE
350
EF
  3
PUCSBASE
350
F2
  3
PUCSORGBACK
350
F8
  3
PUCSORGBOTTOM
350
F4
  3
PUCSORGFRONT
350
F7
  3
PUCSORGLEFT
350
F5
  3
PUCSORGRIGHT
350
F6
  3
PUCSORGTOP
350
F3
  3
PUCSORTHOREF
350
F0
  3
PUCSORTHOVIEW
350
F1
  3
STYLESHEET
350
E7
  3
TSTACKALIGN
350
E4
  3
TSTACKSIZE
350
E5
  3
UCSBASE
350
FB
  3
UCSORGBACK
350
101
  3
UCSORGBOTTOM
350
FD
  3
UCSORGFRONT
350
100
  3
UCSORGLEFT
350
FE
  3
UCSORGRIGHT
350
FF
  3
UCSORGTOP
350
FC
  3
UCSORTHOREF
350
F9
  3
UCSORTHOVIEW
350
FA
  3
VERSIONGUID
350
EE
  0
DICTIONARY
  5
103
102
{ACAD_REACTORS
330
C
102
}
330
C
100
AcDbDictionary
  3
DIMASSOC
350
106
  3
HIDETEXT
350
107
  0
MATERIAL
  5
3D
102
{ACAD_REACTORS
330
3B
102
}
102
{ACAD_XDICTIONARY
360
10A
102
}
330
3B
100
AcDbMaterial
  1
ByBlock
  0
MATERIAL
  5
3C
102
{ACAD_REACTORS
330
3B
102
}
102
{ACAD_XDICTIONARY
360
108
102
}
330
3B
100
AcDbMaterial
  1
ByLayer
  0
MATERIAL
  5
3E
102
{ACAD_REACTORS
330
3B
102
}
102
{ACAD_XDICTIONARY
360
10C
102
}
330
3B
100
AcDbMaterial
  1
Global
  0
MLINESTYLE
  5
18
102
{ACAD_REACTORS
330
17
102
}
330
17
100
AcDbMlineStyle
  2
Standard
 70
     0
  3

 62
   256
 51
90.0
 52
90.0
 71
     2
 49
0.5
 62
   256
  6
BYLAYER
 49
-0.5
 62
   256
  6
BYLAYER
  0
ACAD_PROXY_OBJECT
  5
2F
102
{ACAD_REACTORS
330
2A
102
}
330
2A
100
AcDbProxyObject
 90
      499
 91
      501
 93
      436
310
42CC9915DA5C99599C985B595049028333333333333E3BF0000000000000FB0107901411070040501600405405064090741402480A0340
1001
ACAD
1000
AcDbSavedByObjectVersion
1070
     0
  0
ACAD_PROXY_OBJECT
  5
31
102
{ACAD_REACTORS
330
2A
102
}
330
2A
100
AcDbProxyObject
 90
      499
 91
      501
 93
      500
310
424CD108121A5919195B90640502408333333333333E3BF0000000000000FB01079024090700405020000000000001110200405405064090740C02480A0340
1001
ACAD
1000
AcDbSavedByObjectVersion
1070
     0
  0
ACAD_PROXY_OBJECT
  5
30
102
{ACAD_REACTORS
330
2A
102
}
330
2A
100
AcDbProxyObject
 90
      499
 91
      501
 93
      436
310
42CCD915DA5C99599C985B595059028333333333333E3BF0000000000000FB0107901411070040501600405405064090741402480A0340
1001
ACAD
1000
AcDbSavedByObjectVersion
1070
     0
  0
ACAD_PROXY_OBJECT
  5
32
102
{ACAD_REACTORS
330
2A
102
}
330
2A
100
AcDbProxyObject
 90
      499
 91
      501
 93
      388
310
4150985CDA58D07406404333333333333E3BF0000000000000FB0107A41107004050150841D405064090741402480A0350
1001
ACAD
1000
AcDbSavedByObjectVersion
1070
     0
  0
ACAD_PROXY_OBJECT
  5
36
102
{ACAD_REACTORS
330
2A
102
}
330
2A
100
AcDbProxyObject
 90
      499
 91
      501
 93
      428
310
42109C9A59DA1D195B90C409028333333333333E3BF0000000000000FB010790141107004050150841D405064090741402480A029950
1001
ACAD
1000
AcDbSavedByObjectVersion
1070
     0
  0
ACAD_PROXY_OBJECT
  5
3A
102
{ACAD_REACTORS
330
2A
102
}
330
2A
100
AcDbProxyObject
 90
      499
 91
      501
 93
      452
310
42D0DBDB1BDC90DA185B99D95104090240C333333333333E3BF0000000000000FB0108901411070040501508421405064090741402480A0350
1001
ACAD
1000
AcDbSavedByObjectVersion
1070
     0
  0
ACAD_PROXY_OBJECT
  5
34
102
{ACAD_REACTORS
330
2A
102
}
330
2A
100
AcDbProxyObject
 90
      499
 91
      501
 93
      500
310
4290DBDB98D95C1D1D585B10940D028333333333333E3BF0000000000000FB0107902409070040501000000000000111010841D405064090740C02480A0340
1001
ACAD
1000
AcDbSavedByObjectVersion
1070
     0
  0
ACAD_PROXY_OBJECT
  5
35
102
{ACAD_REACTORS
330
2A
102
}
330
2A
100
AcDbProxyObject
 90
      499
 91
      501
 93
      412
310
40D11A5B50B409028333333333333E3BF0000000000000FB010790141107004050150841D405064090741402480A02677FFFFFD0
1001
ACAD
1000
AcDbSavedByObjectVersion
1070
     0
  0
ACAD_PROXY_OBJECT
  5
39
102
{ACAD_REACTORS
330
2A
102
}
330
2A
100
AcDbProxyObject
 90
      499
 91
      501
 93
      444
310
42D19858D95C185D1D195C9B90F409028333333333333E3BF0000000000000FB010790141107004050150841D405064090741402480A0350
1001
ACAD
1000
AcDbSavedByObjectVersion
1070
     0
  0
ACAD_PROXY_OBJECT
  5
2B
102
{ACAD_REACTORS
330
2A
102
}
330
2A
100
AcDbProxyObject
 90
      499
 91
      501
 93
      388
310
41119B185D240901404333333333333E3BF0000000000000F9010740A41107004050150841D405064090741402480A1B50
1001
ACAD
1000
AcDbSavedByObjectVersion
1070
     0
  0
ACAD_PROXY_OBJECT
  5
2C
102
{ACAD_REACTORS
330
2A
102
}
330
2A
100
AcDbProxyObject
 90
      499
 91
      501
 93
      476
310
43519B185D15DA5D1A115919D95CD0140901404333333333333E3BF0000000000000F9010740901411070040501600405405064090741402480A1B50
1001
ACAD
1000
AcDbSavedByObjectVersion
1070
     0
  0
ACAD_PROXY_OBJECT
  5
2D
102
{ACAD_REACTORS
330
2A
102
}
330
2A
100
AcDbProxyObject
 90
      499
 91
      501
 93
      412
310
41D1DBDD5C985D5910240902404333333333333E3BF0000000000000F9010740A411070040501641D405064090741402480A1B50
1001
ACAD
1000
AcDbSavedByObjectVersion
1070
     0
  0
ACAD_PROXY_OBJECT
  5
2E
102
{ACAD_REACTORS
330
2A
102
}
330
2A
100
AcDbProxyObject
 90
      499
 91
      501
 93
      500
310
4411DBDD5C985D5915DA5D1A115919D95CD0340902404333333333333E3BF0000000000000F9010740901411070040501600405405064090741402480A1B50
1001
ACAD
1000
AcDbSavedByObjectVersion
1070
     0
  0
ACAD_PROXY_OBJECT
  5
38
102
{ACAD_REACTORS
330
2A
102
}
330
2A
100
AcDbProxyObject
 90
      499
 91
      501
 93
      444
310
42D31A5B995C185D1D195C9B90E409028333333333333E3BF0000000000000FB010790141107004050750841D405064090741402483A0350
1001
ACAD
1000
AcDbSavedByObjectVersion
1070
     0
  0
ACAD_PROXY_OBJECT
  5
33
102
{ACAD_REACTORS
330
2A
102
}
330
2A
100
AcDbProxyObject
 90
      499
 91
      501
 93
      420
310
425499585B1A5CDD1A58D08409028333333333333E3BF0000000000000FB01079019070040501508421405064090741402480A1B40
1001
ACAD
1000
AcDbSavedByObjectVersion
1070
     0
  0
ACAD_PROXY_OBJECT
  5
37
102
{ACAD_REACTORS
330
2A
102
}
330
2A
100
AcDbProxyObject
 90
      499
 91
      501
 93
      412
310
41D51A1A58DAD95B90D409028333333333333E3BF0000000000000FB010790141107004050150C41D405064090741402480A0350
1001
ACAD
1000
AcDbSavedByObjectVersion
1070
     0
  0
XRECORD
  5
EC
102
{ACAD_REACTORS
330
E3
102
}
330
E3
100
AcDbXrecord
 90
        0
  0
XRECORD
  5
102
102
{ACAD_REACTORS
330
E3
102
}
330
E3
100
AcDbXrecord
1000
DSTYLE
1002
{
1070
   340
340
11
1002
}
  0
XRECORD
  5
ED
102
{ACAD_REACTORS
330
E3
102
}
330
E3
100
AcDbXrecord
  1
{1DE299AE-E657-4B2F-8E4A-89A93A5C755F}
  0
XRECORD
  5
E6
102
{ACAD_REACTORS
330
E3
102
}
330
E3
100
AcDbXrecord
  1

  0
XRECORD
  5
EB
102
{ACAD_REACTORS
330
E3
102
}
330
E3
100
AcDbXrecord
 90
        4
  0
XRECORD
  5
E8
102
{ACAD_REACTORS
330
E3
102
}
330
E3
100
AcDbXrecord
340
1A
  0
XRECORD
  5
EA
102
{ACAD_REACTORS
330
E3
102
}
330
E3
100
AcDbXrecord
 90
    10781
  0
XRECORD
  5
E9
102
{ACAD_REACTORS
330
E3
102
}
330
E3
100
AcDbXrecord
340
19
  0
XRECORD
  5
EF
102
{ACAD_REACTORS
330
E3
102
}
330
E3
100
AcDbXrecord
 40
0.0
  0
XRECORD
  5
F2
102
{ACAD_REACTORS
330
E3
102
}
330
E3
100
AcDbXrecord
340
0
  0
XRECORD
  5
F8
102
{ACAD_REACTORS
330
E3
102
}
330
E3
100
AcDbXrecord
 10
0.0
 20
0.0
 30
0.0
  0
XRECORD
  5
F4
102
{ACAD_REACTORS
330
E3
102
}
330
E3
100
AcDbXrecord
 10
0.0
 20
0.0
 30
0.0
  0
XRECORD
  5
F7
102
{ACAD_REACTORS
330
E3
102
}
330
E3
100
AcDbXrecord
 10
0.0
 20
0.0
 30
0.0
  0
XRECORD
  5
F5
102
{ACAD_REACTORS
330
E3
102
}
330
E3
100
AcDbXrecord
 10
0.0
 20
0.0
 30
0.0
  0
XRECORD
  5
F6
102
{ACAD_REACTORS
330
E3
102
}
330
E3
100
AcDbXrecord
 10
0.0
 20
0.0
 30
0.0
  0
XRECORD
  5
F3
102
{ACAD_REACTORS
330
E3
102
}
330
E3
100
AcDbXrecord
 10
0.0
 20
0.0
 30
0.0
  0
XRECORD
  5
F0
102
{ACAD_REACTORS
330
E3
102
}
330
E3
100
AcDbXrecord
340
0
  0
XRECORD
  5
F1
102
{ACAD_REACTORS
330
E3
102
}
330
E3
100
AcDbXrecord
 70
     0
  0
XRECORD
  5
E7
102
{ACAD_REACTORS
330
E3
102
}
330
E3
100
AcDbXrecord
  1

  0
XRECORD
  5
E4
102
{ACAD_REACTORS
330
E3
102
}
330
E3
100
AcDbXrecord
 90
        1
  0
XRECORD
  5
E5
102
{ACAD_REACTORS
330
E3
102
}
330
E3
100
AcDbXrecord
 90
       70
  0
XRECORD
  5
FB
102
{ACAD_REACTORS
330
E3
102
}
330
E3
100
AcDbXrecord
340
0
  0
XRECORD
  5
101
102
{ACAD_REACTORS
330
E3
102
}
330
E3
100
AcDbXrecord
 10
0.0
 20
0.0
 30
0.0
  0
XRECORD
  5
FD
102
{ACAD_REACTORS
330
E3
102
}
330
E3
100
AcDbXrecord
 10
0.0
 20
0.0
 30
0.0
  0
XRECORD
  5
100
102
{ACAD_REACTORS
330
E3
102
}
330
E3
100
AcDbXrecord
 10
0.0
 20
0.0
 30
0.0
  0
XRECORD
  5
FE
102
{ACAD_REACTORS
330
E3
102
}
330
E3
100
AcDbXrecord
 10
0.0
 20
0.0
 30
0.0
  0
XRECORD
  5
FF
102
{ACAD_REACTORS
330
E3
102
}
330
E3
100
AcDbXrecord
 10
0.0
 20
0.0
 30
0.0
  0
XRECORD
  5
FC
102
{ACAD_REACTORS
330
E3
102
}
330
E3
100
AcDbXrecord
 10
0.0
 20
0.0
 30
0.0
  0
XRECORD
  5
F9
102
{ACAD_REACTORS
330
E3
102
}
330
E3
100
AcDbXrecord
340
0
  0
XRECORD
  5
FA
102
{ACAD_REACTORS
330
E3
102
}
330
E3
100
AcDbXrecord
 70
     0
  0
XRECORD
  5
EE
102
{ACAD_REACTORS
330
E3
102
}
330
E3
100
AcDbXrecord
  1
{FAEB1C32-E019-11D5-929B-00C0DF256EC4}
  0
DICTIONARYVAR
  5
106
102
{ACAD_REACTORS
330
103
102
}
330
103
100
DictionaryVariables
280
     0
  1
2
  0
DICTIONARYVAR
  5
107
102
{ACAD_REACTORS
330
103
102
}
330
103
100
DictionaryVariables
280
     0
  1
1
  0
DICTIONARY
  5
10A
330
3D
100
AcDbDictionary
280
     1
  3
ACAD_XREC_ROUNDTRIP
360
10B
  0
DICTIONARY
  5
108
330
3C
100
AcDbDictionary
280
     1
  3
ACAD_XREC_ROUNDTRIP
360
109
  0
DICTIONARY
  5
10C
330
3E
100
AcDbDictionary
280
     1
  3
ACAD_XREC_ROUNDTRIP
360
10D
  0
XRECORD
  5
10B
102
{ACAD_REACTORS
330
10A
102
}
330
10A
100
AcDbXrecord
102
MATERIAL
148
0.0
149
0.0
149
0.0
 93
        0
 94
      127
282
     0
 72
     1
 77
     1
171
     1
175
     1
179
     1
273
     0
  0
XRECORD
  5
109
102
{ACAD_REACTORS
330
108
102
}
330
108
100
AcDbXrecord
102
MATERIAL
148
0.0
149
0.0
149
0.0
 93
        0
 94
      127
282
     0
 72
     1
 77
     1
171
     1
175
     1
179
     1
273
     0
  0
XRECORD
  5
10D
102
{ACAD_REACTORS
330
10C
102
}
330
10C
100
AcDbXrecord
102
MATERIAL
148
0.0
149
0.0
149
0.0
 93
        0
 94
      127
282
     0
 72
     1
 77
     1
171
     1
175
     1
179
     1
273
     0
  0
ENDSEC
  0
EOF
