  0
SECTION
  2
HEADER
  9
$ACADVER
  1
AC1014
  9
$ACADMAINTVER
 70
     9
  9
$DWGCODEPAGE
  3
ANSI_1250
  9
$INSBASE
 10
0.0
 20
0.0
 30
0.0
  9
$EXTMIN
 10
-30.4539
 20
-12.5879
 30
0.0
  9
$EXTMAX
 10
31.5401
 20
12.4468
 30
0.0
  9
$LIMMIN
 10
0.0
 20
0.0
  9
$LIMMAX
 10
12.0
 20
9.0
  9
$ORTHOMODE
 70
     0
  9
$REGENMODE
 70
     1
  9
$FILLMODE
 70
     1
  9
$QTEXTMODE
 70
     0
  9
$MIRRTEXT
 70
     1
  9
$DRAGMODE
 70
     2
  9
$LTSCALE
 40
1.0
  9
$OSMODE
 70
    37
  9
$ATTMODE
 70
     1
  9
$TEXTSIZE
 40
0.2
  9
$TRACEWID
 40
0.05
  9
$TEXTSTYLE
  7
STANDARD
  9
$CLAYER
  8
0
  9
$CELTYPE
  6
BYLAYER
  9
$CECOLOR
 62
   256
  9
$CELTSCALE
 40
1.0
  9
$DELOBJ
 70
     1
  9
$DISPSILH
 70
     0
  9
$DIMSCALE
 40
1.0
  9
$DIMASZ
 40
0.18
  9
$DIMEXO
 40
0.0625
  9
$DIMDLI
 40
0.38
  9
$DIMRND
 40
0.0
  9
$DIMDLE
 40
0.0
  9
$DIMEXE
 40
0.18
  9
$DIMTP
 40
0.0
  9
$DIMTM
 40
0.0
  9
$DIMTXT
 40
0.18
  9
$DIMCEN
 40
0.09
  9
$DIMTSZ
 40
0.0
  9
$DIMTOL
 70
     0
  9
$DIMLIM
 70
     0
  9
$DIMTIH
 70
     1
  9
$DIMTOH
 70
     1
  9
$DIMSE1
 70
     0
  9
$DIMSE2
 70
     0
  9
$DIMTAD
 70
     0
  9
$DIMZIN
 70
     0
  9
$DIMBLK
  1

  9
$DIMASO
 70
     1
  9
$DIMSHO
 70
     1
  9
$DIMPOST
  1

  9
$DIMAPOST
  1

  9
$DIMALT
 70
     0
  9
$DIMALTD
 70
     2
  9
$DIMALTF
 40
25.4
  9
$DIMLFAC
 40
1.0
  9
$DIMTOFL
 70
     0
  9
$DIMTVP
 40
0.0
  9
$DIMTIX
 70
     0
  9
$DIMSOXD
 70
     0
  9
$DIMSAH
 70
     0
  9
$DIMBLK1
  1

  9
$DIMBLK2
  1

  9
$DIMSTYLE
  2
STANDARD
  9
$DIMCLRD
 70
     0
  9
$DIMCLRE
 70
     0
  9
$DIMCLRT
 70
     0
  9
$DIMTFAC
 40
1.0
  9
$DIMGAP
 40
0.09
  9
$DIMJUST
 70
     0
  9
$DIMSD1
 70
     0
  9
$DIMSD2
 70
     0
  9
$DIMTOLJ
 70
     1
  9
$DIMTZIN
 70
     0
  9
$DIMALTZ
 70
     0
  9
$DIMALTTZ
 70
     0
  9
$DIMFIT
 70
     3
  9
$DIMUPT
 70
     0
  9
$DIMUNIT
 70
     2
  9
$DIMDEC
 70
     4
  9
$DIMTDEC
 70
     4
  9
$DIMALTU
 70
     2
  9
$DIMALTTD
 70
     2
  9
$DIMTXSTY
  7
STANDARD
  9
$DIMAUNIT
 70
     0
  9
$LUNITS
 70
     2
  9
$LUPREC
 70
     4
  9
$SKETCHINC
 40
0.1
  9
$FILLETRAD
 40
0.5
  9
$AUNITS
 70
     0
  9
$AUPREC
 70
     0
  9
$MENU
  1
.
  9
$ELEVATION
 40
0.0
  9
$PELEVATION
 40
0.0
  9
$THICKNESS
 40
0.0
  9
$LIMCHECK
 70
     0
  9
$CHAMFERA
 40
0.5
  9
$CHAMFERB
 40
0.5
  9
$CHAMFERC
 40
1.0
  9
$CHAMFERD
 40
0.0
  9
$SKPOLY
 70
     0
  9
$TDCREATE
 40
2456269.41991816
  9
$TDUPDATE
 40
2456269.419918171
  9
$TDINDWG
 40
0.0000000116
  9
$TDUSRTIMER
 40
0.0000000116
  9
$USRTIMER
 70
     1
  9
$ANGBASE
 50
0.0
  9
$ANGDIR
 70
     0
  9
$PDMODE
 70
     0
  9
$PDSIZE
 40
0.0
  9
$PLINEWID
 40
0.0
  9
$COORDS
 70
     1
  9
$SPLFRAME
 70
     0
  9
$SPLINETYPE
 70
     6
  9
$SPLINESEGS
 70
     8
  9
$ATTDIA
 70
     0
  9
$ATTREQ
 70
     1
  9
$HANDLING
 70
     1
  9
$HANDSEED
  5
B9
  9
$SURFTAB1
 70
     6
  9
$SURFTAB2
 70
     6
  9
$SURFTYPE
 70
     6
  9
$SURFU
 70
     6
  9
$SURFV
 70
     6
  9
$UCSNAME
  2

  9
$UCSORG
 10
0.0
 20
0.0
 30
0.0
  9
$UCSXDIR
 10
1.0
 20
0.0
 30
0.0
  9
$UCSYDIR
 10
0.0
 20
1.0
 30
0.0
  9
$PUCSNAME
  2

  9
$PUCSORG
 10
0.0
 20
0.0
 30
0.0
  9
$PUCSXDIR
 10
1.0
 20
0.0
 30
0.0
  9
$PUCSYDIR
 10
0.0
 20
1.0
 30
0.0
  9
$USERI1
 70
     0
  9
$USERI2
 70
     0
  9
$USERI3
 70
     0
  9
$USERI4
 70
     0
  9
$USERI5
 70
     0
  9
$USERR1
 40
0.0
  9
$USERR2
 40
0.0
  9
$USERR3
 40
0.0
  9
$USERR4
 40
0.0
  9
$USERR5
 40
0.0
  9
$WORLDVIEW
 70
     1
  9
$SHADEDGE
 70
     3
  9
$SHADEDIF
 70
    70
  9
$TILEMODE
 70
     1
  9
$MAXACTVP
 70
    64
  9
$PINSBASE
 10
0.0
 20
0.0
 30
0.0
  9
$PLIMCHECK
 70
     0
  9
$PEXTMIN
 10
1.000000000000000E+20
 20
1.000000000000000E+20
 30
1.000000000000000E+20
  9
$PEXTMAX
 10
-1.000000000000000E+20
 20
-1.000000000000000E+20
 30
-1.000000000000000E+20
  9
$PLIMMIN
 10
0.0
 20
0.0
  9
$PLIMMAX
 10
12.0
 20
9.0
  9
$UNITMODE
 70
     0
  9
$VISRETAIN
 70
     1
  9
$PLINEGEN
 70
     0
  9
$PSLTSCALE
 70
     1
  9
$TREEDEPTH
 70
  3020
  9
$PICKSTYLE
 70
     1
  9
$CMLSTYLE
  2
STANDARD
  9
$CMLJUST
 70
     0
  9
$CMLSCALE
 40
1.0
  9
$PROXYGRAPHICS
 70
     1
  9
$MEASUREMENT
 70
     0
  0
ENDSEC
  0
SECTION
  2
CLASSES
  0
CLASS
  1
ACDBDICTIONARYWDFLT
  2
AcDbDictionaryWithDefault
  3
ObjectDBX Classes
 90
        0
280
     0
281
     0
  0
CLASS
  1
VISUALSTYLE
  2
AcDbVisualStyle
  3
ObjectDBX Classes
 90
     4095
280
     0
281
     0
  0
CLASS
  1
MATERIAL
  2
AcDbMaterial
  3
ObjectDBX Classes
 90
     1153
280
     0
281
     0
  0
CLASS
  1
DICTIONARYVAR
  2
AcDbDictionaryVar
  3
ObjectDBX Classes
 90
        0
280
     0
281
     0
  0
CLASS
  1
XRECORD
  2
AcDbXrecord
  3
AutoCAD 2000
 90
        0
280
     0
281
     0
  0
CLASS
  1
LWPOLYLINE
  2
AcDbPolyline
  3
AutoCAD 2000
 90
        0
280
     0
281
     1
  0
CLASS
  1
HATCH
  2
AcDbHatch
  3
AutoCAD 2000
 90
        0
280
     0
281
     1
  0
CLASS
  1
ACDBPLACEHOLDER
  2
AcDbPlaceHolder
  3
ObjectDBX Classes
 90
        0
280
     0
281
     0
  0
CLASS
  1
LAYOUT
  2
AcDbLayout
  3
ObjectDBX Classes
 90
        0
280
     0
281
     0
  0
ENDSEC
  0
SECTION
  2
TABLES
  0
TABLE
  2
VPORT
  5
8
330
0
100
AcDbSymbolTable
 70
     1
  0
VPORT
  5
29
330
8
100
AcDbSymbolTableRecord
100
AcDbViewportTableRecord
  2
*ACTIVE
 70
     0
 10
0.0
 20
0.0
 11
1.0
 21
1.0
 12
10.42990654205607
 22
4.5
 13
0.0
 23
0.0
 14
0.5
 24
0.5
 15
0.5
 25
0.5
 16
0.0
 26
0.0
 36
1.0
 17
0.0
 27
0.0
 37
0.0
 40
9.0
 41
1.972972972850329
 42
50.0
 43
0.0
 44
0.0
 50
0.0
 51
0.0
 71
     0
 72
   100
 73
     1
 74
     3
 75
     0
 76
     0
 77
     0
 78
     0
  0
ENDTAB
  0
TABLE
  2
LTYPE
  5
5
330
0
100
AcDbSymbolTable
 70
     9
  0
LTYPE
  5
14
330
5
100
AcDbSymbolTableRecord
100
AcDbLinetypeTableRecord
  2
BYBLOCK
 70
     0
  3

 72
    65
 73
     0
 40
0.0
  0
LTYPE
  5
15
330
5
100
AcDbSymbolTableRecord
100
AcDbLinetypeTableRecord
  2
BYLAYER
 70
     0
  3

 72
    65
 73
     0
 40
0.0
  0
LTYPE
  5
16
330
5
100
AcDbSymbolTableRecord
100
AcDbLinetypeTableRecord
  2
CONTINUOUS
 70
     0
  3
Solid line
 72
    65
 73
     0
 40
0.0
  0
LTYPE
  5
66
330
5
100
AcDbSymbolTableRecord
100
AcDbLinetypeTableRecord
  2
NEW_LINE1
 70
     0
  3

 72
    65
 73
     4
 40
1.2
 49
0.5
 74
     4
 75
     0
340
0
 46
1.0
 50
0.0
 44
0.0
 45
0.0
 49
-0.3
 74
     4
 75
     0
340
0
 46
1.0
 50
0.0
 44
0.0
 45
0.0
 49
0.1
 74
     4
 75
     0
340
0
 46
1.0
 50
0.0
 44
0.0
 45
0.0
 49
-0.3
 74
     4
 75
     0
340
0
 46
1.0
 50
0.0
 44
0.0
 45
0.0
  0
LTYPE
  5
68
330
5
100
AcDbSymbolTableRecord
100
AcDbLinetypeTableRecord
  2
NEW_LINE2
 70
     0
  3

 72
    65
 73
     4
 40
1.2
 49
0.5
 74
     4
 75
     0
340
0
 46
1.0
 50
0.0
 44
0.0
 45
0.0
 49
-0.3
 74
     4
 75
     0
340
0
 46
1.0
 50
0.0
 44
0.0
 45
0.0
 49
0.1
 74
     4
 75
     0
340
0
 46
1.0
 50
0.0
 44
0.0
 45
0.0
 49
-0.3
 74
     4
 75
     0
340
0
 46
1.0
 50
0.0
 44
0.0
 45
0.0
  0
LTYPE
  5
6E
330
5
100
AcDbSymbolTableRecord
100
AcDbLinetypeTableRecord
  2
NEW_LINE3
 70
     0
  3

 72
    65
 73
     4
 40
1.2
 49
0.5
 74
     4
 75
     0
340
0
 46
1.0
 50
0.0
 44
0.0
 45
0.0
 49
-0.3
 74
     4
 75
     0
340
0
 46
1.0
 50
0.0
 44
0.0
 45
0.0
 49
0.1
 74
     4
 75
     0
340
0
 46
1.0
 50
0.0
 44
0.0
 45
0.0
 49
-0.3
 74
     4
 75
     0
340
0
 46
1.0
 50
0.0
 44
0.0
 45
0.0
  0
LTYPE
  5
70
330
5
100
AcDbSymbolTableRecord
100
AcDbLinetypeTableRecord
  2
NEW_LINE4
 70
     0
  3

 72
    65
 73
     4
 40
1.2
 49
0.5
 74
     4
 75
     0
340
0
 46
1.0
 50
0.0
 44
0.0
 45
0.0
 49
-0.3
 74
     4
 75
     0
340
0
 46
1.0
 50
0.0
 44
0.0
 45
0.0
 49
0.1
 74
     4
 75
     0
340
0
 46
1.0
 50
0.0
 44
0.0
 45
0.0
 49
-0.3
 74
     4
 75
     0
340
0
 46
1.0
 50
0.0
 44
0.0
 45
0.0
  0
LTYPE
  5
72
330
5
100
AcDbSymbolTableRecord
100
AcDbLinetypeTableRecord
  2
NEW_LINE5
 70
     0
  3

 72
    65
 73
     4
 40
1.2
 49
0.5
 74
     4
 75
     0
340
0
 46
1.0
 50
0.0
 44
0.0
 45
0.0
 49
-0.3
 74
     4
 75
     0
340
0
 46
1.0
 50
0.0
 44
0.0
 45
0.0
 49
0.1
 74
     4
 75
     0
340
0
 46
1.0
 50
0.0
 44
0.0
 45
0.0
 49
-0.3
 74
     4
 75
     0
340
0
 46
1.0
 50
0.0
 44
0.0
 45
0.0
  0
LTYPE
  5
74
330
5
100
AcDbSymbolTableRecord
100
AcDbLinetypeTableRecord
  2
NEW_LINE6
 70
     0
  3

 72
    65
 73
     4
 40
1.2
 49
0.5
 74
     4
 75
     0
340
0
 46
1.0
 50
0.0
 44
0.0
 45
0.0
 49
-0.3
 74
     4
 75
     0
340
0
 46
1.0
 50
0.0
 44
0.0
 45
0.0
 49
0.1
 74
     4
 75
     0
340
0
 46
1.0
 50
0.0
 44
0.0
 45
0.0
 49
-0.3
 74
     4
 75
     0
340
0
 46
1.0
 50
0.0
 44
0.0
 45
0.0
  0
LTYPE
  5
7F
330
5
100
AcDbSymbolTableRecord
100
AcDbLinetypeTableRecord
  2
NEW_LINE7
 70
     0
  3

 72
    65
 73
     4
 40
1.2
 49
0.5
 74
     4
 75
     0
340
0
 46
1.0
 50
0.0
 44
0.0
 45
0.0
 49
-0.3
 74
     4
 75
     0
340
0
 46
1.0
 50
0.0
 44
0.0
 45
0.0
 49
0.1
 74
     4
 75
     0
340
0
 46
1.0
 50
0.0
 44
0.0
 45
0.0
 49
-0.3
 74
     4
 75
     0
340
0
 46
1.0
 50
0.0
 44
0.0
 45
0.0
  0
LTYPE
  5
81
330
5
100
AcDbSymbolTableRecord
100
AcDbLinetypeTableRecord
  2
NEW_LINE8
 70
     0
  3

 72
    65
 73
     4
 40
1.2
 49
0.5
 74
     4
 75
     0
340
0
 46
1.0
 50
0.0
 44
0.0
 45
0.0
 49
-0.3
 74
     4
 75
     0
340
0
 46
1.0
 50
0.0
 44
0.0
 45
0.0
 49
0.1
 74
     4
 75
     0
340
0
 46
1.0
 50
0.0
 44
0.0
 45
0.0
 49
-0.3
 74
     4
 75
     0
340
0
 46
1.0
 50
0.0
 44
0.0
 45
0.0
  0
ENDTAB
  0
TABLE
  2
LAYER
  5
2
330
0
100
AcDbSymbolTable
 70
     2
  0
LAYER
  5
10
330
2
100
AcDbSymbolTableRecord
100
AcDbLayerTableRecord
  2
0
 70
     0
 62
     7
  6
CONTINUOUS
  0
LAYER
  5
40
330
2
100
AcDbSymbolTableRecord
100
AcDbLayerTableRecord
  2
ROUND
 70
     0
 62
     7
  6
CONTINUOUS
  0
ENDTAB
  0
TABLE
  2
STYLE
  5
3
330
0
100
AcDbSymbolTable
 70
     1
  0
STYLE
  5
11
330
3
100
AcDbSymbolTableRecord
100
AcDbTextStyleTableRecord
  2
STANDARD
 70
     0
 40
0.0
 41
1.0
 50
0.0
 71
     0
 42
0.2
  3
txt
  4

  0
ENDTAB
  0
TABLE
  2
VIEW
  5
6
330
0
100
AcDbSymbolTable
 70
     0
  0
ENDTAB
  0
TABLE
  2
UCS
  5
7
330
0
100
AcDbSymbolTable
 70
     0
  0
ENDTAB
  0
TABLE
  2
APPID
  5
9
330
0
100
AcDbSymbolTable
 70
     2
  0
APPID
  5
12
330
9
100
AcDbSymbolTableRecord
100
AcDbRegAppTableRecord
  2
ACAD
 70
     0
  0
APPID
  5
3F
330
9
100
AcDbSymbolTableRecord
100
AcDbRegAppTableRecord
  2
ODA
 70
     0
  0
ENDTAB
  0
TABLE
  2
DIMSTYLE
  5
A
330
0
100
AcDbSymbolTable
 70
     1
  0
DIMSTYLE
105
27
330
A
100
AcDbSymbolTableRecord
100
AcDbDimStyleTableRecord
  2
STANDARD
 70
     0
  3

  4

  5

  6

  7

 40
1.0
 41
0.18
 42
0.0625
 43
0.38
 44
0.18
 45
0.0
 46
0.0
 47
0.0
 48
0.0
140
0.18
141
0.09
142
0.0
143
25.4
144
1.0
145
0.0
146
1.0
147
0.09
 71
     0
 72
     0
 73
     1
 74
     1
 75
     0
 76
     0
 77
     0
 78
     0
170
     0
171
     2
172
     0
173
     0
174
     0
175
     0
176
     0
177
     0
178
     0
270
     2
271
     4
272
     4
273
     2
274
     2
340
11
275
     0
280
     0
281
     0
282
     0
283
     1
284
     0
285
     0
286
     0
287
     3
288
     0
  0
ENDTAB
  0
TABLE
  2
BLOCK_RECORD
  5
1
330
0
100
AcDbSymbolTable
 70
     1
  0
BLOCK_RECORD
  5
1F
330
1
100
AcDbSymbolTableRecord
100
AcDbBlockTableRecord
  2
*MODEL_SPACE
  0
BLOCK_RECORD
  5
1B
330
1
100
AcDbSymbolTableRecord
100
AcDbBlockTableRecord
  2
*PAPER_SPACE
  0
ENDTAB
  0
ENDSEC
  0
SECTION
  2
BLOCKS
  0
BLOCK
  5
20
330
1F
100
AcDbEntity
  8
0
100
AcDbBlockBegin
  2
*MODEL_SPACE
 70
     0
 10
0.0
 20
0.0
 30
0.0
  3
*MODEL_SPACE
  1

  0
ENDBLK
  5
21
330
1F
100
AcDbEntity
  8
0
100
AcDbBlockEnd
  0
BLOCK
  5
1C
330
1B
100
AcDbEntity
 67
     1
  8
0
100
AcDbBlockBegin
  2
*PAPER_SPACE
 70
     0
 10
0.0
 20
0.0
 30
0.0
  3
*PAPER_SPACE
  1

  0
ENDBLK
  5
1D
330
1B
100
AcDbEntity
 67
     1
  8
0
100
AcDbBlockEnd
  0
ENDSEC
  0
SECTION
  2
ENTITIES
  0
SPLINE
  5
41
330
1F
100
AcDbEntity
  8
ROUND
 62
   250
100
AcDbSpline
210
0.0
220
0.0
230
1.0
 70
    24
 71
     3
 72
     8
 73
     4
 74
     0
 42
0.0000000001
 43
0.0000000001
 40
0.0
 40
0.0
 40
0.0
 40
0.0
 40
1.0
 40
1.0
 40
1.0
 40
1.0
 10
14.6398
 20
9.2036
 30
0.0
 10
14.6398
 20
9.2036
 30
0.0
 10
31.5401
 20
9.2036
 30
0.0
 10
31.5401
 20
9.2036
 30
0.0
  0
SPLINE
  5
42
330
1F
100
AcDbEntity
  8
ROUND
 62
   250
100
AcDbSpline
210
0.0
220
0.0
230
1.0
 70
    11
 71
     3
 72
   120
 73
   116
 74
     0
 42
0.0000000001
 43
0.0000000001
 40
0.0
 40
0.0
 40
0.0
 40
0.0
 40
0.0333333333333333
 40
0.0333333333333333
 40
0.0333333333333333
 40
0.0333333333333333
 40
0.0666666666666667
 40
0.0666666666666667
 40
0.0666666666666667
 40
0.0666666666666667
 40
0.1
 40
0.1
 40
0.1
 40
0.1
 40
0.1333333333333333
 40
0.1333333333333333
 40
0.1333333333333333
 40
0.1333333333333333
 40
0.1666666666666667
 40
0.1666666666666667
 40
0.1666666666666667
 40
0.1666666666666667
 40
0.2
 40
0.2
 40
0.2
 40
0.2
 40
0.2333333333333333
 40
0.2333333333333333
 40
0.2333333333333333
 40
0.2333333333333333
 40
0.2666666666666667
 40
0.2666666666666667
 40
0.2666666666666667
 40
0.2666666666666667
 40
0.3
 40
0.3
 40
0.3
 40
0.3
 40
0.3333333333333333
 40
0.3333333333333333
 40
0.3333333333333333
 40
0.3333333333333333
 40
0.3666666666666666
 40
0.3666666666666666
 40
0.3666666666666666
 40
0.3666666666666666
 40
0.4
 40
0.4
 40
0.4
 40
0.4
 40
0.4333333333333333
 40
0.4333333333333333
 40
0.4333333333333333
 40
0.4333333333333333
 40
0.4666666666666667
 40
0.4666666666666667
 40
0.4666666666666667
 40
0.4666666666666667
 40
0.5
 40
0.5
 40
0.5
 40
0.5
 40
0.5333333333333333
 40
0.5333333333333333
 40
0.5333333333333333
 40
0.5333333333333333
 40
0.5666666666666667
 40
0.5666666666666667
 40
0.5666666666666667
 40
0.5666666666666667
 40
0.6
 40
0.6
 40
0.6
 40
0.6
 40
0.6333333333333333
 40
0.6333333333333333
 40
0.6333333333333333
 40
0.6333333333333333
 40
0.6666666666666666
 40
0.6666666666666666
 40
0.6666666666666666
 40
0.6666666666666666
 40
0.7
 40
0.7
 40
0.7
 40
0.7
 40
0.7333333333333333
 40
0.7333333333333333
 40
0.7333333333333333
 40
0.7333333333333333
 40
0.7666666666666667
 40
0.7666666666666667
 40
0.7666666666666667
 40
0.7666666666666667
 40
0.8
 40
0.8
 40
0.8
 40
0.8
 40
0.8333333333333334
 40
0.8333333333333334
 40
0.8333333333333334
 40
0.8333333333333334
 40
0.8666666666666667
 40
0.8666666666666667
 40
0.8666666666666667
 40
0.8666666666666667
 40
0.9
 40
0.9
 40
0.9
 40
0.9
 40
0.9333333333333333
 40
0.9333333333333333
 40
0.9333333333333333
 40
0.9333333333333333
 40
1.0
 40
1.0
 40
1.0
 40
1.0
 10
20.4636
 20
11.1848
 30
0.0
 10
20.4636
 20
11.1848
 30
0.0
 10
20.4636
 20
11.4214
 30
0.0
 10
20.4636
 20
11.4214
 30
0.0
 10
20.4636
 20
11.4214
 30
0.0
 10
20.4636
 20
11.4214
 30
0.0
 10
21.3192
 20
11.4228
 30
0.0
 10
21.3192
 20
11.4228
 30
0.0
 10
21.3192
 20
11.4228
 30
0.0
 10
21.3192
 20
11.4228
 30
0.0
 10
21.3192
 20
10.6735
 30
0.0
 10
21.3192
 20
10.6735
 30
0.0
 10
21.3192
 20
10.6735
 30
0.0
 10
21.188
 20
10.5686
 30
0.0
 10
21.0525
 20
10.49
 30
0.0
 10
20.9128
 20
10.4369
 30
0.0
 10
20.9128
 20
10.4369
 30
0.0
 10
20.7731
 20
10.3842
 30
0.0
 10
20.6297
 20
10.3579
 30
0.0
 10
20.4829
 20
10.3579
 30
0.0
 10
20.4829
 20
10.3579
 30
0.0
 10
20.2844
 20
10.3579
 30
0.0
 10
20.1038
 20
10.4002
 30
0.0
 10
19.942
 20
10.4853
 30
0.0
 10
19.942
 20
10.4853
 30
0.0
 10
19.7797
 20
10.57
 30
0.0
 10
19.6574
 20
10.6932
 30
0.0
 10
19.5746
 20
10.8536
 30
0.0
 10
19.5746
 20
10.8536
 30
0.0
 10
19.4918
 20
11.0145
 30
0.0
 10
19.4504
 20
11.1942
 30
0.0
 10
19.4504
 20
11.3927
 30
0.0
 10
19.4504
 20
11.3927
 30
0.0
 10
19.4504
 20
11.5893
 30
0.0
 10
19.4918
 20
11.7727
 30
0.0
 10
19.5742
 20
11.943
 30
0.0
 10
19.5742
 20
11.943
 30
0.0
 10
19.656
 20
12.1137
 30
0.0
 10
19.7745
 20
12.2403
 30
0.0
 10
19.9288
 20
12.3231
 30
0.0
 10
19.9288
 20
12.3231
 30
0.0
 10
20.0831
 20
12.4054
 30
0.0
 10
20.2609
 20
12.4468
 30
0.0
 10
20.4622
 20
12.4468
 30
0.0
 10
20.4622
 20
12.4468
 30
0.0
 10
20.608
 20
12.4468
 30
0.0
 10
20.7402
 20
12.4232
 30
0.0
 10
20.8583
 20
12.3757
 30
0.0
 10
20.8583
 20
12.3757
 30
0.0
 10
20.9763
 20
12.3287
 30
0.0
 10
21.069
 20
12.2628
 30
0.0
 10
21.1358
 20
12.1782
 30
0.0
 10
21.1358
 20
12.1782
 30
0.0
 10
21.203
 20
12.0935
 30
0.0
 10
21.2538
 20
11.9835
 30
0.0
 10
21.2891
 20
11.8475
 30
0.0
 10
21.2891
 20
11.8475
 30
0.0
 10
21.2891
 20
11.8475
 30
0.0
 10
21.0478
 20
11.7812
 30
0.0
 10
21.0478
 20
11.7812
 30
0.0
 10
21.0478
 20
11.7812
 30
0.0
 10
21.0172
 20
11.8842
 30
0.0
 10
20.9796
 20
11.9651
 30
0.0
 10
20.9349
 20
12.0239
 30
0.0
 10
20.9349
 20
12.0239
 30
0.0
 10
20.8898
 20
12.0827
 30
0.0
 10
20.8253
 20
12.1297
 30
0.0
 10
20.7416
 20
12.165
 30
0.0
 10
20.7416
 20
12.165
 30
0.0
 10
20.6583
 20
12.2003
 30
0.0
 10
20.5652
 20
12.2182
 30
0.0
 10
20.4636
 20
12.2182
 30
0.0
 10
20.4636
 20
12.2182
 30
0.0
 10
20.3413
 20
12.2182
 30
0.0
 10
20.2355
 20
12.1993
 30
0.0
 10
20.1466
 20
12.1622
 30
0.0
 10
20.1466
 20
12.1622
 30
0.0
 10
20.0572
 20
12.125
 30
0.0
 10
19.9857
 20
12.0761
 30
0.0
 10
19.9307
 20
12.0154
 30
0.0
 10
19.9307
 20
12.0154
 30
0.0
 10
19.8761
 20
11.9548
 30
0.0
 10
19.8338
 20
11.8884
 30
0.0
 10
19.8032
 20
11.8155
 30
0.0
 10
19.8032
 20
11.8155
 30
0.0
 10
19.752
 20
11.6909
 30
0.0
 10
19.7261
 20
11.5554
 30
0.0
 10
19.7261
 20
11.4091
 30
0.0
 10
19.7261
 20
11.4091
 30
0.0
 10
19.7261
 20
11.229
 30
0.0
 10
19.7571
 20
11.0785
 30
0.0
 10
19.8192
 20
10.9571
 30
0.0
 10
19.8192
 20
10.9571
 30
0.0
 10
19.8813
 20
10.8358
 30
0.0
 10
19.9716
 20
10.7459
 30
0.0
 10
20.0901
 20
10.6871
 30
0.0
 10
20.0901
 20
10.6871
 30
0.0
 10
20.2087
 20
10.6283
 30
0.0
 10
20.3343
 20
10.5987
 30
0.0
 10
20.4674
 20
10.5987
 30
0.0
 10
20.4674
 20
10.5987
 30
0.0
 10
20.5836
 20
10.5987
 30
0.0
 10
20.6964
 20
10.6213
 30
0.0
 10
20.8065
 20
10.666
 30
0.0
 10
20.8065
 20
10.666
 30
0.0
 10
20.9171
 20
10.7102
 30
0.0
 10
21.0003
 20
10.7577
 30
0.0
 10
21.0572
 20
10.8085
 30
0.0
 10
21.0572
 20
10.8085
 30
0.0
 10
21.0572
 20
10.8085
 30
0.0
 10
21.0572
 20
11.1848
 30
0.0
 10
21.0572
 20
11.1848
 30
0.0
 10
21.0572
 20
11.1848
 30
0.0
 10
21.0572
 20
11.1848
 30
0.0
 10
20.4636
 20
11.1848
 30
0.0
 10
20.4636
 20
11.1848
 30
0.0
  0
SPLINE
  5
43
330
1F
100
AcDbEntity
  8
ROUND
 62
   250
100
AcDbSpline
210
0.0
220
0.0
230
1.0
 70
    11
 71
     3
 72
    80
 73
    76
 74
     0
 42
0.0000000001
 43
0.0000000001
 40
0.0
 40
0.0
 40
0.0
 40
0.0
 40
0.05
 40
0.05
 40
0.05
 40
0.05
 40
0.1
 40
0.1
 40
0.1
 40
0.1
 40
0.15
 40
0.15
 40
0.15
 40
0.15
 40
0.2
 40
0.2
 40
0.2
 40
0.2
 40
0.25
 40
0.25
 40
0.25
 40
0.25
 40
0.3
 40
0.3
 40
0.3
 40
0.3
 40
0.35
 40
0.35
 40
0.35
 40
0.35
 40
0.4
 40
0.4
 40
0.4
 40
0.4
 40
0.45
 40
0.45
 40
0.45
 40
0.45
 40
0.5
 40
0.5
 40
0.5
 40
0.5
 40
0.55
 40
0.55
 40
0.55
 40
0.55
 40
0.6
 40
0.6
 40
0.6
 40
0.6
 40
0.65
 40
0.65
 40
0.65
 40
0.65
 40
0.7
 40
0.7
 40
0.7
 40
0.7
 40
0.75
 40
0.75
 40
0.75
 40
0.75
 40
0.8
 40
0.8
 40
0.8
 40
0.8
 40
0.85
 40
0.85
 40
0.85
 40
0.85
 40
0.9
 40
0.9
 40
0.9
 40
0.9
 40
1.0
 40
1.0
 40
1.0
 40
1.0
 10
23.6837
 20
11.9176
 30
0.0
 10
23.6837
 20
11.9176
 30
0.0
 10
23.4373
 20
11.8983
 30
0.0
 10
23.4373
 20
11.8983
 30
0.0
 10
23.4373
 20
11.8983
 30
0.0
 10
23.4152
 20
11.9957
 30
0.0
 10
23.3841
 20
12.0667
 30
0.0
 10
23.3437
 20
12.1104
 30
0.0
 10
23.3437
 20
12.1104
 30
0.0
 10
23.2764
 20
12.1815
 30
0.0
 10
23.1936
 20
12.2168
 30
0.0
 10
23.0953
 20
12.2168
 30
0.0
 10
23.0953
 20
12.2168
 30
0.0
 10
23.0163
 20
12.2168
 30
0.0
 10
22.9472
 20
12.1946
 30
0.0
 10
22.8874
 20
12.1504
 30
0.0
 10
22.8874
 20
12.1504
 30
0.0
 10
22.8093
 20
12.0935
 30
0.0
 10
22.7477
 20
12.0103
 30
0.0
 10
22.7026
 20
11.9011
 30
0.0
 10
22.7026
 20
11.9011
 30
0.0
 10
22.6579
 20
11.792
 30
0.0
 10
22.6344
 20
11.6363
 30
0.0
 10
22.6325
 20
11.4341
 30
0.0
 10
22.6325
 20
11.4341
 30
0.0
 10
22.6922
 20
11.5248
 30
0.0
 10
22.7651
 20
11.5926
 30
0.0
 10
22.8517
 20
11.6368
 30
0.0
 10
22.8517
 20
11.6368
 30
0.0
 10
22.9377
 20
11.6805
 30
0.0
 10
23.0285
 20
11.7026
 30
0.0
 10
23.1231
 20
11.7026
 30
0.0
 10
23.1231
 20
11.7026
 30
0.0
 10
23.2886
 20
11.7026
 30
0.0
 10
23.4293
 20
11.642
 30
0.0
 10
23.5455
 20
11.5201
 30
0.0
 10
23.5455
 20
11.5201
 30
0.0
 10
23.6616
 20
11.3983
 30
0.0
 10
23.72
 20
11.2412
 30
0.0
 10
23.72
 20
11.0484
 30
0.0
 10
23.72
 20
11.0484
 30
0.0
 10
23.72
 20
10.9214
 30
0.0
 10
23.6922
 20
10.8038
 30
0.0
 10
23.6376
 20
10.6946
 30
0.0
 10
23.6376
 20
10.6946
 30
0.0
 10
23.5831
 20
10.586
 30
0.0
 10
23.5078
 20
10.5023
 30
0.0
 10
23.4123
 20
10.4444
 30
0.0
 10
23.4123
 20
10.4444
 30
0.0
 10
23.3169
 20
10.3866
 30
0.0
 10
23.2087
 20
10.3579
 30
0.0
 10
23.0873
 20
10.3579
 30
0.0
 10
23.0873
 20
10.3579
 30
0.0
 10
22.8804
 20
10.3579
 30
0.0
 10
22.712
 20
10.4336
 30
0.0
 10
22.5817
 20
10.586
 30
0.0
 10
22.5817
 20
10.586
 30
0.0
 10
22.4509
 20
10.7379
 30
0.0
 10
22.386
 20
10.9886
 30
0.0
 10
22.386
 20
11.3376
 30
0.0
 10
22.386
 20
11.3376
 30
0.0
 10
22.386
 20
11.728
 30
0.0
 10
22.458
 20
12.0117
 30
0.0
 10
22.6024
 20
12.189
 30
0.0
 10
22.6024
 20
12.189
 30
0.0
 10
22.728
 20
12.3433
 30
0.0
 10
22.8973
 20
12.4209
 30
0.0
 10
23.1108
 20
12.4209
 30
0.0
 10
23.1108
 20
12.4209
 30
0.0
 10
23.2694
 20
12.4209
 30
0.0
 10
23.3996
 20
12.3762
 30
0.0
 10
23.5012
 20
12.2868
 30
0.0
 10
23.5012
 20
12.2868
 30
0.0
 10
23.6028
 20
12.1979
 30
0.0
 10
23.6635
 20
12.0747
 30
0.0
 10
23.6837
 20
11.9176
 30
0.0
  0
SPLINE
  5
44
330
1F
100
AcDbEntity
  8
ROUND
 62
   250
100
AcDbSpline
210
0.0
220
0.0
230
1.0
 70
    11
 71
     3
 72
    40
 73
    36
 74
     0
 42
0.0000000001
 43
0.0000000001
 40
0.0
 40
0.0
 40
0.0
 40
0.0
 40
0.1
 40
0.1
 40
0.1
 40
0.1
 40
0.2
 40
0.2
 40
0.2
 40
0.2
 40
0.3
 40
0.3
 40
0.3
 40
0.3
 40
0.4
 40
0.4
 40
0.4
 40
0.4
 40
0.5
 40
0.5
 40
0.5
 40
0.5
 40
0.6
 40
0.6
 40
0.6
 40
0.6
 40
0.7
 40
0.7
 40
0.7
 40
0.7
 40
0.8
 40
0.8
 40
0.8
 40
0.8
 40
1.0
 40
1.0
 40
1.0
 40
1.0
 10
22.671
 20
11.047
 30
0.0
 10
22.671
 20
10.9613
 30
0.0
 10
22.6894
 20
10.8795
 30
0.0
 10
22.7256
 20
10.8014
 30
0.0
 10
22.7256
 20
10.8014
 30
0.0
 10
22.7618
 20
10.7233
 30
0.0
 10
22.8126
 20
10.6641
 30
0.0
 10
22.8775
 20
10.6232
 30
0.0
 10
22.8775
 20
10.6232
 30
0.0
 10
22.9429
 20
10.5822
 30
0.0
 10
23.0116
 20
10.5615
 30
0.0
 10
23.0831
 20
10.5615
 30
0.0
 10
23.0831
 20
10.5615
 30
0.0
 10
23.188
 20
10.5615
 30
0.0
 10
23.2778
 20
10.6039
 30
0.0
 10
23.3531
 20
10.6885
 30
0.0
 10
23.3531
 20
10.6885
 30
0.0
 10
23.4283
 20
10.7732
 30
0.0
 10
23.466
 20
10.888
 30
0.0
 10
23.466
 20
11.0328
 30
0.0
 10
23.466
 20
11.0328
 30
0.0
 10
23.466
 20
11.1725
 30
0.0
 10
23.4288
 20
11.2826
 30
0.0
 10
23.3545
 20
11.363
 30
0.0
 10
23.3545
 20
11.363
 30
0.0
 10
23.2802
 20
11.4435
 30
0.0
 10
23.1866
 20
11.4835
 30
0.0
 10
23.0737
 20
11.4835
 30
0.0
 10
23.0737
 20
11.4835
 30
0.0
 10
22.9613
 20
11.4835
 30
0.0
 10
22.8662
 20
11.4435
 30
0.0
 10
22.7882
 20
11.363
 30
0.0
 10
22.7882
 20
11.363
 30
0.0
 10
22.7101
 20
11.2826
 30
0.0
 10
22.671
 20
11.1772
 30
0.0
 10
22.671
 20
11.047
 30
0.0
  0
SPLINE
  5
45
330
1F
100
AcDbEntity
  8
ROUND
 62
   250
100
AcDbSpline
210
0.0
220
0.0
230
1.0
 70
    11
 71
     3
 72
    20
 73
    16
 74
     0
 42
0.0000000001
 43
0.0000000001
 40
0.0
 40
0.0
 40
0.0
 40
0.0
 40
0.2
 40
0.2
 40
0.2
 40
0.2
 40
0.4
 40
0.4
 40
0.4
 40
0.4
 40
0.6
 40
0.6
 40
0.6
 40
0.6
 40
1.0
 40
1.0
 40
1.0
 40
1.0
 10
23.8493
 20
10.3579
 30
0.0
 10
23.8493
 20
10.3579
 30
0.0
 10
24.4349
 20
12.4468
 30
0.0
 10
24.4349
 20
12.4468
 30
0.0
 10
24.4349
 20
12.4468
 30
0.0
 10
24.4349
 20
12.4468
 30
0.0
 10
24.6334
 20
12.4468
 30
0.0
 10
24.6334
 20
12.4468
 30
0.0
 10
24.6334
 20
12.4468
 30
0.0
 10
24.6334
 20
12.4468
 30
0.0
 10
24.0492
 20
10.3579
 30
0.0
 10
24.0492
 20
10.3579
 30
0.0
 10
24.0492
 20
10.3579
 30
0.0
 10
24.0492
 20
10.3579
 30
0.0
 10
23.8493
 20
10.3579
 30
0.0
 10
23.8493
 20
10.3579
 30
0.0
  0
SPLINE
  5
46
330
1F
100
AcDbEntity
  8
ROUND
 62
   250
100
AcDbSpline
210
0.0
220
0.0
230
1.0
 70
    11
 71
     3
 72
    48
 73
    44
 74
     0
 42
0.0000000001
 43
0.0000000001
 40
0.0
 40
0.0
 40
0.0
 40
0.0
 40
0.0833333333333333
 40
0.0833333333333333
 40
0.0833333333333333
 40
0.0833333333333333
 40
0.1666666666666667
 40
0.1666666666666667
 40
0.1666666666666667
 40
0.1666666666666667
 40
0.25
 40
0.25
 40
0.25
 40
0.25
 40
0.3333333333333333
 40
0.3333333333333333
 40
0.3333333333333333
 40
0.3333333333333333
 40
0.4166666666666667
 40
0.4166666666666667
 40
0.4166666666666667
 40
0.4166666666666667
 40
0.5
 40
0.5
 40
0.5
 40
0.5
 40
0.5833333333333334
 40
0.5833333333333334
 40
0.5833333333333334
 40
0.5833333333333334
 40
0.6666666666666666
 40
0.6666666666666666
 40
0.6666666666666666
 40
0.6666666666666666
 40
0.75
 40
0.75
 40
0.75
 40
0.75
 40
0.8333333333333334
 40
0.8333333333333334
 40
0.8333333333333334
 40
0.8333333333333334
 40
1.0
 40
1.0
 40
1.0
 40
1.0
 10
25.5454
 20
10.3922
 30
0.0
 10
25.5454
 20
10.3922
 30
0.0
 10
25.5454
 20
10.8757
 30
0.0
 10
25.5454
 20
10.8757
 30
0.0
 10
25.5454
 20
10.8757
 30
0.0
 10
25.5454
 20
10.8757
 30
0.0
 10
24.6691
 20
10.8757
 30
0.0
 10
24.6691
 20
10.8757
 30
0.0
 10
24.6691
 20
10.8757
 30
0.0
 10
24.6691
 20
10.8757
 30
0.0
 10
24.6691
 20
11.1034
 30
0.0
 10
24.6691
 20
11.1034
 30
0.0
 10
24.6691
 20
11.1034
 30
0.0
 10
24.6691
 20
11.1034
 30
0.0
 10
25.5911
 20
12.4124
 30
0.0
 10
25.5911
 20
12.4124
 30
0.0
 10
25.5911
 20
12.4124
 30
0.0
 10
25.5911
 20
12.4124
 30
0.0
 10
25.7938
 20
12.4124
 30
0.0
 10
25.7938
 20
12.4124
 30
0.0
 10
25.7938
 20
12.4124
 30
0.0
 10
25.7938
 20
12.4124
 30
0.0
 10
25.7938
 20
11.1034
 30
0.0
 10
25.7938
 20
11.1034
 30
0.0
 10
25.7938
 20
11.1034
 30
0.0
 10
25.7938
 20
11.1034
 30
0.0
 10
26.0666
 20
11.1034
 30
0.0
 10
26.0666
 20
11.1034
 30
0.0
 10
26.0666
 20
11.1034
 30
0.0
 10
26.0666
 20
11.1034
 30
0.0
 10
26.0666
 20
10.8757
 30
0.0
 10
26.0666
 20
10.8757
 30
0.0
 10
26.0666
 20
10.8757
 30
0.0
 10
26.0666
 20
10.8757
 30
0.0
 10
25.7938
 20
10.8757
 30
0.0
 10
25.7938
 20
10.8757
 30
0.0
 10
25.7938
 20
10.8757
 30
0.0
 10
25.7938
 20
10.8757
 30
0.0
 10
25.7938
 20
10.3922
 30
0.0
 10
25.7938
 20
10.3922
 30
0.0
 10
25.7938
 20
10.3922
 30
0.0
 10
25.7938
 20
10.3922
 30
0.0
 10
25.5454
 20
10.3922
 30
0.0
 10
25.5454
 20
10.3922
 30
0.0
  0
SPLINE
  5
47
330
1F
100
AcDbEntity
  8
ROUND
 62
   250
100
AcDbSpline
210
0.0
220
0.0
230
1.0
 70
    11
 71
     3
 72
    16
 73
    12
 74
     0
 42
0.0000000001
 43
0.0000000001
 40
0.0
 40
0.0
 40
0.0
 40
0.0
 40
0.25
 40
0.25
 40
0.25
 40
0.25
 40
0.5
 40
0.5
 40
0.5
 40
0.5
 40
1.0
 40
1.0
 40
1.0
 40
1.0
 10
25.5454
 20
11.1034
 30
0.0
 10
25.5454
 20
11.1034
 30
0.0
 10
25.5454
 20
12.014
 30
0.0
 10
25.5454
 20
12.014
 30
0.0
 10
25.5454
 20
12.014
 30
0.0
 10
25.5454
 20
12.014
 30
0.0
 10
24.9133
 20
11.1034
 30
0.0
 10
24.9133
 20
11.1034
 30
0.0
 10
24.9133
 20
11.1034
 30
0.0
 10
24.9133
 20
11.1034
 30
0.0
 10
25.5454
 20
11.1034
 30
0.0
 10
25.5454
 20
11.1034
 30
0.0
  0
SPLINE
  5
48
330
1F
100
AcDbEntity
  8
ROUND
 62
   250
100
AcDbSpline
210
0.0
220
0.0
230
1.0
 70
    11
 71
     3
 72
    28
 73
    24
 74
     0
 42
0.0000000001
 43
0.0000000001
 40
0.0
 40
0.0
 40
0.0
 40
0.0
 40
0.1428571428571428
 40
0.1428571428571428
 40
0.1428571428571428
 40
0.1428571428571428
 40
0.2857142857142857
 40
0.2857142857142857
 40
0.2857142857142857
 40
0.2857142857142857
 40
0.4285714285714285
 40
0.4285714285714285
 40
0.4285714285714285
 40
0.4285714285714285
 40
0.5714285714285714
 40
0.5714285714285714
 40
0.5714285714285714
 40
0.5714285714285714
 40
0.7142857142857143
 40
0.7142857142857143
 40
0.7142857142857143
 40
0.7142857142857143
 40
1.0
 40
1.0
 40
1.0
 40
1.0
 10
26.4015
 20
11.697
 30
0.0
 10
26.4015
 20
11.697
 30
0.0
 10
26.3324
 20
12.0818
 30
0.0
 10
26.3324
 20
12.0818
 30
0.0
 10
26.3324
 20
12.0818
 30
0.0
 10
26.3324
 20
12.0818
 30
0.0
 10
26.3324
 20
12.4124
 30
0.0
 10
26.3324
 20
12.4124
 30
0.0
 10
26.3324
 20
12.4124
 30
0.0
 10
26.3324
 20
12.4124
 30
0.0
 10
26.615
 20
12.4124
 30
0.0
 10
26.615
 20
12.4124
 30
0.0
 10
26.615
 20
12.4124
 30
0.0
 10
26.615
 20
12.4124
 30
0.0
 10
26.615
 20
12.0818
 30
0.0
 10
26.615
 20
12.0818
 30
0.0
 10
26.615
 20
12.0818
 30
0.0
 10
26.615
 20
12.0818
 30
0.0
 10
26.553
 20
11.697
 30
0.0
 10
26.553
 20
11.697
 30
0.0
 10
26.553
 20
11.697
 30
0.0
 10
26.553
 20
11.697
 30
0.0
 10
26.4015
 20
11.697
 30
0.0
 10
26.4015
 20
11.697
 30
0.0
  0
SPLINE
  5
49
330
1F
100
AcDbEntity
  8
ROUND
 62
   250
100
AcDbSpline
210
0.0
220
0.0
230
1.0
 70
    11
 71
     3
 72
    28
 73
    24
 74
     0
 42
0.0000000001
 43
0.0000000001
 40
0.0
 40
0.0
 40
0.0
 40
0.0
 40
0.1428571428571428
 40
0.1428571428571428
 40
0.1428571428571428
 40
0.1428571428571428
 40
0.2857142857142857
 40
0.2857142857142857
 40
0.2857142857142857
 40
0.2857142857142857
 40
0.4285714285714285
 40
0.4285714285714285
 40
0.4285714285714285
 40
0.4285714285714285
 40
0.5714285714285714
 40
0.5714285714285714
 40
0.5714285714285714
 40
0.5714285714285714
 40
0.7142857142857143
 40
0.7142857142857143
 40
0.7142857142857143
 40
0.7142857142857143
 40
1.0
 40
1.0
 40
1.0
 40
1.0
 10
26.8578
 20
11.697
 30
0.0
 10
26.8578
 20
11.697
 30
0.0
 10
26.79
 20
12.0818
 30
0.0
 10
26.79
 20
12.0818
 30
0.0
 10
26.79
 20
12.0818
 30
0.0
 10
26.79
 20
12.0818
 30
0.0
 10
26.79
 20
12.4124
 30
0.0
 10
26.79
 20
12.4124
 30
0.0
 10
26.79
 20
12.4124
 30
0.0
 10
26.79
 20
12.4124
 30
0.0
 10
27.0727
 20
12.4124
 30
0.0
 10
27.0727
 20
12.4124
 30
0.0
 10
27.0727
 20
12.4124
 30
0.0
 10
27.0727
 20
12.4124
 30
0.0
 10
27.0727
 20
12.0818
 30
0.0
 10
27.0727
 20
12.0818
 30
0.0
 10
27.0727
 20
12.0818
 30
0.0
 10
27.0727
 20
12.0818
 30
0.0
 10
27.0064
 20
11.697
 30
0.0
 10
27.0064
 20
11.697
 30
0.0
 10
27.0064
 20
11.697
 30
0.0
 10
27.0064
 20
11.697
 30
0.0
 10
26.8578
 20
11.697
 30
0.0
 10
26.8578
 20
11.697
 30
0.0
  0
SPLINE
  5
4A
330
1F
100
AcDbEntity
  8
ROUND
 62
   250
100
AcDbSpline
210
0.0
220
0.0
230
1.0
 70
    11
 71
     3
 72
    20
 73
    16
 74
     0
 42
0.0000000001
 43
0.0000000001
 40
0.0
 40
0.0
 40
0.0
 40
0.0
 40
0.2
 40
0.2
 40
0.2
 40
0.2
 40
0.4
 40
0.4
 40
0.4
 40
0.4
 40
0.6
 40
0.6
 40
0.6
 40
0.6
 40
1.0
 40
1.0
 40
1.0
 40
1.0
 10
15.5872
 20
9.688
 30
0.0
 10
15.5872
 20
9.688
 30
0.0
 10
18.5873
 20
9.2646
 30
0.0
 10
18.5873
 20
9.2646
 30
0.0
 10
18.5873
 20
9.2646
 30
0.0
 10
18.5873
 20
9.2646
 30
0.0
 10
18.5873
 20
9.1706
 30
0.0
 10
18.5873
 20
9.1706
 30
0.0
 10
18.5873
 20
9.1706
 30
0.0
 10
18.5873
 20
9.1706
 30
0.0
 10
15.5872
 20
8.719
 30
0.0
 10
15.5872
 20
8.719
 30
0.0
 10
15.5872
 20
8.719
 30
0.0
 10
15.5872
 20
8.719
 30
0.0
 10
15.5872
 20
9.688
 30
0.0
 10
15.5872
 20
9.688
 30
0.0
  0
SPLINE
  5
4B
330
1F
100
AcDbEntity
  8
ROUND
 62
   250
100
AcDbSpline
210
0.0
220
0.0
230
1.0
 70
    11
 71
     3
 72
    20
 73
    16
 74
     0
 42
0.0000000001
 43
0.0000000001
 40
0.0
 40
0.0
 40
0.0
 40
0.0
 40
0.2
 40
0.2
 40
0.2
 40
0.2
 40
0.4
 40
0.4
 40
0.4
 40
0.4
 40
0.6
 40
0.6
 40
0.6
 40
0.6
 40
1.0
 40
1.0
 40
1.0
 40
1.0
 10
30.2289
 20
8.7191
 30
0.0
 10
30.2289
 20
8.7191
 30
0.0
 10
27.2289
 20
9.1425
 30
0.0
 10
27.2289
 20
9.1425
 30
0.0
 10
27.2289
 20
9.1425
 30
0.0
 10
27.2289
 20
9.1425
 30
0.0
 10
27.2289
 20
9.2365
 30
0.0
 10
27.2289
 20
9.2365
 30
0.0
 10
27.2289
 20
9.2365
 30
0.0
 10
27.2289
 20
9.2365
 30
0.0
 10
30.2289
 20
9.6881
 30
0.0
 10
30.2289
 20
9.6881
 30
0.0
 10
30.2289
 20
9.6881
 30
0.0
 10
30.2289
 20
9.6881
 30
0.0
 10
30.2289
 20
8.7191
 30
0.0
 10
30.2289
 20
8.7191
 30
0.0
  0
SPLINE
  5
4C
330
1F
100
AcDbEntity
  8
ROUND
 62
   250
100
AcDbSpline
210
0.0
220
0.0
230
1.0
 70
    24
 71
     3
 72
     8
 73
     4
 74
     0
 42
0.0000000001
 43
0.0000000001
 40
0.0
 40
0.0
 40
0.0
 40
0.0
 40
1.0
 40
1.0
 40
1.0
 40
1.0
 10
15.7657
 20
-12.0244
 30
0.0
 10
15.7657
 20
-12.0244
 30
0.0
 10
15.7657
 20
4.8746
 30
0.0
 10
15.7657
 20
4.8746
 30
0.0
  0
SPLINE
  5
4D
330
1F
100
AcDbEntity
  8
ROUND
 62
   250
100
AcDbSpline
210
0.0
220
0.0
230
1.0
 70
    11
 71
     3
 72
    92
 73
    88
 74
     0
 42
0.0000000001
 43
0.0000000001
 40
0.0
 40
0.0
 40
0.0
 40
0.0
 40
0.0434782608695652
 40
0.0434782608695652
 40
0.0434782608695652
 40
0.0434782608695652
 40
0.0869565217391304
 40
0.0869565217391304
 40
0.0869565217391304
 40
0.0869565217391304
 40
0.1304347826086956
 40
0.1304347826086956
 40
0.1304347826086956
 40
0.1304347826086956
 40
0.1739130434782609
 40
0.1739130434782609
 40
0.1739130434782609
 40
0.1739130434782609
 40
0.2173913043478261
 40
0.2173913043478261
 40
0.2173913043478261
 40
0.2173913043478261
 40
0.2608695652173913
 40
0.2608695652173913
 40
0.2608695652173913
 40
0.2608695652173913
 40
0.3043478260869565
 40
0.3043478260869565
 40
0.3043478260869565
 40
0.3043478260869565
 40
0.3478260869565217
 40
0.3478260869565217
 40
0.3478260869565217
 40
0.3478260869565217
 40
0.391304347826087
 40
0.391304347826087
 40
0.391304347826087
 40
0.391304347826087
 40
0.4347826086956522
 40
0.4347826086956522
 40
0.4347826086956522
 40
0.4347826086956522
 40
0.4782608695652174
 40
0.4782608695652174
 40
0.4782608695652174
 40
0.4782608695652174
 40
0.5217391304347826
 40
0.5217391304347826
 40
0.5217391304347826
 40
0.5217391304347826
 40
0.5652173913043478
 40
0.5652173913043478
 40
0.5652173913043478
 40
0.5652173913043478
 40
0.6086956521739131
 40
0.6086956521739131
 40
0.6086956521739131
 40
0.6086956521739131
 40
0.6521739130434783
 40
0.6521739130434783
 40
0.6521739130434783
 40
0.6521739130434783
 40
0.6956521739130435
 40
0.6956521739130435
 40
0.6956521739130435
 40
0.6956521739130435
 40
0.7391304347826086
 40
0.7391304347826086
 40
0.7391304347826086
 40
0.7391304347826086
 40
0.782608695652174
 40
0.782608695652174
 40
0.782608695652174
 40
0.782608695652174
 40
0.8260869565217391
 40
0.8260869565217391
 40
0.8260869565217391
 40
0.8260869565217391
 40
0.8695652173913043
 40
0.8695652173913043
 40
0.8695652173913043
 40
0.8695652173913043
 40
0.9130434782608695
 40
0.9130434782608695
 40
0.9130434782608695
 40
0.9130434782608695
 40
1.0
 40
1.0
 40
1.0
 40
1.0
 10
14.8787
 20
-4.3381
 30
0.0
 10
14.8787
 20
-4.3381
 30
0.0
 10
14.8566
 20
-4.0996
 30
0.0
 10
14.8566
 20
-4.0996
 30
0.0
 10
14.8566
 20
-4.0996
 30
0.0
 10
14.9686
 20
-4.0794
 30
0.0
 10
15.0499
 20
-4.0408
 30
0.0
 10
15.1007
 20
-3.9839
 30
0.0
 10
15.1007
 20
-3.9839
 30
0.0
 10
15.1511
 20
-3.927
 30
0.0
 10
15.1765
 20
-3.8541
 30
0.0
 10
15.1765
 20
-3.7647
 30
0.0
 10
15.1765
 20
-3.7647
 30
0.0
 10
15.1765
 20
-3.6885
 30
0.0
 10
15.1591
 20
-3.6218
 30
0.0
 10
15.1238
 20
-3.5644
 30
0.0
 10
15.1238
 20
-3.5644
 30
0.0
 10
15.089
 20
-3.507
 30
0.0
 10
15.0424
 20
-3.4599
 30
0.0
 10
14.9841
 20
-3.4233
 30
0.0
 10
14.9841
 20
-3.4233
 30
0.0
 10
14.9258
 20
-3.3861
 30
0.0
 10
14.8467
 20
-3.3555
 30
0.0
 10
14.748
 20
-3.3306
 30
0.0
 10
14.748
 20
-3.3306
 30
0.0
 10
14.6487
 20
-3.3061
 30
0.0
 10
14.5476
 20
-3.2934
 30
0.0
 10
14.4446
 20
-3.2934
 30
0.0
 10
14.4446
 20
-3.2934
 30
0.0
 10
14.4338
 20
-3.2934
 30
0.0
 10
14.4168
 20
-3.2939
 30
0.0
 10
14.3952
 20
-3.2948
 30
0.0
 10
14.3952
 20
-3.2948
 30
0.0
 10
14.4737
 20
-3.3447
 30
0.0
 10
14.5382
 20
-3.4124
 30
0.0
 10
14.5871
 20
-3.498
 30
0.0
 10
14.5871
 20
-3.498
 30
0.0
 10
14.6365
 20
-3.5841
 30
0.0
 10
14.6609
 20
-3.6773
 30
0.0
 10
14.6609
 20
-3.777
 30
0.0
 10
14.6609
 20
-3.777
 30
0.0
 10
14.6609
 20
-3.9444
 30
0.0
 10
14.6003
 20
-4.086
 30
0.0
 10
14.4789
 20
-4.2017
 30
0.0
 10
14.4789
 20
-4.2017
 30
0.0
 10
14.3576
 20
-4.3174
 30
0.0
 10
14.1981
 20
-4.3753
 30
0.0
 10
13.9996
 20
-4.3753
 30
0.0
 10
13.9996
 20
-4.3753
 30
0.0
 10
13.7945
 20
-4.3753
 30
0.0
 10
13.6299
 20
-4.3151
 30
0.0
 10
13.5048
 20
-4.1942
 30
0.0
 10
13.5048
 20
-4.1942
 30
0.0
 10
13.3797
 20
-4.0733
 30
0.0
 10
13.3171
 20
-3.9218
 30
0.0
 10
13.3171
 20
-3.7398
 30
0.0
 10
13.3171
 20
-3.7398
 30
0.0
 10
13.3171
 20
-3.6086
 30
0.0
 10
13.3529
 20
-3.4886
 30
0.0
 10
13.4234
 20
-3.3795
 30
0.0
 10
13.4234
 20
-3.3795
 30
0.0
 10
13.494
 20
-3.2709
 30
0.0
 10
13.5951
 20
-3.1881
 30
0.0
 10
13.7259
 20
-3.1316
 30
0.0
 10
13.7259
 20
-3.1316
 30
0.0
 10
13.8566
 20
-3.0752
 30
0.0
 10
14.0462
 20
-3.047
 30
0.0
 10
14.2945
 20
-3.047
 30
0.0
 10
14.2945
 20
-3.047
 30
0.0
 10
14.5523
 20
-3.047
 30
0.0
 10
14.7578
 20
-3.0747
 30
0.0
 10
14.9112
 20
-3.1307
 30
0.0
 10
14.9112
 20
-3.1307
 30
0.0
 10
15.0641
 20
-3.1871
 30
0.0
 10
15.1802
 20
-3.2704
 30
0.0
 10
15.2602
 20
-3.3809
 30
0.0
 10
15.2602
 20
-3.3809
 30
0.0
 10
15.3402
 20
-3.4919
 30
0.0
 10
15.3801
 20
-3.6213
 30
0.0
 10
15.3801
 20
-3.7704
 30
0.0
 10
15.3801
 20
-3.7704
 30
0.0
 10
15.3801
 20
-3.9284
 30
0.0
 10
15.3364
 20
-4.0573
 30
0.0
 10
15.2484
 20
-4.1575
 30
0.0
 10
15.2484
 20
-4.1575
 30
0.0
 10
15.1609
 20
-4.2577
 30
0.0
 10
15.0377
 20
-4.3179
 30
0.0
 10
14.8787
 20
-4.3381
 30
0.0
  0
SPLINE
  5
4E
330
1F
100
AcDbEntity
  8
ROUND
 62
   250
100
AcDbSpline
210
0.0
220
0.0
230
1.0
 70
    11
 71
     3
 72
    36
 73
    32
 74
     0
 42
0.0000000001
 43
0.0000000001
 40
0.0
 40
0.0
 40
0.0
 40
0.0
 40
0.1111111111111111
 40
0.1111111111111111
 40
0.1111111111111111
 40
0.1111111111111111
 40
0.2222222222222222
 40
0.2222222222222222
 40
0.2222222222222222
 40
0.2222222222222222
 40
0.3333333333333333
 40
0.3333333333333333
 40
0.3333333333333333
 40
0.3333333333333333
 40
0.4444444444444444
 40
0.4444444444444444
 40
0.4444444444444444
 40
0.4444444444444444
 40
0.5555555555555556
 40
0.5555555555555556
 40
0.5555555555555556
 40
0.5555555555555556
 40
0.6666666666666666
 40
0.6666666666666666
 40
0.6666666666666666
 40
0.6666666666666666
 40
0.7777777777777778
 40
0.7777777777777778
 40
0.7777777777777778
 40
0.7777777777777778
 40
1.0
 40
1.0
 40
1.0
 40
1.0
 10
13.9869
 20
-3.3226
 30
0.0
 10
13.8449
 20
-3.3226
 30
0.0
 10
13.7315
 20
-3.3602
 30
0.0
 10
13.6482
 20
-3.436
 30
0.0
 10
13.6482
 20
-3.436
 30
0.0
 10
13.5645
 20
-3.5122
 30
0.0
 10
13.5227
 20
-3.6029
 30
0.0
 10
13.5227
 20
-3.7097
 30
0.0
 10
13.5227
 20
-3.7097
 30
0.0
 10
13.5227
 20
-3.8198
 30
0.0
 10
13.5678
 20
-3.9157
 30
0.0
 10
13.6577
 20
-3.9976
 30
0.0
 10
13.6577
 20
-3.9976
 30
0.0
 10
13.748
 20
-4.0794
 30
0.0
 10
13.8646
 20
-4.1203
 30
0.0
 10
14.0076
 20
-4.1203
 30
0.0
 10
14.0076
 20
-4.1203
 30
0.0
 10
14.1365
 20
-4.1203
 30
0.0
 10
14.2409
 20
-4.0813
 30
0.0
 10
14.3213
 20
-4.0037
 30
0.0
 10
14.3213
 20
-4.0037
 30
0.0
 10
14.4018
 20
-3.9261
 30
0.0
 10
14.4418
 20
-3.8306
 30
0.0
 10
14.4418
 20
-3.7168
 30
0.0
 10
14.4418
 20
-3.7168
 30
0.0
 10
14.4418
 20
-3.6015
 30
0.0
 10
14.4018
 20
-3.5075
 30
0.0
 10
14.3213
 20
-3.4336
 30
0.0
 10
14.3213
 20
-3.4336
 30
0.0
 10
14.2409
 20
-3.3593
 30
0.0
 10
14.1294
 20
-3.3226
 30
0.0
 10
13.9869
 20
-3.3226
 30
0.0
  0
SPLINE
  5
4F
330
1F
100
AcDbEntity
  8
ROUND
 62
   250
100
AcDbSpline
210
0.0
220
0.0
230
1.0
 70
    11
 71
     3
 72
    92
 73
    88
 74
     0
 42
0.0000000001
 43
0.0000000001
 40
0.0
 40
0.0
 40
0.0
 40
0.0
 40
0.0434782608695652
 40
0.0434782608695652
 40
0.0434782608695652
 40
0.0434782608695652
 40
0.0869565217391304
 40
0.0869565217391304
 40
0.0869565217391304
 40
0.0869565217391304
 40
0.1304347826086956
 40
0.1304347826086956
 40
0.1304347826086956
 40
0.1304347826086956
 40
0.1739130434782609
 40
0.1739130434782609
 40
0.1739130434782609
 40
0.1739130434782609
 40
0.2173913043478261
 40
0.2173913043478261
 40
0.2173913043478261
 40
0.2173913043478261
 40
0.2608695652173913
 40
0.2608695652173913
 40
0.2608695652173913
 40
0.2608695652173913
 40
0.3043478260869565
 40
0.3043478260869565
 40
0.3043478260869565
 40
0.3043478260869565
 40
0.3478260869565217
 40
0.3478260869565217
 40
0.3478260869565217
 40
0.3478260869565217
 40
0.391304347826087
 40
0.391304347826087
 40
0.391304347826087
 40
0.391304347826087
 40
0.4347826086956522
 40
0.4347826086956522
 40
0.4347826086956522
 40
0.4347826086956522
 40
0.4782608695652174
 40
0.4782608695652174
 40
0.4782608695652174
 40
0.4782608695652174
 40
0.5217391304347826
 40
0.5217391304347826
 40
0.5217391304347826
 40
0.5217391304347826
 40
0.5652173913043478
 40
0.5652173913043478
 40
0.5652173913043478
 40
0.5652173913043478
 40
0.6086956521739131
 40
0.6086956521739131
 40
0.6086956521739131
 40
0.6086956521739131
 40
0.6521739130434783
 40
0.6521739130434783
 40
0.6521739130434783
 40
0.6521739130434783
 40
0.6956521739130435
 40
0.6956521739130435
 40
0.6956521739130435
 40
0.6956521739130435
 40
0.7391304347826086
 40
0.7391304347826086
 40
0.7391304347826086
 40
0.7391304347826086
 40
0.782608695652174
 40
0.782608695652174
 40
0.782608695652174
 40
0.782608695652174
 40
0.8260869565217391
 40
0.8260869565217391
 40
0.8260869565217391
 40
0.8260869565217391
 40
0.8695652173913043
 40
0.8695652173913043
 40
0.8695652173913043
 40
0.8695652173913043
 40
0.9130434782608695
 40
0.9130434782608695
 40
0.9130434782608695
 40
0.9130434782608695
 40
1.0
 40
1.0
 40
1.0
 40
1.0
 10
14.8166
 20
-2.8057
 30
0.0
 10
14.8166
 20
-2.8057
 30
0.0
 10
14.7945
 20
-2.5451
 30
0.0
 10
14.7945
 20
-2.5451
 30
0.0
 10
14.7945
 20
-2.5451
 30
0.0
 10
14.9215
 20
-2.5258
 30
0.0
 10
15.0165
 20
-2.4811
 30
0.0
 10
15.0805
 20
-2.411
 30
0.0
 10
15.0805
 20
-2.411
 30
0.0
 10
15.1445
 20
-2.3405
 30
0.0
 10
15.1765
 20
-2.2558
 30
0.0
 10
15.1765
 20
-2.1566
 30
0.0
 10
15.1765
 20
-2.1566
 30
0.0
 10
15.1765
 20
-2.0371
 30
0.0
 10
15.1313
 20
-1.936
 30
0.0
 10
15.0415
 20
-1.8537
 30
0.0
 10
15.0415
 20
-1.8537
 30
0.0
 10
14.9512
 20
-1.7709
 30
0.0
 10
14.8317
 20
-1.7295
 30
0.0
 10
14.6831
 20
-1.7295
 30
0.0
 10
14.6831
 20
-1.7295
 30
0.0
 10
14.5415
 20
-1.7295
 30
0.0
 10
14.43
 20
-1.769
 30
0.0
 10
14.3482
 20
-1.8485
 30
0.0
 10
14.3482
 20
-1.8485
 30
0.0
 10
14.2663
 20
-1.928
 30
0.0
 10
14.2254
 20
-2.0319
 30
0.0
 10
14.2254
 20
-2.1608
 30
0.0
 10
14.2254
 20
-2.1608
 30
0.0
 10
14.2254
 20
-2.2408
 30
0.0
 10
14.2437
 20
-2.3127
 30
0.0
 10
14.2799
 20
-2.3772
 30
0.0
 10
14.2799
 20
-2.3772
 30
0.0
 10
14.3162
 20
-2.4416
 30
0.0
 10
14.3632
 20
-2.4919
 30
0.0
 10
14.4211
 20
-2.5286
 30
0.0
 10
14.4211
 20
-2.5286
 30
0.0
 10
14.4211
 20
-2.5286
 30
0.0
 10
14.391
 20
-2.7615
 30
0.0
 10
14.391
 20
-2.7615
 30
0.0
 10
14.391
 20
-2.7615
 30
0.0
 10
14.391
 20
-2.7615
 30
0.0
 10
13.3533
 20
-2.5658
 30
0.0
 10
13.3533
 20
-2.5658
 30
0.0
 10
13.3533
 20
-2.5658
 30
0.0
 10
13.3533
 20
-2.5658
 30
0.0
 10
13.3533
 20
-1.5611
 30
0.0
 10
13.3533
 20
-1.5611
 30
0.0
 10
13.3533
 20
-1.5611
 30
0.0
 10
13.3533
 20
-1.5611
 30
0.0
 10
13.5904
 20
-1.5611
 30
0.0
 10
13.5904
 20
-1.5611
 30
0.0
 10
13.5904
 20
-1.5611
 30
0.0
 10
13.5904
 20
-1.5611
 30
0.0
 10
13.5904
 20
-2.3673
 30
0.0
 10
13.5904
 20
-2.3673
 30
0.0
 10
13.5904
 20
-2.3673
 30
0.0
 10
13.5904
 20
-2.3673
 30
0.0
 10
14.1332
 20
-2.4764
 30
0.0
 10
14.1332
 20
-2.4764
 30
0.0
 10
14.1332
 20
-2.4764
 30
0.0
 10
14.0485
 20
-2.3551
 30
0.0
 10
14.0062
 20
-2.2276
 30
0.0
 10
14.0062
 20
-2.0945
 30
0.0
 10
14.0062
 20
-2.0945
 30
0.0
 10
14.0062
 20
-1.9181
 30
0.0
 10
14.0673
 20
-1.7695
 30
0.0
 10
14.1896
 20
-1.6481
 30
0.0
 10
14.1896
 20
-1.6481
 30
0.0
 10
14.3119
 20
-1.5268
 30
0.0
 10
14.469
 20
-1.4661
 30
0.0
 10
14.6609
 20
-1.4661
 30
0.0
 10
14.6609
 20
-1.4661
 30
0.0
 10
14.8439
 20
-1.4661
 30
0.0
 10
15.002
 20
-1.5197
 30
0.0
 10
15.1351
 20
-1.626
 30
0.0
 10
15.1351
 20
-1.626
 30
0.0
 10
15.2983
 20
-1.7558
 30
0.0
 10
15.3801
 20
-1.9327
 30
0.0
 10
15.3801
 20
-2.1566
 30
0.0
 10
15.3801
 20
-2.1566
 30
0.0
 10
15.3801
 20
-2.3405
 30
0.0
 10
15.3289
 20
-2.4905
 30
0.0
 10
15.2259
 20
-2.6067
 30
0.0
 10
15.2259
 20
-2.6067
 30
0.0
 10
15.1228
 20
-2.7229
 30
0.0
 10
14.9864
 20
-2.7892
 30
0.0
 10
14.8166
 20
-2.8057
 30
0.0
  0
SPLINE
  5
50
330
1F
100
AcDbEntity
  8
ROUND
 62
   250
100
AcDbSpline
210
0.0
220
0.0
230
1.0
 70
    11
 71
     3
 72
    20
 73
    16
 74
     0
 42
0.0000000001
 43
0.0000000001
 40
0.0
 40
0.0
 40
0.0
 40
0.0
 40
0.2
 40
0.2
 40
0.2
 40
0.2
 40
0.4
 40
0.4
 40
0.4
 40
0.4
 40
0.6
 40
0.6
 40
0.6
 40
0.6
 40
1.0
 40
1.0
 40
1.0
 40
1.0
 10
15.2813
 20
2.0325
 30
0.0
 10
15.2813
 20
2.0325
 30
0.0
 10
15.7047
 20
5.0325
 30
0.0
 10
15.7047
 20
5.0325
 30
0.0
 10
15.7047
 20
5.0325
 30
0.0
 10
15.7047
 20
5.0325
 30
0.0
 10
15.7987
 20
5.0325
 30
0.0
 10
15.7987
 20
5.0325
 30
0.0
 10
15.7987
 20
5.0325
 30
0.0
 10
15.7987
 20
5.0325
 30
0.0
 10
16.2502
 20
2.0325
 30
0.0
 10
16.2502
 20
2.0325
 30
0.0
 10
16.2502
 20
2.0325
 30
0.0
 10
16.2502
 20
2.0325
 30
0.0
 10
15.2813
 20
2.0325
 30
0.0
 10
15.2813
 20
2.0325
 30
0.0
  0
SPLINE
  5
51
330
1F
100
AcDbEntity
  8
ROUND
 62
   250
100
AcDbSpline
210
0.0
220
0.0
230
1.0
 70
    11
 71
     3
 72
    20
 73
    16
 74
     0
 42
0.0000000001
 43
0.0000000001
 40
0.0
 40
0.0
 40
0.0
 40
0.0
 40
0.2
 40
0.2
 40
0.2
 40
0.2
 40
0.4
 40
0.4
 40
0.4
 40
0.4
 40
0.6
 40
0.6
 40
0.6
 40
0.6
 40
1.0
 40
1.0
 40
1.0
 40
1.0
 10
16.2501
 20
-9.255
 30
0.0
 10
16.2501
 20
-9.255
 30
0.0
 10
15.8267
 20
-12.2551
 30
0.0
 10
15.8267
 20
-12.2551
 30
0.0
 10
15.8267
 20
-12.2551
 30
0.0
 10
15.8267
 20
-12.2551
 30
0.0
 10
15.7327
 20
-12.2551
 30
0.0
 10
15.7327
 20
-12.2551
 30
0.0
 10
15.7327
 20
-12.2551
 30
0.0
 10
15.7327
 20
-12.2551
 30
0.0
 10
15.2812
 20
-9.255
 30
0.0
 10
15.2812
 20
-9.255
 30
0.0
 10
15.2812
 20
-9.255
 30
0.0
 10
15.2812
 20
-9.255
 30
0.0
 10
16.2501
 20
-9.255
 30
0.0
 10
16.2501
 20
-9.255
 30
0.0
  0
SPLINE
  5
52
330
1F
100
AcDbEntity
  8
ROUND
 62
   250
100
AcDbSpline
210
0.0
220
0.0
230
1.0
 70
    24
 71
     3
 72
     8
 73
     4
 74
     0
 42
0.0000000001
 43
0.0000000001
 40
0.0
 40
0.0
 40
0.0
 40
0.0
 40
1.0
 40
1.0
 40
1.0
 40
1.0
 10
16.5712
 20
5.1729
 30
0.0
 10
16.5712
 20
5.1729
 30
0.0
 10
8.7184
 20
5.1729
 30
0.0
 10
8.7184
 20
5.1729
 30
0.0
  0
SPLINE
  5
53
330
1F
100
AcDbEntity
  8
ROUND
 62
   250
100
AcDbSpline
210
0.0
220
0.0
230
1.0
 70
     8
 71
     3
 72
    16
 73
    12
 74
     0
 42
0.0000000001
 43
0.0000000001
 40
0.0
 40
0.0
 40
0.0
 40
0.0
 40
0.25
 40
0.25
 40
0.25
 40
0.25
 40
0.5
 40
0.5
 40
0.5
 40
0.5
 40
1.0
 40
1.0
 40
1.0
 40
1.0
 10
1.0291
 20
-2.9527
 30
0.0
 10
1.0291
 20
-2.9527
 30
0.0
 10
1.0291
 20
-5.4339
 30
0.0
 10
1.0291
 20
-5.4339
 30
0.0
 10
1.0291
 20
-5.4339
 30
0.0
 10
1.0291
 20
-5.4339
 30
0.0
 10
11.3483
 20
-5.4412
 30
0.0
 10
11.3483
 20
-5.4412
 30
0.0
 10
11.3483
 20
-5.4412
 30
0.0
 10
11.3483
 20
-5.4412
 30
0.0
 10
11.3483
 20
-2.9272
 30
0.0
 10
11.3483
 20
-2.9272
 30
0.0
  0
SPLINE
  5
54
330
1F
100
AcDbEntity
  8
ROUND
 62
   250
100
AcDbSpline
210
0.0
220
0.0
230
1.0
 70
     8
 71
     3
 72
   124
 73
   120
 74
     0
 42
0.0000000001
 43
0.0000000001
 40
0.0
 40
0.0
 40
0.0
 40
0.0
 40
0.032258064516129
 40
0.032258064516129
 40
0.032258064516129
 40
0.032258064516129
 40
0.0645161290322581
 40
0.0645161290322581
 40
0.0645161290322581
 40
0.0645161290322581
 40
0.0967741935483871
 40
0.0967741935483871
 40
0.0967741935483871
 40
0.0967741935483871
 40
0.1290322580645161
 40
0.1290322580645161
 40
0.1290322580645161
 40
0.1290322580645161
 40
0.1612903225806452
 40
0.1612903225806452
 40
0.1612903225806452
 40
0.1612903225806452
 40
0.1935483870967742
 40
0.1935483870967742
 40
0.1935483870967742
 40
0.1935483870967742
 40
0.2258064516129032
 40
0.2258064516129032
 40
0.2258064516129032
 40
0.2258064516129032
 40
0.2580645161290323
 40
0.2580645161290323
 40
0.2580645161290323
 40
0.2580645161290323
 40
0.2903225806451613
 40
0.2903225806451613
 40
0.2903225806451613
 40
0.2903225806451613
 40
0.3225806451612903
 40
0.3225806451612903
 40
0.3225806451612903
 40
0.3225806451612903
 40
0.3548387096774194
 40
0.3548387096774194
 40
0.3548387096774194
 40
0.3548387096774194
 40
0.3870967741935484
 40
0.3870967741935484
 40
0.3870967741935484
 40
0.3870967741935484
 40
0.4193548387096774
 40
0.4193548387096774
 40
0.4193548387096774
 40
0.4193548387096774
 40
0.4516129032258064
 40
0.4516129032258064
 40
0.4516129032258064
 40
0.4516129032258064
 40
0.4838709677419355
 40
0.4838709677419355
 40
0.4838709677419355
 40
0.4838709677419355
 40
0.5161290322580645
 40
0.5161290322580645
 40
0.5161290322580645
 40
0.5161290322580645
 40
0.5483870967741935
 40
0.5483870967741935
 40
0.5483870967741935
 40
0.5483870967741935
 40
0.5806451612903226
 40
0.5806451612903226
 40
0.5806451612903226
 40
0.5806451612903226
 40
0.6129032258064516
 40
0.6129032258064516
 40
0.6129032258064516
 40
0.6129032258064516
 40
0.6451612903225806
 40
0.6451612903225806
 40
0.6451612903225806
 40
0.6451612903225806
 40
0.6774193548387096
 40
0.6774193548387096
 40
0.6774193548387096
 40
0.6774193548387096
 40
0.7096774193548387
 40
0.7096774193548387
 40
0.7096774193548387
 40
0.7096774193548387
 40
0.7419354838709677
 40
0.7419354838709677
 40
0.7419354838709677
 40
0.7419354838709677
 40
0.7741935483870968
 40
0.7741935483870968
 40
0.7741935483870968
 40
0.7741935483870968
 40
0.8064516129032258
 40
0.8064516129032258
 40
0.8064516129032258
 40
0.8064516129032258
 40
0.8387096774193549
 40
0.8387096774193549
 40
0.8387096774193549
 40
0.8387096774193549
 40
0.8709677419354839
 40
0.8709677419354839
 40
0.8709677419354839
 40
0.8709677419354839
 40
0.9032258064516129
 40
0.9032258064516129
 40
0.9032258064516129
 40
0.9032258064516129
 40
0.9354838709677419
 40
0.9354838709677419
 40
0.9354838709677419
 40
0.9354838709677419
 40
1.0
 40
1.0
 40
1.0
 40
1.0
 10
11.2959
 20
-3.3071
 30
0.0
 10
11.2959
 20
-3.3071
 30
0.0
 10
11.2959
 20
-4.9022
 30
0.0
 10
11.2959
 20
-4.9022
 30
0.0
 10
11.2959
 20
-4.9022
 30
0.0
 10
11.2959
 20
-4.9022
 30
0.0
 10
10.0948
 20
-4.8996
 30
0.0
 10
10.0948
 20
-4.8996
 30
0.0
 10
10.0948
 20
-4.8996
 30
0.0
 10
10.0948
 20
-4.8996
 30
0.0
 10
10.0803
 20
-3.1985
 30
0.0
 10
10.0803
 20
-3.1985
 30
0.0
 10
10.0803
 20
-3.1985
 30
0.0
 10
10.0803
 20
-3.1985
 30
0.0
 10
10.0079
 20
-3.075
 30
0.0
 10
10.0079
 20
-3.075
 30
0.0
 10
10.0079
 20
-3.075
 30
0.0
 10
10.0079
 20
-3.075
 30
0.0
 10
9.8633
 20
-2.9515
 30
0.0
 10
9.8633
 20
-2.9515
 30
0.0
 10
9.8633
 20
-2.9515
 30
0.0
 10
9.8633
 20
-2.9515
 30
0.0
 10
9.733
 20
-2.9515
 30
0.0
 10
9.733
 20
-2.9515
 30
0.0
 10
9.733
 20
-2.9515
 30
0.0
 10
9.733
 20
-2.9515
 30
0.0
 10
9.6462
 20
-3.0201
 30
0.0
 10
9.6462
 20
-3.0201
 30
0.0
 10
9.6462
 20
-3.0201
 30
0.0
 10
9.6462
 20
-3.0201
 30
0.0
 10
9.5594
 20
-3.1025
 30
0.0
 10
9.5594
 20
-3.1025
 30
0.0
 10
9.5594
 20
-3.1025
 30
0.0
 10
9.5594
 20
-3.1025
 30
0.0
 10
9.5449
 20
-3.2945
 30
0.0
 10
9.5449
 20
-3.2945
 30
0.0
 10
9.5449
 20
-3.2945
 30
0.0
 10
9.5449
 20
-3.2945
 30
0.0
 10
9.5305
 20
-4.8721
 30
0.0
 10
9.5305
 20
-4.8721
 30
0.0
 10
9.5305
 20
-4.8721
 30
0.0
 10
9.5305
 20
-4.8721
 30
0.0
 10
6.521
 20
-4.8996
 30
0.0
 10
6.521
 20
-4.8996
 30
0.0
 10
6.521
 20
-4.8996
 30
0.0
 10
6.521
 20
-4.8996
 30
0.0
 10
6.5355
 20
-3.3082
 30
0.0
 10
6.5355
 20
-3.3082
 30
0.0
 10
6.5355
 20
-3.3082
 30
0.0
 10
6.5355
 20
-3.3082
 30
0.0
 10
6.4921
 20
-3.1573
 30
0.0
 10
6.4921
 20
-3.1573
 30
0.0
 10
6.4921
 20
-3.1573
 30
0.0
 10
6.4921
 20
-3.1573
 30
0.0
 10
6.4053
 20
-3.0339
 30
0.0
 10
6.4053
 20
-3.0339
 30
0.0
 10
6.4053
 20
-3.0339
 30
0.0
 10
6.4053
 20
-3.0339
 30
0.0
 10
6.2606
 20
-2.9653
 30
0.0
 10
6.2606
 20
-2.9653
 30
0.0
 10
6.2606
 20
-2.9653
 30
0.0
 10
6.2606
 20
-2.9653
 30
0.0
 10
6.087
 20
-2.9653
 30
0.0
 10
6.087
 20
-2.9653
 30
0.0
 10
6.087
 20
-2.9653
 30
0.0
 10
6.087
 20
-2.9653
 30
0.0
 10
5.9567
 20
-3.0201
 30
0.0
 10
5.9567
 20
-3.0201
 30
0.0
 10
5.9567
 20
-3.0201
 30
0.0
 10
5.9567
 20
-3.0201
 30
0.0
 10
5.8555
 20
-3.1299
 30
0.0
 10
5.8555
 20
-3.1299
 30
0.0
 10
5.8555
 20
-3.1299
 30
0.0
 10
5.8555
 20
-3.1299
 30
0.0
 10
5.8121
 20
-3.2671
 30
0.0
 10
5.8121
 20
-3.2671
 30
0.0
 10
5.8121
 20
-3.2671
 30
0.0
 10
5.8121
 20
-3.2671
 30
0.0
 10
5.8265
 20
-4.8859
 30
0.0
 10
5.8265
 20
-4.8859
 30
0.0
 10
5.8265
 20
-4.8859
 30
0.0
 10
5.8265
 20
-4.8859
 30
0.0
 10
2.8026
 20
-4.8996
 30
0.0
 10
2.8026
 20
-4.8996
 30
0.0
 10
2.8026
 20
-4.8996
 30
0.0
 10
2.8026
 20
-4.8996
 30
0.0
 10
2.7988
 20
-3.2409
 30
0.0
 10
2.7988
 20
-3.2409
 30
0.0
 10
2.7988
 20
-3.2409
 30
0.0
 10
2.7988
 20
-3.2409
 30
0.0
 10
2.7443
 20
-3.0656
 30
0.0
 10
2.7443
 20
-3.0656
 30
0.0
 10
2.7443
 20
-3.0656
 30
0.0
 10
2.7443
 20
-3.0656
 30
0.0
 10
2.5917
 20
-2.9521
 30
0.0
 10
2.5917
 20
-2.9521
 30
0.0
 10
2.5917
 20
-2.9521
 30
0.0
 10
2.5917
 20
-2.9521
 30
0.0
 10
2.4719
 20
-2.9521
 30
0.0
 10
2.4719
 20
-2.9521
 30
0.0
 10
2.4719
 20
-2.9521
 30
0.0
 10
2.4719
 20
-2.9521
 30
0.0
 10
2.3629
 20
-3.0037
 30
0.0
 10
2.3629
 20
-3.0037
 30
0.0
 10
2.3629
 20
-3.0037
 30
0.0
 10
2.3629
 20
-3.0037
 30
0.0
 10
2.2975
 20
-3.1687
 30
0.0
 10
2.2975
 20
-3.1687
 30
0.0
 10
2.2975
 20
-3.1687
 30
0.0
 10
2.2975
 20
-3.1687
 30
0.0
 10
2.2757
 20
-3.2822
 30
0.0
 10
2.2757
 20
-3.2822
 30
0.0
 10
2.2757
 20
-3.2822
 30
0.0
 10
2.2757
 20
-3.2822
 30
0.0
 10
2.2757
 20
-4.9013
 30
0.0
 10
2.2757
 20
-4.9013
 30
0.0
 10
2.2757
 20
-4.9013
 30
0.0
 10
2.2757
 20
-4.9013
 30
0.0
 10
1.0114
 20
-4.9013
 30
0.0
 10
1.0114
 20
-4.9013
 30
0.0
  0
SPLINE
  5
55
330
1F
100
AcDbEntity
  8
ROUND
 62
   250
100
AcDbSpline
210
0.0
220
0.0
230
1.0
 70
     8
 71
     3
 72
    36
 73
    32
 74
     0
 42
0.0000000001
 43
0.0000000001
 40
0.0
 40
0.0
 40
0.0
 40
0.0
 40
0.1111111111111111
 40
0.1111111111111111
 40
0.1111111111111111
 40
0.1111111111111111
 40
0.2222222222222222
 40
0.2222222222222222
 40
0.2222222222222222
 40
0.2222222222222222
 40
0.3333333333333333
 40
0.3333333333333333
 40
0.3333333333333333
 40
0.3333333333333333
 40
0.4444444444444444
 40
0.4444444444444444
 40
0.4444444444444444
 40
0.4444444444444444
 40
0.5555555555555556
 40
0.5555555555555556
 40
0.5555555555555556
 40
0.5555555555555556
 40
0.6666666666666666
 40
0.6666666666666666
 40
0.6666666666666666
 40
0.6666666666666666
 40
0.7777777777777778
 40
0.7777777777777778
 40
0.7777777777777778
 40
0.7777777777777778
 40
1.0
 40
1.0
 40
1.0
 40
1.0
 10
1.1204
 20
-4.9069
 30
0.0
 10
1.1204
 20
-4.9069
 30
0.0
 10
1.1224
 20
-2.7055
 30
0.0
 10
1.1224
 20
-2.5097
 30
0.0
 10
1.1224
 20
-2.5097
 30
0.0
 10
1.1224
 20
-2.314
 30
0.0
 10
1.2901
 20
-2.1552
 30
0.0
 10
1.4965
 20
-2.1552
 30
0.0
 10
1.4965
 20
-2.1552
 30
0.0
 10
1.7029
 20
-2.1552
 30
0.0
 10
10.8403
 20
-2.1485
 30
0.0
 10
10.8403
 20
-2.1485
 30
0.0
 10
10.8403
 20
-2.1485
 30
0.0
 10
10.8403
 20
-2.1485
 30
0.0
 10
10.9881
 20
-2.1994
 30
0.0
 10
10.9881
 20
-2.1994
 30
0.0
 10
10.9881
 20
-2.1994
 30
0.0
 10
10.9881
 20
-2.1994
 30
0.0
 10
11.1182
 20
-2.2635
 30
0.0
 10
11.1182
 20
-2.2635
 30
0.0
 10
11.1182
 20
-2.2635
 30
0.0
 10
11.1182
 20
-2.2635
 30
0.0
 10
11.1963
 20
-2.3671
 30
0.0
 10
11.1963
 20
-2.3671
 30
0.0
 10
11.1963
 20
-2.3671
 30
0.0
 10
11.1963
 20
-2.3671
 30
0.0
 10
11.2171
 20
-2.4806
 30
0.0
 10
11.2171
 20
-2.4806
 30
0.0
 10
11.2171
 20
-2.4806
 30
0.0
 10
11.2171
 20
-2.4806
 30
0.0
 10
11.2119
 20
-4.9132
 30
0.0
 10
11.2119
 20
-4.9132
 30
0.0
  0
SPLINE
  5
56
330
1F
100
AcDbEntity
  8
ROUND
 62
   250
100
AcDbSpline
210
0.0
220
0.0
230
1.0
 70
     8
 71
     3
 72
    16
 73
    12
 74
     0
 42
0.0000000001
 43
0.0000000001
 40
0.0
 40
0.0
 40
0.0
 40
0.0
 40
0.25
 40
0.25
 40
0.25
 40
0.25
 40
0.5
 40
0.5
 40
0.5
 40
0.5
 40
1.0
 40
1.0
 40
1.0
 40
1.0
 10
28.0161
 20
-5.6063
 30
0.0
 10
28.0161
 20
-5.6063
 30
0.0
 10
28.0161
 20
-3.1251
 30
0.0
 10
28.0161
 20
-3.1251
 30
0.0
 10
28.0161
 20
-3.1251
 30
0.0
 10
28.0161
 20
-3.1251
 30
0.0
 10
17.6969
 20
-3.1178
 30
0.0
 10
17.6969
 20
-3.1178
 30
0.0
 10
17.6969
 20
-3.1178
 30
0.0
 10
17.6969
 20
-3.1178
 30
0.0
 10
17.6969
 20
-5.6318
 30
0.0
 10
17.6969
 20
-5.6318
 30
0.0
  0
SPLINE
  5
57
330
1F
100
AcDbEntity
  8
ROUND
 62
   250
100
AcDbSpline
210
0.0
220
0.0
230
1.0
 70
     8
 71
     3
 72
   124
 73
   120
 74
     0
 42
0.0000000001
 43
0.0000000001
 40
0.0
 40
0.0
 40
0.0
 40
0.0
 40
0.032258064516129
 40
0.032258064516129
 40
0.032258064516129
 40
0.032258064516129
 40
0.0645161290322581
 40
0.0645161290322581
 40
0.0645161290322581
 40
0.0645161290322581
 40
0.0967741935483871
 40
0.0967741935483871
 40
0.0967741935483871
 40
0.0967741935483871
 40
0.1290322580645161
 40
0.1290322580645161
 40
0.1290322580645161
 40
0.1290322580645161
 40
0.1612903225806452
 40
0.1612903225806452
 40
0.1612903225806452
 40
0.1612903225806452
 40
0.1935483870967742
 40
0.1935483870967742
 40
0.1935483870967742
 40
0.1935483870967742
 40
0.2258064516129032
 40
0.2258064516129032
 40
0.2258064516129032
 40
0.2258064516129032
 40
0.2580645161290323
 40
0.2580645161290323
 40
0.2580645161290323
 40
0.2580645161290323
 40
0.2903225806451613
 40
0.2903225806451613
 40
0.2903225806451613
 40
0.2903225806451613
 40
0.3225806451612903
 40
0.3225806451612903
 40
0.3225806451612903
 40
0.3225806451612903
 40
0.3548387096774194
 40
0.3548387096774194
 40
0.3548387096774194
 40
0.3548387096774194
 40
0.3870967741935484
 40
0.3870967741935484
 40
0.3870967741935484
 40
0.3870967741935484
 40
0.4193548387096774
 40
0.4193548387096774
 40
0.4193548387096774
 40
0.4193548387096774
 40
0.4516129032258064
 40
0.4516129032258064
 40
0.4516129032258064
 40
0.4516129032258064
 40
0.4838709677419355
 40
0.4838709677419355
 40
0.4838709677419355
 40
0.4838709677419355
 40
0.5161290322580645
 40
0.5161290322580645
 40
0.5161290322580645
 40
0.5161290322580645
 40
0.5483870967741935
 40
0.5483870967741935
 40
0.5483870967741935
 40
0.5483870967741935
 40
0.5806451612903226
 40
0.5806451612903226
 40
0.5806451612903226
 40
0.5806451612903226
 40
0.6129032258064516
 40
0.6129032258064516
 40
0.6129032258064516
 40
0.6129032258064516
 40
0.6451612903225806
 40
0.6451612903225806
 40
0.6451612903225806
 40
0.6451612903225806
 40
0.6774193548387096
 40
0.6774193548387096
 40
0.6774193548387096
 40
0.6774193548387096
 40
0.7096774193548387
 40
0.7096774193548387
 40
0.7096774193548387
 40
0.7096774193548387
 40
0.7419354838709677
 40
0.7419354838709677
 40
0.7419354838709677
 40
0.7419354838709677
 40
0.7741935483870968
 40
0.7741935483870968
 40
0.7741935483870968
 40
0.7741935483870968
 40
0.8064516129032258
 40
0.8064516129032258
 40
0.8064516129032258
 40
0.8064516129032258
 40
0.8387096774193549
 40
0.8387096774193549
 40
0.8387096774193549
 40
0.8387096774193549
 40
0.8709677419354839
 40
0.8709677419354839
 40
0.8709677419354839
 40
0.8709677419354839
 40
0.9032258064516129
 40
0.9032258064516129
 40
0.9032258064516129
 40
0.9032258064516129
 40
0.9354838709677419
 40
0.9354838709677419
 40
0.9354838709677419
 40
0.9354838709677419
 40
1.0
 40
1.0
 40
1.0
 40
1.0
 10
17.7493
 20
-5.2519
 30
0.0
 10
17.7493
 20
-5.2519
 30
0.0
 10
17.7493
 20
-3.6568
 30
0.0
 10
17.7493
 20
-3.6568
 30
0.0
 10
17.7493
 20
-3.6568
 30
0.0
 10
17.7493
 20
-3.6568
 30
0.0
 10
18.9504
 20
-3.6594
 30
0.0
 10
18.9504
 20
-3.6594
 30
0.0
 10
18.9504
 20
-3.6594
 30
0.0
 10
18.9504
 20
-3.6594
 30
0.0
 10
18.9649
 20
-5.3605
 30
0.0
 10
18.9649
 20
-5.3605
 30
0.0
 10
18.9649
 20
-5.3605
 30
0.0
 10
18.9649
 20
-5.3605
 30
0.0
 10
19.0373
 20
-5.484
 30
0.0
 10
19.0373
 20
-5.484
 30
0.0
 10
19.0373
 20
-5.484
 30
0.0
 10
19.0373
 20
-5.484
 30
0.0
 10
19.1819
 20
-5.6075
 30
0.0
 10
19.1819
 20
-5.6075
 30
0.0
 10
19.1819
 20
-5.6075
 30
0.0
 10
19.1819
 20
-5.6075
 30
0.0
 10
19.3122
 20
-5.6075
 30
0.0
 10
19.3122
 20
-5.6075
 30
0.0
 10
19.3122
 20
-5.6075
 30
0.0
 10
19.3122
 20
-5.6075
 30
0.0
 10
19.399
 20
-5.5389
 30
0.0
 10
19.399
 20
-5.5389
 30
0.0
 10
19.399
 20
-5.5389
 30
0.0
 10
19.399
 20
-5.5389
 30
0.0
 10
19.4858
 20
-5.4565
 30
0.0
 10
19.4858
 20
-5.4565
 30
0.0
 10
19.4858
 20
-5.4565
 30
0.0
 10
19.4858
 20
-5.4565
 30
0.0
 10
19.5003
 20
-5.2645
 30
0.0
 10
19.5003
 20
-5.2645
 30
0.0
 10
19.5003
 20
-5.2645
 30
0.0
 10
19.5003
 20
-5.2645
 30
0.0
 10
19.5147
 20
-3.6869
 30
0.0
 10
19.5147
 20
-3.6869
 30
0.0
 10
19.5147
 20
-3.6869
 30
0.0
 10
19.5147
 20
-3.6869
 30
0.0
 10
22.5242
 20
-3.6594
 30
0.0
 10
22.5242
 20
-3.6594
 30
0.0
 10
22.5242
 20
-3.6594
 30
0.0
 10
22.5242
 20
-3.6594
 30
0.0
 10
22.5097
 20
-5.2508
 30
0.0
 10
22.5097
 20
-5.2508
 30
0.0
 10
22.5097
 20
-5.2508
 30
0.0
 10
22.5097
 20
-5.2508
 30
0.0
 10
22.5531
 20
-5.4017
 30
0.0
 10
22.5531
 20
-5.4017
 30
0.0
 10
22.5531
 20
-5.4017
 30
0.0
 10
22.5531
 20
-5.4017
 30
0.0
 10
22.6399
 20
-5.5251
 30
0.0
 10
22.6399
 20
-5.5251
 30
0.0
 10
22.6399
 20
-5.5251
 30
0.0
 10
22.6399
 20
-5.5251
 30
0.0
 10
22.7846
 20
-5.5937
 30
0.0
 10
22.7846
 20
-5.5937
 30
0.0
 10
22.7846
 20
-5.5937
 30
0.0
 10
22.7846
 20
-5.5937
 30
0.0
 10
22.9582
 20
-5.5937
 30
0.0
 10
22.9582
 20
-5.5937
 30
0.0
 10
22.9582
 20
-5.5937
 30
0.0
 10
22.9582
 20
-5.5937
 30
0.0
 10
23.0885
 20
-5.5389
 30
0.0
 10
23.0885
 20
-5.5389
 30
0.0
 10
23.0885
 20
-5.5389
 30
0.0
 10
23.0885
 20
-5.5389
 30
0.0
 10
23.1897
 20
-5.4291
 30
0.0
 10
23.1897
 20
-5.4291
 30
0.0
 10
23.1897
 20
-5.4291
 30
0.0
 10
23.1897
 20
-5.4291
 30
0.0
 10
23.2331
 20
-5.2919
 30
0.0
 10
23.2331
 20
-5.2919
 30
0.0
 10
23.2331
 20
-5.2919
 30
0.0
 10
23.2331
 20
-5.2919
 30
0.0
 10
23.2187
 20
-3.6731
 30
0.0
 10
23.2187
 20
-3.6731
 30
0.0
 10
23.2187
 20
-3.6731
 30
0.0
 10
23.2187
 20
-3.6731
 30
0.0
 10
26.2426
 20
-3.6594
 30
0.0
 10
26.2426
 20
-3.6594
 30
0.0
 10
26.2426
 20
-3.6594
 30
0.0
 10
26.2426
 20
-3.6594
 30
0.0
 10
26.2464
 20
-5.3181
 30
0.0
 10
26.2464
 20
-5.3181
 30
0.0
 10
26.2464
 20
-5.3181
 30
0.0
 10
26.2464
 20
-5.3181
 30
0.0
 10
26.3009
 20
-5.4934
 30
0.0
 10
26.3009
 20
-5.4934
 30
0.0
 10
26.3009
 20
-5.4934
 30
0.0
 10
26.3009
 20
-5.4934
 30
0.0
 10
26.4535
 20
-5.6069
 30
0.0
 10
26.4535
 20
-5.6069
 30
0.0
 10
26.4535
 20
-5.6069
 30
0.0
 10
26.4535
 20
-5.6069
 30
0.0
 10
26.5733
 20
-5.6069
 30
0.0
 10
26.5733
 20
-5.6069
 30
0.0
 10
26.5733
 20
-5.6069
 30
0.0
 10
26.5733
 20
-5.6069
 30
0.0
 10
26.6823
 20
-5.5553
 30
0.0
 10
26.6823
 20
-5.5553
 30
0.0
 10
26.6823
 20
-5.5553
 30
0.0
 10
26.6823
 20
-5.5553
 30
0.0
 10
26.7477
 20
-5.3903
 30
0.0
 10
26.7477
 20
-5.3903
 30
0.0
 10
26.7477
 20
-5.3903
 30
0.0
 10
26.7477
 20
-5.3903
 30
0.0
 10
26.7695
 20
-5.2768
 30
0.0
 10
26.7695
 20
-5.2768
 30
0.0
 10
26.7695
 20
-5.2768
 30
0.0
 10
26.7695
 20
-5.2768
 30
0.0
 10
26.7695
 20
-3.6577
 30
0.0
 10
26.7695
 20
-3.6577
 30
0.0
 10
26.7695
 20
-3.6577
 30
0.0
 10
26.7695
 20
-3.6577
 30
0.0
 10
28.0338
 20
-3.6577
 30
0.0
 10
28.0338
 20
-3.6577
 30
0.0
  0
SPLINE
  5
58
330
1F
100
AcDbEntity
  8
ROUND
 62
   250
100
AcDbSpline
210
0.0
220
0.0
230
1.0
 70
     8
 71
     3
 72
    36
 73
    32
 74
     0
 42
0.0000000001
 43
0.0000000001
 40
0.0
 40
0.0
 40
0.0
 40
0.0
 40
0.1111111111111111
 40
0.1111111111111111
 40
0.1111111111111111
 40
0.1111111111111111
 40
0.2222222222222222
 40
0.2222222222222222
 40
0.2222222222222222
 40
0.2222222222222222
 40
0.3333333333333333
 40
0.3333333333333333
 40
0.3333333333333333
 40
0.3333333333333333
 40
0.4444444444444444
 40
0.4444444444444444
 40
0.4444444444444444
 40
0.4444444444444444
 40
0.5555555555555556
 40
0.5555555555555556
 40
0.5555555555555556
 40
0.5555555555555556
 40
0.6666666666666666
 40
0.6666666666666666
 40
0.6666666666666666
 40
0.6666666666666666
 40
0.7777777777777778
 40
0.7777777777777778
 40
0.7777777777777778
 40
0.7777777777777778
 40
1.0
 40
1.0
 40
1.0
 40
1.0
 10
27.9248
 20
-3.6521
 30
0.0
 10
27.9248
 20
-3.6521
 30
0.0
 10
27.9228
 20
-5.8535
 30
0.0
 10
27.9228
 20
-6.0493
 30
0.0
 10
27.9228
 20
-6.0493
 30
0.0
 10
27.9228
 20
-6.245
 30
0.0
 10
27.7551
 20
-6.4038
 30
0.0
 10
27.5487
 20
-6.4038
 30
0.0
 10
27.5487
 20
-6.4038
 30
0.0
 10
27.3423
 20
-6.4038
 30
0.0
 10
18.2049
 20
-6.4105
 30
0.0
 10
18.2049
 20
-6.4105
 30
0.0
 10
18.2049
 20
-6.4105
 30
0.0
 10
18.2049
 20
-6.4105
 30
0.0
 10
18.0571
 20
-6.3596
 30
0.0
 10
18.0571
 20
-6.3596
 30
0.0
 10
18.0571
 20
-6.3596
 30
0.0
 10
18.0571
 20
-6.3596
 30
0.0
 10
17.927
 20
-6.2955
 30
0.0
 10
17.927
 20
-6.2955
 30
0.0
 10
17.927
 20
-6.2955
 30
0.0
 10
17.927
 20
-6.2955
 30
0.0
 10
17.8489
 20
-6.1919
 30
0.0
 10
17.8489
 20
-6.1919
 30
0.0
 10
17.8489
 20
-6.1919
 30
0.0
 10
17.8489
 20
-6.1919
 30
0.0
 10
17.8281
 20
-6.0784
 30
0.0
 10
17.8281
 20
-6.0784
 30
0.0
 10
17.8281
 20
-6.0784
 30
0.0
 10
17.8281
 20
-6.0784
 30
0.0
 10
17.8333
 20
-3.6458
 30
0.0
 10
17.8333
 20
-3.6458
 30
0.0
  0
SPLINE
  5
59
330
1F
100
AcDbEntity
  8
ROUND
 62
   250
100
AcDbSpline
210
0.0
220
0.0
230
1.0
 70
     8
 71
     3
 72
    80
 73
    76
 74
     0
 42
0.0000000001
 43
0.0000000001
 40
0.0
 40
0.0
 40
0.0
 40
0.0
 40
0.05
 40
0.05
 40
0.05
 40
0.05
 40
0.1
 40
0.1
 40
0.1
 40
0.1
 40
0.15
 40
0.15
 40
0.15
 40
0.15
 40
0.2
 40
0.2
 40
0.2
 40
0.2
 40
0.25
 40
0.25
 40
0.25
 40
0.25
 40
0.3
 40
0.3
 40
0.3
 40
0.3
 40
0.35
 40
0.35
 40
0.35
 40
0.35
 40
0.4
 40
0.4
 40
0.4
 40
0.4
 40
0.45
 40
0.45
 40
0.45
 40
0.45
 40
0.5
 40
0.5
 40
0.5
 40
0.5
 40
0.55
 40
0.55
 40
0.55
 40
0.55
 40
0.6
 40
0.6
 40
0.6
 40
0.6
 40
0.65
 40
0.65
 40
0.65
 40
0.65
 40
0.7
 40
0.7
 40
0.7
 40
0.7
 40
0.75
 40
0.75
 40
0.75
 40
0.75
 40
0.8
 40
0.8
 40
0.8
 40
0.8
 40
0.85
 40
0.85
 40
0.85
 40
0.85
 40
0.9
 40
0.9
 40
0.9
 40
0.9
 40
1.0
 40
1.0
 40
1.0
 40
1.0
 10
1.4827
 20
-9.3253
 30
0.0
 10
1.4827
 20
-9.3253
 30
0.0
 10
1.4827
 20
-9.7164
 30
0.0
 10
1.4827
 20
-9.7164
 30
0.0
 10
1.4827
 20
-9.7164
 30
0.0
 10
1.4827
 20
-9.7164
 30
0.0
 10
1.5359
 20
-10.0186
 30
0.0
 10
1.5359
 20
-10.0186
 30
0.0
 10
1.5359
 20
-10.0186
 30
0.0
 10
1.5359
 20
-10.0186
 30
0.0
 10
1.6069
 20
-10.4452
 30
0.0
 10
1.6069
 20
-10.4452
 30
0.0
 10
1.6069
 20
-10.4452
 30
0.0
 10
1.6069
 20
-10.4452
 30
0.0
 10
1.8552
 20
-11.0496
 30
0.0
 10
1.8552
 20
-11.0496
 30
0.0
 10
1.8552
 20
-11.0496
 30
0.0
 10
1.8552
 20
-11.0496
 30
0.0
 10
2.2278
 20
-11.5296
 30
0.0
 10
2.2278
 20
-11.5296
 30
0.0
 10
2.2278
 20
-11.5296
 30
0.0
 10
2.2278
 20
-11.5296
 30
0.0
 10
2.7068
 20
-11.974
 30
0.0
 10
2.7068
 20
-11.974
 30
0.0
 10
2.7068
 20
-11.974
 30
0.0
 10
2.7068
 20
-11.974
 30
0.0
 10
3.2213
 20
-12.2051
 30
0.0
 10
3.2213
 20
-12.2051
 30
0.0
 10
3.2213
 20
-12.2051
 30
0.0
 10
3.2213
 20
-12.2051
 30
0.0
 10
3.718
 20
-12.4007
 30
0.0
 10
3.718
 20
-12.4007
 30
0.0
 10
3.718
 20
-12.4007
 30
0.0
 10
3.718
 20
-12.4007
 30
0.0
 10
4.2963
 20
-12.4468
 30
0.0
 10
4.2963
 20
-12.4468
 30
0.0
 10
4.2963
 20
-12.4468
 30
0.0
 10
4.2963
 20
-12.4468
 30
0.0
 10
24.6876
 20
-12.4468
 30
0.0
 10
24.6876
 20
-12.4468
 30
0.0
 10
24.6876
 20
-12.4468
 30
0.0
 10
24.6876
 20
-12.4468
 30
0.0
 10
25.2566
 20
-12.387
 30
0.0
 10
25.2566
 20
-12.387
 30
0.0
 10
25.2566
 20
-12.387
 30
0.0
 10
25.2566
 20
-12.387
 30
0.0
 10
25.7666
 20
-12.217
 30
0.0
 10
25.7666
 20
-12.217
 30
0.0
 10
25.7666
 20
-12.217
 30
0.0
 10
25.7666
 20
-12.217
 30
0.0
 10
26.1916
 20
-12.013
 30
0.0
 10
26.1916
 20
-12.013
 30
0.0
 10
26.1916
 20
-12.013
 30
0.0
 10
26.1916
 20
-12.013
 30
0.0
 10
26.6166
 20
-11.69
 30
0.0
 10
26.6166
 20
-11.69
 30
0.0
 10
26.6166
 20
-11.69
 30
0.0
 10
26.6166
 20
-11.69
 30
0.0
 10
27.0076
 20
-11.248
 30
0.0
 10
27.0076
 20
-11.248
 30
0.0
 10
27.0076
 20
-11.248
 30
0.0
 10
27.0076
 20
-11.248
 30
0.0
 10
27.2626
 20
-10.721
 30
0.0
 10
27.2626
 20
-10.721
 30
0.0
 10
27.2626
 20
-10.721
 30
0.0
 10
27.2626
 20
-10.721
 30
0.0
 10
27.3986
 20
-10.228
 30
0.0
 10
27.3986
 20
-10.228
 30
0.0
 10
27.3986
 20
-10.228
 30
0.0
 10
27.3986
 20
-10.228
 30
0.0
 10
27.4496
 20
-9.735
 30
0.0
 10
27.4496
 20
-9.735
 30
0.0
 10
27.4496
 20
-9.735
 30
0.0
 10
27.4496
 20
-9.735
 30
0.0
 10
27.4496
 20
-9.31
 30
0.0
 10
27.4496
 20
-9.31
 30
0.0
  0
SPLINE
  5
5A
330
1F
100
AcDbEntity
  8
ROUND
 62
   250
100
AcDbSpline
210
0.0
220
0.0
230
1.0
 70
     8
 71
     3
 72
    16
 73
    12
 74
     0
 42
0.0000000001
 43
0.0000000001
 40
0.0
 40
0.0
 40
0.0
 40
0.0
 40
0.25
 40
0.25
 40
0.25
 40
0.25
 40
0.5
 40
0.5
 40
0.5
 40
0.5
 40
1.0
 40
1.0
 40
1.0
 40
1.0
 10
19.1264
 20
-1.1204
 30
0.0
 10
19.1264
 20
-1.1204
 30
0.0
 10
19.1264
 20
-0.3789
 30
0.0
 10
19.1264
 20
-0.3789
 30
0.0
 10
19.1264
 20
-0.3789
 30
0.0
 10
19.1264
 20
-0.3789
 30
0.0
 10
26.5461
 20
-0.3806
 30
0.0
 10
26.5461
 20
-0.3806
 30
0.0
 10
26.5461
 20
-0.3806
 30
0.0
 10
26.5461
 20
-0.3806
 30
0.0
 10
26.5461
 20
-1.2124
 30
0.0
 10
26.5461
 20
-1.2124
 30
0.0
  0
SPLINE
  5
5B
330
1F
100
AcDbEntity
  8
ROUND
 62
   250
100
AcDbSpline
210
0.0
220
0.0
230
1.0
 70
     8
 71
     3
 72
    24
 73
    20
 74
     0
 42
0.0000000001
 43
0.0000000001
 40
0.0
 40
0.0
 40
0.0
 40
0.0
 40
0.1666666666666667
 40
0.1666666666666667
 40
0.1666666666666667
 40
0.1666666666666667
 40
0.3333333333333333
 40
0.3333333333333333
 40
0.3333333333333333
 40
0.3333333333333333
 40
0.5
 40
0.5
 40
0.5
 40
0.5
 40
0.6666666666666666
 40
0.6666666666666666
 40
0.6666666666666666
 40
0.6666666666666666
 40
1.0
 40
1.0
 40
1.0
 40
1.0
 10
18.8492
 20
-2.2494
 30
0.0
 10
18.8492
 20
-2.2494
 30
0.0
 10
18.8483
 20
-2.6034
 30
0.0
 10
18.8483
 20
-2.6034
 30
0.0
 10
18.8483
 20
-2.6034
 30
0.0
 10
18.8483
 20
-2.6034
 30
0.0
 10
19.1265
 20
-2.6034
 30
0.0
 10
19.1265
 20
-2.6034
 30
0.0
 10
19.1265
 20
-2.6034
 30
0.0
 10
19.1265
 20
-2.6034
 30
0.0
 10
26.5413
 20
-2.6034
 30
0.0
 10
26.5413
 20
-2.6034
 30
0.0
 10
26.5413
 20
-2.6034
 30
0.0
 10
26.5413
 20
-2.6034
 30
0.0
 10
26.8195
 20
-2.6034
 30
0.0
 10
26.8195
 20
-2.6034
 30
0.0
 10
26.8195
 20
-2.6034
 30
0.0
 10
26.8195
 20
-2.6034
 30
0.0
 10
26.8143
 20
-2.1922
 30
0.0
 10
26.8143
 20
-2.1922
 30
0.0
  0
SPLINE
  5
5C
330
1F
100
AcDbEntity
  8
ROUND
 62
   250
100
AcDbSpline
210
0.0
220
0.0
230
1.0
 70
     8
 71
     3
 72
    16
 73
    12
 74
     0
 42
0.0000000001
 43
0.0000000001
 40
0.0
 40
0.0
 40
0.0
 40
0.0
 40
0.25
 40
0.25
 40
0.25
 40
0.25
 40
0.5
 40
0.5
 40
0.5
 40
0.5
 40
1.0
 40
1.0
 40
1.0
 40
1.0
 10
27.4674
 20
-8.4818
 30
0.0
 10
27.4515
 20
-8.044
 30
0.0
 10
27.2431
 20
-7.6359
 30
0.0
 10
26.8979
 20
-7.3665
 30
0.0
 10
26.8979
 20
-7.3665
 30
0.0
 10
26.5527
 20
-7.0971
 30
0.0
 10
26.4812
 20
-6.8244
 30
0.0
 10
26.4812
 20
-6.8244
 30
0.0
 10
26.4812
 20
-6.8244
 30
0.0
 10
26.4812
 20
-6.8244
 30
0.0
 10
26.4063
 20
-6.3825
 30
0.0
 10
26.4063
 20
-6.3825
 30
0.0
  0
SPLINE
  5
5D
330
1F
100
AcDbEntity
  8
ROUND
 62
   250
100
AcDbSpline
210
0.0
220
0.0
230
1.0
 70
     8
 71
     3
 72
     8
 73
     4
 74
     0
 42
0.0000000001
 43
0.0000000001
 40
0.0
 40
0.0
 40
0.0
 40
0.0
 40
1.0
 40
1.0
 40
1.0
 40
1.0
 10
18.1996
 20
-7.0523
 30
0.0
 10
18.6399
 20
-7.0523
 30
0.0
 10
19.0193
 20
-6.7425
 30
0.0
 10
19.1078
 20
-6.3109
 30
0.0
  0
SPLINE
  5
5E
330
1F
100
AcDbEntity
  8
ROUND
 62
   250
100
AcDbSpline
210
0.0
220
0.0
230
1.0
 70
     8
 71
     3
 72
    52
 73
    48
 74
     0
 42
0.0000000001
 43
0.0000000001
 40
0.0
 40
0.0
 40
0.0
 40
0.0
 40
0.0769230769230769
 40
0.0769230769230769
 40
0.0769230769230769
 40
0.0769230769230769
 40
0.1538461538461539
 40
0.1538461538461539
 40
0.1538461538461539
 40
0.1538461538461539
 40
0.2307692307692308
 40
0.2307692307692308
 40
0.2307692307692308
 40
0.2307692307692308
 40
0.3076923076923077
 40
0.3076923076923077
 40
0.3076923076923077
 40
0.3076923076923077
 40
0.3846153846153846
 40
0.3846153846153846
 40
0.3846153846153846
 40
0.3846153846153846
 40
0.4615384615384616
 40
0.4615384615384616
 40
0.4615384615384616
 40
0.4615384615384616
 40
0.5384615384615384
 40
0.5384615384615384
 40
0.5384615384615384
 40
0.5384615384615384
 40
0.6153846153846154
 40
0.6153846153846154
 40
0.6153846153846154
 40
0.6153846153846154
 40
0.6923076923076923
 40
0.6923076923076923
 40
0.6923076923076923
 40
0.6923076923076923
 40
0.7692307692307693
 40
0.7692307692307693
 40
0.7692307692307693
 40
0.7692307692307693
 40
0.8461538461538461
 40
0.8461538461538461
 40
0.8461538461538461
 40
0.8461538461538461
 40
1.0
 40
1.0
 40
1.0
 40
1.0
 10
1.8534
 20
-7.5648
 30
0.0
 10
1.8534
 20
-7.5648
 30
0.0
 10
6.0345
 20
-7.5648
 30
0.0
 10
6.0345
 20
-7.5648
 30
0.0
 10
6.0345
 20
-7.5648
 30
0.0
 10
6.0345
 20
-7.5648
 30
0.0
 10
6.5762
 20
-7.5817
 30
0.0
 10
6.5762
 20
-7.5817
 30
0.0
 10
6.5762
 20
-7.5817
 30
0.0
 10
6.5762
 20
-7.5817
 30
0.0
 10
7.3887
 20
-7.463
 30
0.0
 10
7.3887
 20
-7.463
 30
0.0
 10
7.3887
 20
-7.463
 30
0.0
 10
7.3887
 20
-7.463
 30
0.0
 10
8.2012
 20
-7.3103
 30
0.0
 10
8.2012
 20
-7.3103
 30
0.0
 10
8.2012
 20
-7.3103
 30
0.0
 10
8.2012
 20
-7.3103
 30
0.0
 10
9.5047
 20
-7.0898
 30
0.0
 10
9.5047
 20
-7.0898
 30
0.0
 10
9.5047
 20
-7.0898
 30
0.0
 10
9.5047
 20
-7.0898
 30
0.0
 10
9.9787
 20
-7.0524
 30
0.0
 10
9.9787
 20
-7.0524
 30
0.0
 10
9.9787
 20
-7.0524
 30
0.0
 10
9.9787
 20
-7.0524
 30
0.0
 10
19.4359
 20
-7.0524
 30
0.0
 10
19.4359
 20
-7.0524
 30
0.0
 10
19.4359
 20
-7.0524
 30
0.0
 10
19.4359
 20
-7.0524
 30
0.0
 10
20.2247
 20
-7.1029
 30
0.0
 10
20.2247
 20
-7.1029
 30
0.0
 10
20.2247
 20
-7.1029
 30
0.0
 10
20.2247
 20
-7.1029
 30
0.0
 10
21.2737
 20
-7.2323
 30
0.0
 10
21.2737
 20
-7.2323
 30
0.0
 10
21.2737
 20
-7.2323
 30
0.0
 10
21.2737
 20
-7.2323
 30
0.0
 10
22.1935
 20
-7.3617
 30
0.0
 10
22.1935
 20
-7.3617
 30
0.0
 10
22.1935
 20
-7.3617
 30
0.0
 10
22.1935
 20
-7.3617
 30
0.0
 10
23.0972
 20
-7.3617
 30
0.0
 10
23.0972
 20
-7.3617
 30
0.0
 10
23.0972
 20
-7.3617
 30
0.0
 10
23.0972
 20
-7.3617
 30
0.0
 10
26.8735
 20
-7.3455
 30
0.0
 10
26.8735
 20
-7.3455
 30
0.0
  0
SPLINE
  5
5F
330
1F
100
AcDbEntity
  8
ROUND
 62
   250
100
AcDbSpline
210
0.0
220
0.0
230
1.0
 70
     8
 71
     3
 72
    44
 73
    40
 74
     0
 42
0.0000000001
 43
0.0000000001
 40
0.0
 40
0.0
 40
0.0
 40
0.0
 40
0.0909090909090909
 40
0.0909090909090909
 40
0.0909090909090909
 40
0.0909090909090909
 40
0.1818181818181818
 40
0.1818181818181818
 40
0.1818181818181818
 40
0.1818181818181818
 40
0.2727272727272727
 40
0.2727272727272727
 40
0.2727272727272727
 40
0.2727272727272727
 40
0.3636363636363636
 40
0.3636363636363636
 40
0.3636363636363636
 40
0.3636363636363636
 40
0.4545454545454545
 40
0.4545454545454545
 40
0.4545454545454545
 40
0.4545454545454545
 40
0.5454545454545454
 40
0.5454545454545454
 40
0.5454545454545454
 40
0.5454545454545454
 40
0.6363636363636364
 40
0.6363636363636364
 40
0.6363636363636364
 40
0.6363636363636364
 40
0.7272727272727273
 40
0.7272727272727273
 40
0.7272727272727273
 40
0.7272727272727273
 40
0.8181818181818182
 40
0.8181818181818182
 40
0.8181818181818182
 40
0.8181818181818182
 40
1.0
 40
1.0
 40
1.0
 40
1.0
 10
10.5775
 20
-5.3764
 30
0.0
 10
10.5775
 20
-5.3764
 30
0.0
 10
10.5991
 20
-5.5901
 30
0.0
 10
10.5991
 20
-5.5901
 30
0.0
 10
10.5991
 20
-5.5901
 30
0.0
 10
10.5991
 20
-5.5901
 30
0.0
 10
10.182
 20
-5.9401
 30
0.0
 10
10.182
 20
-5.9401
 30
0.0
 10
10.182
 20
-5.9401
 30
0.0
 10
10.182
 20
-5.9401
 30
0.0
 10
10.1877
 20
-6.2493
 30
0.0
 10
10.1877
 20
-6.2493
 30
0.0
 10
10.1877
 20
-6.2493
 30
0.0
 10
10.1877
 20
-6.2493
 30
0.0
 10
10.2336
 20
-6.4331
 30
0.0
 10
10.2336
 20
-6.4331
 30
0.0
 10
10.2336
 20
-6.4331
 30
0.0
 10
10.2336
 20
-6.4331
 30
0.0
 10
10.3253
 20
-6.6054
 30
0.0
 10
10.3253
 20
-6.6054
 30
0.0
 10
10.3253
 20
-6.6054
 30
0.0
 10
10.3253
 20
-6.6054
 30
0.0
 10
10.4514
 20
-6.7776
 30
0.0
 10
10.4514
 20
-6.7776
 30
0.0
 10
10.4514
 20
-6.7776
 30
0.0
 10
10.4514
 20
-6.7776
 30
0.0
 10
10.5545
 20
-6.881
 30
0.0
 10
10.5545
 20
-6.881
 30
0.0
 10
10.5545
 20
-6.881
 30
0.0
 10
10.5545
 20
-6.881
 30
0.0
 10
10.7265
 20
-6.9614
 30
0.0
 10
10.7265
 20
-6.9614
 30
0.0
 10
10.7265
 20
-6.9614
 30
0.0
 10
10.7265
 20
-6.9614
 30
0.0
 10
10.9213
 20
-7.0418
 30
0.0
 10
10.9213
 20
-7.0418
 30
0.0
 10
10.9213
 20
-7.0418
 30
0.0
 10
10.9213
 20
-7.0418
 30
0.0
 10
11.0933
 20
-7.0533
 30
0.0
 10
11.0933
 20
-7.0533
 30
0.0
  0
SPLINE
  5
60
330
1F
100
AcDbEntity
  8
ROUND
 62
   250
100
AcDbSpline
210
0.0
220
0.0
230
1.0
 70
     8
 71
     3
 72
    28
 73
    24
 74
     0
 42
0.0000000001
 43
0.0000000001
 40
0.0
 40
0.0
 40
0.0
 40
0.0
 40
0.1428571428571428
 40
0.1428571428571428
 40
0.1428571428571428
 40
0.1428571428571428
 40
0.2857142857142857
 40
0.2857142857142857
 40
0.2857142857142857
 40
0.2857142857142857
 40
0.4285714285714285
 40
0.4285714285714285
 40
0.4285714285714285
 40
0.4285714285714285
 40
0.5714285714285714
 40
0.5714285714285714
 40
0.5714285714285714
 40
0.5714285714285714
 40
0.7142857142857143
 40
0.7142857142857143
 40
0.7142857142857143
 40
0.7142857142857143
 40
1.0
 40
1.0
 40
1.0
 40
1.0
 10
1.5167
 20
-8.4818
 30
0.0
 10
1.5291
 20
-8.1393
 30
0.0
 10
1.6597
 20
-7.8116
 30
0.0
 10
1.8865
 20
-7.5545
 30
0.0
 10
1.8865
 20
-7.5545
 30
0.0
 10
2.1133
 20
-7.2974
 30
0.0
 10
2.1066
 20
-7.247
 30
0.0
 10
2.1066
 20
-7.247
 30
0.0
 10
2.1066
 20
-7.247
 30
0.0
 10
2.1066
 20
-7.247
 30
0.0
 10
2.1325
 20
-6.951
 30
0.0
 10
2.1325
 20
-6.951
 30
0.0
 10
2.1325
 20
-6.951
 30
0.0
 10
2.1325
 20
-6.951
 30
0.0
 10
2.1454
 20
-5.9471
 30
0.0
 10
2.1454
 20
-5.9471
 30
0.0
 10
2.1454
 20
-5.9471
 30
0.0
 10
2.1454
 20
-5.9471
 30
0.0
 10
1.6573
 20
-5.6124
 30
0.0
 10
1.6573
 20
-5.6124
 30
0.0
 10
1.6573
 20
-5.6124
 30
0.0
 10
1.6573
 20
-5.6124
 30
0.0
 10
1.6573
 20
-5.4193
 30
0.0
 10
1.6573
 20
-5.4193
 30
0.0
  0
SPLINE
  5
61
330
1F
100
AcDbEntity
  8
ROUND
 62
   250
100
AcDbSpline
210
0.0
220
0.0
230
1.0
 70
    11
 71
     3
 72
    36
 73
    32
 74
     0
 42
0.0000000001
 43
0.0000000001
 40
0.0
 40
0.0
 40
0.0
 40
0.0
 40
0.1111111111111111
 40
0.1111111111111111
 40
0.1111111111111111
 40
0.1111111111111111
 40
0.2222222222222222
 40
0.2222222222222222
 40
0.2222222222222222
 40
0.2222222222222222
 40
0.3333333333333333
 40
0.3333333333333333
 40
0.3333333333333333
 40
0.3333333333333333
 40
0.4444444444444444
 40
0.4444444444444444
 40
0.4444444444444444
 40
0.4444444444444444
 40
0.5555555555555556
 40
0.5555555555555556
 40
0.5555555555555556
 40
0.5555555555555556
 40
0.6666666666666666
 40
0.6666666666666666
 40
0.6666666666666666
 40
0.6666666666666666
 40
0.7777777777777778
 40
0.7777777777777778
 40
0.7777777777777778
 40
0.7777777777777778
 40
1.0
 40
1.0
 40
1.0
 40
1.0
 10
1.2633
 20
-8.499
 30
0.0
 10
1.2633
 20
-8.499
 30
0.0
 10
27.6921
 20
-8.499
 30
0.0
 10
27.6921
 20
-8.499
 30
0.0
 10
27.6921
 20
-8.499
 30
0.0
 10
27.7709
 20
-8.499
 30
0.0
 10
27.8352
 20
-8.5633
 30
0.0
 10
27.8352
 20
-8.6421
 30
0.0
 10
27.8352
 20
-8.6421
 30
0.0
 10
27.8352
 20
-8.6421
 30
0.0
 10
27.8352
 20
-9.1505
 30
0.0
 10
27.8352
 20
-9.1505
 30
0.0
 10
27.8352
 20
-9.1505
 30
0.0
 10
27.8352
 20
-9.2293
 30
0.0
 10
27.7709
 20
-9.2936
 30
0.0
 10
27.6921
 20
-9.2936
 30
0.0
 10
27.6921
 20
-9.2936
 30
0.0
 10
27.6921
 20
-9.2936
 30
0.0
 10
1.2633
 20
-9.2936
 30
0.0
 10
1.2633
 20
-9.2936
 30
0.0
 10
1.2633
 20
-9.2936
 30
0.0
 10
1.1845
 20
-9.2936
 30
0.0
 10
1.1202
 20
-9.2293
 30
0.0
 10
1.1202
 20
-9.1505
 30
0.0
 10
1.1202
 20
-9.1505
 30
0.0
 10
1.1202
 20
-9.1505
 30
0.0
 10
1.1202
 20
-8.6421
 30
0.0
 10
1.1202
 20
-8.6421
 30
0.0
 10
1.1202
 20
-8.6421
 30
0.0
 10
1.1202
 20
-8.5633
 30
0.0
 10
1.1845
 20
-8.499
 30
0.0
 10
1.2633
 20
-8.499
 30
0.0
  0
SPLINE
  5
62
330
1F
100
AcDbEntity
  8
ROUND
 62
   250
100
AcDbSpline
210
0.0
220
0.0
230
1.0
 70
    27
 71
     3
 72
    12
 73
     8
 74
     0
 42
0.0000000001
 43
0.0000000001
 40
0.0
 40
0.0
 40
0.0
 40
0.0
 40
0.3333333333333333
 40
0.3333333333333333
 40
0.3333333333333333
 40
0.3333333333333333
 40
1.0
 40
1.0
 40
1.0
 40
1.0
 10
26.5413
 20
-2.6034
 30
0.0
 10
26.5413
 20
-2.6034
 30
0.0
 10
26.5413
 20
-3.1595
 30
0.0
 10
26.5413
 20
-3.1595
 30
0.0
 10
26.5413
 20
-3.1595
 30
0.0
 10
26.5413
 20
-3.1595
 30
0.0
 10
26.5413
 20
-2.6034
 30
0.0
 10
26.5413
 20
-2.6034
 30
0.0
  0
SPLINE
  5
63
330
1F
100
AcDbEntity
  8
ROUND
 62
   250
100
AcDbSpline
210
0.0
220
0.0
230
1.0
 70
    27
 71
     3
 72
    12
 73
     8
 74
     0
 42
0.0000000001
 43
0.0000000001
 40
0.0
 40
0.0
 40
0.0
 40
0.0
 40
0.3333333333333333
 40
0.3333333333333333
 40
0.3333333333333333
 40
0.3333333333333333
 40
1.0
 40
1.0
 40
1.0
 40
1.0
 10
19.1265
 20
-2.6034
 30
0.0
 10
19.1265
 20
-2.6034
 30
0.0
 10
19.1265
 20
-3.1595
 30
0.0
 10
19.1265
 20
-3.1595
 30
0.0
 10
19.1265
 20
-3.1595
 30
0.0
 10
19.1265
 20
-3.1595
 30
0.0
 10
19.1265
 20
-2.6034
 30
0.0
 10
19.1265
 20
-2.6034
 30
0.0
  0
SPLINE
  5
64
330
1F
100
AcDbEntity
  8
ROUND
 62
   250
100
AcDbSpline
210
0.0
220
0.0
230
1.0
 70
    27
 71
     3
 72
    12
 73
     8
 74
     0
 42
0.0000000001
 43
0.0000000001
 40
0.0
 40
0.0
 40
0.0
 40
0.0
 40
0.3333333333333333
 40
0.3333333333333333
 40
0.3333333333333333
 40
0.3333333333333333
 40
1.0
 40
1.0
 40
1.0
 40
1.0
 10
10.1819
 20
-5.9402
 30
0.0
 10
10.1819
 20
-5.9402
 30
0.0
 10
2.118
 20
-5.9402
 30
0.0
 10
2.118
 20
-5.9402
 30
0.0
 10
2.118
 20
-5.9402
 30
0.0
 10
2.118
 20
-5.9402
 30
0.0
 10
10.1819
 20
-5.9402
 30
0.0
 10
10.1819
 20
-5.9402
 30
0.0
  0
SPLINE
  5
65
330
1F
100
AcDbEntity
  8
ROUND
  6
NEW_LINE1
 62
   250
100
AcDbSpline
210
0.0
220
0.0
230
1.0
 70
    24
 71
     3
 72
     8
 73
     4
 74
     0
 42
0.0000000001
 43
0.0000000001
 40
0.0
 40
0.0
 40
0.0
 40
0.0
 40
1.0
 40
1.0
 40
1.0
 40
1.0
 10
18.7033
 20
-0.1007
 30
0.0
 10
18.7033
 20
-0.1007
 30
0.0
 10
18.7033
 20
9.8285
 30
0.0
 10
18.7033
 20
9.8285
 30
0.0
  0
SPLINE
  5
67
330
1F
100
AcDbEntity
  8
ROUND
  6
NEW_LINE2
 62
   250
100
AcDbSpline
210
0.0
220
0.0
230
1.0
 70
    24
 71
     3
 72
     8
 73
     4
 74
     0
 42
0.0000000001
 43
0.0000000001
 40
0.0
 40
0.0
 40
0.0
 40
0.0
 40
1.0
 40
1.0
 40
1.0
 40
1.0
 10
27.0705
 20
-0.1007
 30
0.0
 10
27.0705
 20
-0.1007
 30
0.0
 10
27.0705
 20
9.7724
 30
0.0
 10
27.0705
 20
9.7724
 30
0.0
  0
SPLINE
  5
69
330
1F
100
AcDbEntity
  8
ROUND
 62
   250
100
AcDbSpline
210
0.0
220
0.0
230
1.0
 70
    11
 71
     3
 72
    20
 73
    16
 74
     0
 42
0.0000000001
 43
0.0000000001
 40
0.0
 40
0.0
 40
0.0
 40
0.0
 40
0.2
 40
0.2
 40
0.2
 40
0.2
 40
0.4
 40
0.4
 40
0.4
 40
0.4
 40
0.6
 40
0.6
 40
0.6
 40
0.6
 40
1.0
 40
1.0
 40
1.0
 40
1.0
 10
26.9377
 20
-2.2169
 30
0.0
 10
26.9377
 20
-2.2169
 30
0.0
 10
18.7556
 20
-2.2326
 30
0.0
 10
18.7556
 20
-2.2326
 30
0.0
 10
18.7556
 20
-2.2326
 30
0.0
 10
18.7556
 20
-2.2326
 30
0.0
 10
19.08
 20
-1.213
 30
0.0
 10
19.08
 20
-1.213
 30
0.0
 10
19.08
 20
-1.213
 30
0.0
 10
19.08
 20
-1.213
 30
0.0
 10
26.6088
 20
-1.2124
 30
0.0
 10
26.6088
 20
-1.2124
 30
0.0
 10
26.6088
 20
-1.2124
 30
0.0
 10
26.6088
 20
-1.2124
 30
0.0
 10
26.9377
 20
-2.2169
 30
0.0
 10
26.9377
 20
-2.2169
 30
0.0
  0
SPLINE
  5
6A
330
1F
100
AcDbEntity
  8
ROUND
 62
   250
100
AcDbSpline
210
0.0
220
0.0
230
1.0
 70
    27
 71
     3
 72
    16
 73
    12
 74
     0
 42
0.0000000001
 43
0.0000000001
 40
0.0
 40
0.0
 40
0.0
 40
0.0
 40
0.25
 40
0.25
 40
0.25
 40
0.25
 40
0.5
 40
0.5
 40
0.5
 40
0.5
 40
1.0
 40
1.0
 40
1.0
 40
1.0
 10
2.4426
 20
-2.2325
 30
0.0
 10
2.4426
 20
-2.2325
 30
0.0
 10
2.4426
 20
-0.6145
 30
0.0
 10
2.4426
 20
-0.6145
 30
0.0
 10
2.4426
 20
-0.6145
 30
0.0
 10
2.4426
 20
-0.6145
 30
0.0
 10
2.4426
 20
-0.1426
 30
0.0
 10
2.4426
 20
-0.1426
 30
0.0
 10
2.4426
 20
-0.1426
 30
0.0
 10
2.4426
 20
-0.1426
 30
0.0
 10
2.4426
 20
-2.2325
 30
0.0
 10
2.4426
 20
-2.2325
 30
0.0
  0
SPLINE
  5
6B
330
1F
100
AcDbEntity
  8
ROUND
 62
   250
100
AcDbSpline
210
0.0
220
0.0
230
1.0
 70
     8
 71
     3
 72
    20
 73
    16
 74
     0
 42
0.0000000001
 43
0.0000000001
 40
0.0
 40
0.0
 40
0.0
 40
0.0
 40
0.2
 40
0.2
 40
0.2
 40
0.2
 40
0.4
 40
0.4
 40
0.4
 40
0.4
 40
0.6
 40
0.6
 40
0.6
 40
0.6
 40
1.0
 40
1.0
 40
1.0
 40
1.0
 10
-8.9829
 20
-3.8169
 30
0.0
 10
-8.9829
 20
-3.8169
 30
0.0
 10
-0.9985
 20
-3.0307
 30
0.0
 10
-0.9985
 20
-3.0307
 30
0.0
 10
-0.9985
 20
-3.0307
 30
0.0
 10
-0.9985
 20
-3.0307
 30
0.0
 10
1.2266
 20
-0.3775
 30
0.0
 10
1.2266
 20
-0.3775
 30
0.0
 10
1.2266
 20
-0.3775
 30
0.0
 10
1.2266
 20
-0.3775
 30
0.0
 10
1.7059
 20
-0.1907
 30
0.0
 10
1.7059
 20
-0.1907
 30
0.0
 10
1.7059
 20
-0.1907
 30
0.0
 10
1.7059
 20
-0.1907
 30
0.0
 10
5.0077
 20
0.0494
 30
0.0
 10
5.0077
 20
0.0494
 30
0.0
  0
SPLINE
  5
6C
330
1F
100
AcDbEntity
  8
ROUND
 62
   250
100
AcDbSpline
210
0.0
220
0.0
230
1.0
 70
     8
 71
     3
 72
    52
 73
    48
 74
     0
 42
0.0000000001
 43
0.0000000001
 40
0.0
 40
0.0
 40
0.0
 40
0.0
 40
0.0769230769230769
 40
0.0769230769230769
 40
0.0769230769230769
 40
0.0769230769230769
 40
0.1538461538461539
 40
0.1538461538461539
 40
0.1538461538461539
 40
0.1538461538461539
 40
0.2307692307692308
 40
0.2307692307692308
 40
0.2307692307692308
 40
0.2307692307692308
 40
0.3076923076923077
 40
0.3076923076923077
 40
0.3076923076923077
 40
0.3076923076923077
 40
0.3846153846153846
 40
0.3846153846153846
 40
0.3846153846153846
 40
0.3846153846153846
 40
0.4615384615384616
 40
0.4615384615384616
 40
0.4615384615384616
 40
0.4615384615384616
 40
0.5384615384615384
 40
0.5384615384615384
 40
0.5384615384615384
 40
0.5384615384615384
 40
0.6153846153846154
 40
0.6153846153846154
 40
0.6153846153846154
 40
0.6153846153846154
 40
0.6923076923076923
 40
0.6923076923076923
 40
0.6923076923076923
 40
0.6923076923076923
 40
0.7692307692307693
 40
0.7692307692307693
 40
0.7692307692307693
 40
0.7692307692307693
 40
0.8461538461538461
 40
0.8461538461538461
 40
0.8461538461538461
 40
0.8461538461538461
 40
1.0
 40
1.0
 40
1.0
 40
1.0
 10
-9.6219
 20
3.8672
 30
0.0
 10
-9.6219
 20
3.8672
 30
0.0
 10
5.8269
 20
5.0756
 30
0.0
 10
5.8269
 20
5.0756
 30
0.0
 10
5.8269
 20
5.0756
 30
0.0
 10
5.8269
 20
5.0756
 30
0.0
 10
6.5292
 20
5.0799
 30
0.0
 10
6.5292
 20
5.0799
 30
0.0
 10
6.5292
 20
5.0799
 30
0.0
 10
6.5292
 20
5.0799
 30
0.0
 10
7.1225
 20
4.9638
 30
0.0
 10
7.1225
 20
4.9638
 30
0.0
 10
7.1225
 20
4.9638
 30
0.0
 10
7.1225
 20
4.9638
 30
0.0
 10
7.5918
 20
4.7334
 30
0.0
 10
7.5918
 20
4.7334
 30
0.0
 10
7.5918
 20
4.7334
 30
0.0
 10
7.5918
 20
4.7334
 30
0.0
 10
7.9616
 20
4.5579
 30
0.0
 10
7.9616
 20
4.5579
 30
0.0
 10
7.9616
 20
4.5579
 30
0.0
 10
7.9616
 20
4.5579
 30
0.0
 10
8.3953
 20
4.2702
 30
0.0
 10
8.3953
 20
4.2702
 30
0.0
 10
8.3953
 20
4.2702
 30
0.0
 10
8.3953
 20
4.2702
 30
0.0
 10
8.8161
 20
3.9018
 30
0.0
 10
8.8161
 20
3.9018
 30
0.0
 10
8.8161
 20
3.9018
 30
0.0
 10
8.8161
 20
3.9018
 30
0.0
 10
9.2781
 20
3.3936
 30
0.0
 10
9.2781
 20
3.3936
 30
0.0
 10
9.2781
 20
3.3936
 30
0.0
 10
9.2781
 20
3.3936
 30
0.0
 10
9.6015
 20
2.8161
 30
0.0
 10
9.6015
 20
2.8161
 30
0.0
 10
9.6015
 20
2.8161
 30
0.0
 10
9.6015
 20
2.8161
 30
0.0
 10
9.7632
 20
2.2155
 30
0.0
 10
9.7632
 20
2.2155
 30
0.0
 10
9.7632
 20
2.2155
 30
0.0
 10
9.7632
 20
2.2155
 30
0.0
 10
9.8556
 20
1.5918
 30
0.0
 10
9.8556
 20
1.5918
 30
0.0
 10
9.8556
 20
1.5918
 30
0.0
 10
9.8556
 20
1.5918
 30
0.0
 10
9.8787
 20
-2.1273
 30
0.0
 10
9.8787
 20
-2.1273
 30
0.0
  0
SPLINE
  5
6D
330
1F
100
AcDbEntity
  8
ROUND
  6
NEW_LINE3
 62
   250
100
AcDbSpline
210
0.0
220
0.0
230
1.0
 70
    24
 71
     3
 72
     8
 73
     4
 74
     0
 42
0.0000000001
 43
0.0000000001
 40
0.0
 40
0.0
 40
0.0
 40
0.0
 40
1.0
 40
1.0
 40
1.0
 40
1.0
 10
-18.0745
 20
-0.7372
 30
0.0
 10
-18.0745
 20
-0.7372
 30
0.0
 10
7.088
 20
1.4643
 30
0.0
 10
7.088
 20
1.4643
 30
0.0
  0
SPLINE
  5
6F
330
1F
100
AcDbEntity
  8
ROUND
  6
NEW_LINE4
 62
   250
100
AcDbSpline
210
0.0
220
0.0
230
1.0
 70
    24
 71
     3
 72
     8
 73
     4
 74
     0
 42
0.0000000001
 43
0.0000000001
 40
0.0
 40
0.0
 40
0.0
 40
0.0
 40
1.0
 40
1.0
 40
1.0
 40
1.0
 10
6.1503
 20
-10.4334
 30
0.0
 10
6.1503
 20
-10.4334
 30
0.0
 10
6.1503
 20
1.9086
 30
0.0
 10
6.1503
 20
1.9086
 30
0.0
  0
SPLINE
  5
71
330
1F
100
AcDbEntity
  8
ROUND
  6
NEW_LINE5
 62
   250
100
AcDbSpline
210
0.0
220
0.0
230
1.0
 70
    24
 71
     3
 72
     8
 73
     4
 74
     0
 42
0.0000000001
 43
0.0000000001
 40
0.0
 40
0.0
 40
0.0
 40
0.0
 40
1.0
 40
1.0
 40
1.0
 40
1.0
 10
22.8342
 20
-10.5302
 30
0.0
 10
22.8342
 20
-10.5302
 30
0.0
 10
22.8342
 20
0.5053
 30
0.0
 10
22.8342
 20
0.5053
 30
0.0
  0
SPLINE
  5
73
330
1F
100
AcDbEntity
  8
ROUND
  6
NEW_LINE6
 62
   250
100
AcDbSpline
210
0.0
220
0.0
230
1.0
 70
    24
 71
     3
 72
     8
 73
     4
 74
     0
 42
0.0000000001
 43
0.0000000001
 40
0.0
 40
0.0
 40
0.0
 40
0.0
 40
1.0
 40
1.0
 40
1.0
 40
1.0
 10
-18.6588
 20
-9.5542
 30
0.0
 10
-18.6588
 20
-9.5542
 30
0.0
 10
-20.2572
 20
8.5764
 30
0.0
 10
-20.2572
 20
8.5764
 30
0.0
  0
SPLINE
  5
75
330
1F
100
AcDbEntity
  8
ROUND
 62
   250
100
AcDbSpline
210
0.0
220
0.0
230
1.0
 70
    11
 71
     3
 72
   120
 73
   116
 74
     0
 42
0.0000000001
 43
0.0000000001
 40
0.0
 40
0.0
 40
0.0
 40
0.0
 40
0.0333333333333333
 40
0.0333333333333333
 40
0.0333333333333333
 40
0.0333333333333333
 40
0.0666666666666667
 40
0.0666666666666667
 40
0.0666666666666667
 40
0.0666666666666667
 40
0.1
 40
0.1
 40
0.1
 40
0.1
 40
0.1333333333333333
 40
0.1333333333333333
 40
0.1333333333333333
 40
0.1333333333333333
 40
0.1666666666666667
 40
0.1666666666666667
 40
0.1666666666666667
 40
0.1666666666666667
 40
0.2
 40
0.2
 40
0.2
 40
0.2
 40
0.2333333333333333
 40
0.2333333333333333
 40
0.2333333333333333
 40
0.2333333333333333
 40
0.2666666666666667
 40
0.2666666666666667
 40
0.2666666666666667
 40
0.2666666666666667
 40
0.3
 40
0.3
 40
0.3
 40
0.3
 40
0.3333333333333333
 40
0.3333333333333333
 40
0.3333333333333333
 40
0.3333333333333333
 40
0.3666666666666666
 40
0.3666666666666666
 40
0.3666666666666666
 40
0.3666666666666666
 40
0.4
 40
0.4
 40
0.4
 40
0.4
 40
0.4333333333333333
 40
0.4333333333333333
 40
0.4333333333333333
 40
0.4333333333333333
 40
0.4666666666666667
 40
0.4666666666666667
 40
0.4666666666666667
 40
0.4666666666666667
 40
0.5
 40
0.5
 40
0.5
 40
0.5
 40
0.5333333333333333
 40
0.5333333333333333
 40
0.5333333333333333
 40
0.5333333333333333
 40
0.5666666666666667
 40
0.5666666666666667
 40
0.5666666666666667
 40
0.5666666666666667
 40
0.6
 40
0.6
 40
0.6
 40
0.6
 40
0.6333333333333333
 40
0.6333333333333333
 40
0.6333333333333333
 40
0.6333333333333333
 40
0.6666666666666666
 40
0.6666666666666666
 40
0.6666666666666666
 40
0.6666666666666666
 40
0.7
 40
0.7
 40
0.7
 40
0.7
 40
0.7333333333333333
 40
0.7333333333333333
 40
0.7333333333333333
 40
0.7333333333333333
 40
0.7666666666666667
 40
0.7666666666666667
 40
0.7666666666666667
 40
0.7666666666666667
 40
0.8
 40
0.8
 40
0.8
 40
0.8
 40
0.8333333333333334
 40
0.8333333333333334
 40
0.8333333333333334
 40
0.8333333333333334
 40
0.8666666666666667
 40
0.8666666666666667
 40
0.8666666666666667
 40
0.8666666666666667
 40
0.9
 40
0.9
 40
0.9
 40
0.9
 40
0.9333333333333333
 40
0.9333333333333333
 40
0.9333333333333333
 40
0.9333333333333333
 40
1.0
 40
1.0
 40
1.0
 40
1.0
 10
-20.7545
 20
-2.6476
 30
0.0
 10
-20.7545
 20
-2.6476
 30
0.0
 10
-20.9902
 20
-2.6683
 30
0.0
 10
-20.9902
 20
-2.6683
 30
0.0
 10
-20.9902
 20
-2.6683
 30
0.0
 10
-20.9902
 20
-2.6683
 30
0.0
 10
-21.0661
 20
-1.816
 30
0.0
 10
-21.0661
 20
-1.816
 30
0.0
 10
-21.0661
 20
-1.816
 30
0.0
 10
-21.0661
 20
-1.816
 30
0.0
 10
-20.3197
 20
-1.7507
 30
0.0
 10
-20.3197
 20
-1.7507
 30
0.0
 10
-20.3197
 20
-1.7507
 30
0.0
 10
-20.2038
 20
-1.8723
 30
0.0
 10
-20.1137
 20
-2.0004
 30
0.0
 10
-20.0486
 20
-2.135
 30
0.0
 10
-20.0486
 20
-2.135
 30
0.0
 10
-19.9839
 20
-2.2695
 30
0.0
 10
-19.9452
 20
-2.4101
 30
0.0
 10
-19.9324
 20
-2.5563
 30
0.0
 10
-19.9324
 20
-2.5563
 30
0.0
 10
-19.9151
 20
-2.7541
 30
0.0
 10
-19.9415
 20
-2.9377
 30
0.0
 10
-20.0122
 20
-3.1063
 30
0.0
 10
-20.0122
 20
-3.1063
 30
0.0
 10
-20.0824
 20
-3.2754
 30
0.0
 10
-20.1945
 20
-3.4079
 30
0.0
 10
-20.3471
 20
-3.5044
 30
0.0
 10
-20.3471
 20
-3.5044
 30
0.0
 10
-20.5001
 20
-3.6009
 30
0.0
 10
-20.6755
 20
-3.6578
 30
0.0
 10
-20.8733
 20
-3.6751
 30
0.0
 10
-20.8733
 20
-3.6751
 30
0.0
 10
-21.0691
 20
-3.6922
 30
0.0
 10
-21.2554
 20
-3.667
 30
0.0
 10
-21.4323
 20
-3.5997
 30
0.0
 10
-21.4323
 20
-3.5997
 30
0.0
 10
-21.6095
 20
-3.5331
 30
0.0
 10
-21.7459
 20
-3.4261
 30
0.0
 10
-21.8418
 20
-3.2796
 30
0.0
 10
-21.8418
 20
-3.2796
 30
0.0
 10
-21.9373
 20
-3.1331
 30
0.0
 10
-21.994
 20
-2.9596
 30
0.0
 10
-22.0116
 20
-2.759
 30
0.0
 10
-22.0116
 20
-2.759
 30
0.0
 10
-22.0243
 20
-2.6138
 30
0.0
 10
-22.0123
 20
-2.48
 30
0.0
 10
-21.9753
 20
-2.3582
 30
0.0
 10
-21.9753
 20
-2.3582
 30
0.0
 10
-21.9387
 20
-2.2366
 30
0.0
 10
-21.8811
 20
-2.1385
 30
0.0
 10
-21.8027
 20
-2.0646
 30
0.0
 10
-21.8027
 20
-2.0646
 30
0.0
 10
-21.7242
 20
-1.9903
 30
0.0
 10
-21.619
 20
-1.9301
 30
0.0
 10
-21.4866
 20
-1.883
 30
0.0
 10
-21.4866
 20
-1.883
 30
0.0
 10
-21.4866
 20
-1.883
 30
0.0
 10
-21.3995
 20
-2.1176
 30
0.0
 10
-21.3995
 20
-2.1176
 30
0.0
 10
-21.3995
 20
-2.1176
 30
0.0
 10
-21.4995
 20
-2.1571
 30
0.0
 10
-21.5768
 20
-2.2016
 30
0.0
 10
-21.6315
 20
-2.2513
 30
0.0
 10
-21.6315
 20
-2.2513
 30
0.0
 10
-21.6861
 20
-2.3013
 30
0.0
 10
-21.7273
 20
-2.3697
 30
0.0
 10
-21.7552
 20
-2.4561
 30
0.0
 10
-21.7552
 20
-2.4561
 30
0.0
 10
-21.7831
 20
-2.5422
 30
0.0
 10
-21.7928
 20
-2.6365
 30
0.0
 10
-21.7839
 20
-2.7377
 30
0.0
 10
-21.7839
 20
-2.7377
 30
0.0
 10
-21.7733
 20
-2.8595
 30
0.0
 10
-21.7452
 20
-2.9633
 30
0.0
 10
-21.7005
 20
-3.0486
 30
0.0
 10
-21.7005
 20
-3.0486
 30
0.0
 10
-21.6557
 20
-3.1344
 30
0.0
 10
-21.6007
 20
-3.2014
 30
0.0
 10
-21.5355
 20
-3.2509
 30
0.0
 10
-21.5355
 20
-3.2509
 30
0.0
 10
-21.4703
 20
-3.3
 30
0.0
 10
-21.4005
 20
-3.3364
 30
0.0
 10
-21.3252
 20
-3.3605
 30
0.0
 10
-21.3252
 20
-3.3605
 30
0.0
 10
-21.1966
 20
-3.4006
 30
0.0
 10
-21.0594
 20
-3.4146
 30
0.0
 10
-20.9137
 20
-3.4019
 30
0.0
 10
-20.9137
 20
-3.4019
 30
0.0
 10
-20.7342
 20
-3.3862
 30
0.0
 10
-20.587
 20
-3.3422
 30
0.0
 10
-20.4715
 20
-3.2697
 30
0.0
 10
-20.4715
 20
-3.2697
 30
0.0
 10
-20.3561
 20
-3.1973
 30
0.0
 10
-20.2744
 20
-3.0995
 30
0.0
 10
-20.2261
 20
-2.9763
 30
0.0
 10
-20.2261
 20
-2.9763
 30
0.0
 10
-20.1779
 20
-2.8531
 30
0.0
 10
-20.1593
 20
-2.7254
 30
0.0
 10
-20.1709
 20
-2.5928
 30
0.0
 10
-20.1709
 20
-2.5928
 30
0.0
 10
-20.1811
 20
-2.477
 30
0.0
 10
-20.2134
 20
-2.3666
 30
0.0
 10
-20.2675
 20
-2.2608
 30
0.0
 10
-20.2675
 20
-2.2608
 30
0.0
 10
-20.3212
 20
-2.1545
 30
0.0
 10
-20.3758
 20
-2.0758
 30
0.0
 10
-20.4313
 20
-2.0235
 30
0.0
 10
-20.4313
 20
-2.0235
 30
0.0
 10
-20.4313
 20
-2.0235
 30
0.0
 10
-20.8062
 20
-2.0563
 30
0.0
 10
-20.8062
 20
-2.0563
 30
0.0
 10
-20.8062
 20
-2.0563
 30
0.0
 10
-20.8062
 20
-2.0563
 30
0.0
 10
-20.7545
 20
-2.6476
 30
0.0
 10
-20.7545
 20
-2.6476
 30
0.0
  0
SPLINE
  5
76
330
1F
100
AcDbEntity
  8
ROUND
 62
   250
100
AcDbSpline
210
0.0
220
0.0
230
1.0
 70
    11
 71
     3
 72
    48
 73
    44
 74
     0
 42
0.0000000001
 43
0.0000000001
 40
0.0
 40
0.0
 40
0.0
 40
0.0
 40
0.0833333333333333
 40
0.0833333333333333
 40
0.0833333333333333
 40
0.0833333333333333
 40
0.1666666666666667
 40
0.1666666666666667
 40
0.1666666666666667
 40
0.1666666666666667
 40
0.25
 40
0.25
 40
0.25
 40
0.25
 40
0.3333333333333333
 40
0.3333333333333333
 40
0.3333333333333333
 40
0.3333333333333333
 40
0.4166666666666667
 40
0.4166666666666667
 40
0.4166666666666667
 40
0.4166666666666667
 40
0.5
 40
0.5
 40
0.5
 40
0.5
 40
0.5833333333333334
 40
0.5833333333333334
 40
0.5833333333333334
 40
0.5833333333333334
 40
0.6666666666666666
 40
0.6666666666666666
 40
0.6666666666666666
 40
0.6666666666666666
 40
0.75
 40
0.75
 40
0.75
 40
0.75
 40
0.8333333333333334
 40
0.8333333333333334
 40
0.8333333333333334
 40
0.8333333333333334
 40
1.0
 40
1.0
 40
1.0
 40
1.0
 10
-21.8835
 20
-0.7893
 30
0.0
 10
-21.8835
 20
-0.7893
 30
0.0
 10
-22.1211
 20
-0.8101
 30
0.0
 10
-22.1211
 20
-0.8101
 30
0.0
 10
-22.1211
 20
-0.8101
 30
0.0
 10
-22.1211
 20
-0.8101
 30
0.0
 10
-22.2351
 20
0.4926
 30
0.0
 10
-22.2351
 20
0.4926
 30
0.0
 10
-22.2351
 20
0.4926
 30
0.0
 10
-22.2351
 20
0.4926
 30
0.0
 10
-22.0429
 20
0.5094
 30
0.0
 10
-22.0429
 20
0.5094
 30
0.0
 10
-22.0429
 20
0.5094
 30
0.0
 10
-21.8955
 20
0.3934
 30
0.0
 10
-21.7029
 20
0.2822
 30
0.0
 10
-21.4661
 20
0.176
 30
0.0
 10
-21.4661
 20
0.176
 30
0.0
 10
-21.2293
 20
0.0701
 30
0.0
 10
-20.9878
 20
-0.0069
 30
0.0
 10
-20.7433
 20
-0.0545
 30
0.0
 10
-20.7433
 20
-0.0545
 30
0.0
 10
-20.5704
 20
-0.0894
 30
0.0
 10
-20.3834
 20
-0.1046
 30
0.0
 10
-20.1817
 20
-0.1007
 30
0.0
 10
-20.1817
 20
-0.1007
 30
0.0
 10
-20.1817
 20
-0.1007
 30
0.0
 10
-20.1595
 20
-0.3547
 30
0.0
 10
-20.1595
 20
-0.3547
 30
0.0
 10
-20.1595
 20
-0.3547
 30
0.0
 10
-20.3181
 20
-0.3657
 30
0.0
 10
-20.512
 20
-0.3516
 30
0.0
 10
-20.7416
 20
-0.3116
 30
0.0
 10
-20.7416
 20
-0.3116
 30
0.0
 10
-20.9708
 20
-0.2718
 30
0.0
 10
-21.1947
 20
-0.2054
 30
0.0
 10
-21.4125
 20
-0.1125
 30
0.0
 10
-21.4125
 20
-0.1125
 30
0.0
 10
-21.6303
 20
-0.0193
 30
0.0
 10
-21.8164
 20
0.0835
 30
0.0
 10
-21.9698
 20
0.1966
 30
0.0
 10
-21.9698
 20
0.1966
 30
0.0
 10
-21.9698
 20
0.1966
 30
0.0
 10
-21.8835
 20
-0.7893
 30
0.0
 10
-21.8835
 20
-0.7893
 30
0.0
  0
SPLINE
  5
77
330
1F
100
AcDbEntity
  8
ROUND
 62
   250
100
AcDbSpline
210
0.0
220
0.0
230
1.0
 70
    11
 71
     3
 72
    20
 73
    16
 74
     0
 42
0.0000000001
 43
0.0000000001
 40
0.0
 40
0.0
 40
0.0
 40
0.0
 40
0.2
 40
0.2
 40
0.2
 40
0.2
 40
0.4
 40
0.4
 40
0.4
 40
0.4
 40
0.6
 40
0.6
 40
0.6
 40
0.6
 40
1.0
 40
1.0
 40
1.0
 40
1.0
 10
-20.2258
 20
0.7972
 30
0.0
 10
-20.2258
 20
0.7972
 30
0.0
 10
-22.3578
 20
1.1986
 30
0.0
 10
-22.3578
 20
1.1986
 30
0.0
 10
-22.3578
 20
1.1986
 30
0.0
 10
-22.3578
 20
1.1986
 30
0.0
 10
-22.3751
 20
1.3963
 30
0.0
 10
-22.3751
 20
1.3963
 30
0.0
 10
-22.3751
 20
1.3963
 30
0.0
 10
-22.3751
 20
1.3963
 30
0.0
 10
-20.2432
 20
0.9964
 30
0.0
 10
-20.2432
 20
0.9964
 30
0.0
 10
-20.2432
 20
0.9964
 30
0.0
 10
-20.2432
 20
0.9964
 30
0.0
 10
-20.2258
 20
0.7972
 30
0.0
 10
-20.2258
 20
0.7972
 30
0.0
  0
SPLINE
  5
78
330
1F
100
AcDbEntity
  8
ROUND
 62
   250
100
AcDbSpline
210
0.0
220
0.0
230
1.0
 70
    11
 71
     3
 72
    48
 73
    44
 74
     0
 42
0.0000000001
 43
0.0000000001
 40
0.0
 40
0.0
 40
0.0
 40
0.0
 40
0.0833333333333333
 40
0.0833333333333333
 40
0.0833333333333333
 40
0.0833333333333333
 40
0.1666666666666667
 40
0.1666666666666667
 40
0.1666666666666667
 40
0.1666666666666667
 40
0.25
 40
0.25
 40
0.25
 40
0.25
 40
0.3333333333333333
 40
0.3333333333333333
 40
0.3333333333333333
 40
0.3333333333333333
 40
0.4166666666666667
 40
0.4166666666666667
 40
0.4166666666666667
 40
0.4166666666666667
 40
0.5
 40
0.5
 40
0.5
 40
0.5
 40
0.5833333333333334
 40
0.5833333333333334
 40
0.5833333333333334
 40
0.5833333333333334
 40
0.6666666666666666
 40
0.6666666666666666
 40
0.6666666666666666
 40
0.6666666666666666
 40
0.75
 40
0.75
 40
0.75
 40
0.75
 40
0.8333333333333334
 40
0.8333333333333334
 40
0.8333333333333334
 40
0.8333333333333334
 40
1.0
 40
1.0
 40
1.0
 40
1.0
 10
-20.4078
 20
2.4839
 30
0.0
 10
-20.4078
 20
2.4839
 30
0.0
 10
-20.8895
 20
2.4418
 30
0.0
 10
-20.8895
 20
2.4418
 30
0.0
 10
-20.8895
 20
2.4418
 30
0.0
 10
-20.8895
 20
2.4418
 30
0.0
 10
-20.8131
 20
1.5688
 30
0.0
 10
-20.8131
 20
1.5688
 30
0.0
 10
-20.8131
 20
1.5688
 30
0.0
 10
-20.8131
 20
1.5688
 30
0.0
 10
-21.0399
 20
1.5489
 30
0.0
 10
-21.0399
 20
1.5489
 30
0.0
 10
-21.0399
 20
1.5489
 30
0.0
 10
-21.0399
 20
1.5489
 30
0.0
 10
-22.4243
 20
2.3534
 30
0.0
 10
-22.4243
 20
2.3534
 30
0.0
 10
-22.4243
 20
2.3534
 30
0.0
 10
-22.4243
 20
2.3534
 30
0.0
 10
-22.442
 20
2.5553
 30
0.0
 10
-22.442
 20
2.5553
 30
0.0
 10
-22.442
 20
2.5553
 30
0.0
 10
-22.442
 20
2.5553
 30
0.0
 10
-21.1379
 20
2.6694
 30
0.0
 10
-21.1379
 20
2.6694
 30
0.0
 10
-21.1379
 20
2.6694
 30
0.0
 10
-21.1379
 20
2.6694
 30
0.0
 10
-21.1617
 20
2.9411
 30
0.0
 10
-21.1617
 20
2.9411
 30
0.0
 10
-21.1617
 20
2.9411
 30
0.0
 10
-21.1617
 20
2.9411
 30
0.0
 10
-20.9349
 20
2.961
 30
0.0
 10
-20.9349
 20
2.961
 30
0.0
 10
-20.9349
 20
2.961
 30
0.0
 10
-20.9349
 20
2.961
 30
0.0
 10
-20.9111
 20
2.6892
 30
0.0
 10
-20.9111
 20
2.6892
 30
0.0
 10
-20.9111
 20
2.6892
 30
0.0
 10
-20.9111
 20
2.6892
 30
0.0
 10
-20.4295
 20
2.7314
 30
0.0
 10
-20.4295
 20
2.7314
 30
0.0
 10
-20.4295
 20
2.7314
 30
0.0
 10
-20.4295
 20
2.7314
 30
0.0
 10
-20.4078
 20
2.4839
 30
0.0
 10
-20.4078
 20
2.4839
 30
0.0
  0
SPLINE
  5
79
330
1F
100
AcDbEntity
  8
ROUND
 62
   250
100
AcDbSpline
210
0.0
220
0.0
230
1.0
 70
    11
 71
     3
 72
    16
 73
    12
 74
     0
 42
0.0000000001
 43
0.0000000001
 40
0.0
 40
0.0
 40
0.0
 40
0.0
 40
0.25
 40
0.25
 40
0.25
 40
0.25
 40
0.5
 40
0.5
 40
0.5
 40
0.5
 40
1.0
 40
1.0
 40
1.0
 40
1.0
 10
-21.1163
 20
2.4219
 30
0.0
 10
-21.1163
 20
2.4219
 30
0.0
 10
-22.0234
 20
2.3425
 30
0.0
 10
-22.0234
 20
2.3425
 30
0.0
 10
-22.0234
 20
2.3425
 30
0.0
 10
-22.0234
 20
2.3425
 30
0.0
 10
-21.0612
 20
1.7922
 30
0.0
 10
-21.0612
 20
1.7922
 30
0.0
 10
-21.0612
 20
1.7922
 30
0.0
 10
-21.0612
 20
1.7922
 30
0.0
 10
-21.1163
 20
2.4219
 30
0.0
 10
-21.1163
 20
2.4219
 30
0.0
  0
SPLINE
  5
7A
330
1F
100
AcDbEntity
  8
ROUND
 62
   250
100
AcDbSpline
210
0.0
220
0.0
230
1.0
 70
    11
 71
     3
 72
    28
 73
    24
 74
     0
 42
0.0000000001
 43
0.0000000001
 40
0.0
 40
0.0
 40
0.0
 40
0.0
 40
0.1428571428571428
 40
0.1428571428571428
 40
0.1428571428571428
 40
0.1428571428571428
 40
0.2857142857142857
 40
0.2857142857142857
 40
0.2857142857142857
 40
0.2857142857142857
 40
0.4285714285714285
 40
0.4285714285714285
 40
0.4285714285714285
 40
0.4285714285714285
 40
0.5714285714285714
 40
0.5714285714285714
 40
0.5714285714285714
 40
0.5714285714285714
 40
0.7142857142857143
 40
0.7142857142857143
 40
0.7142857142857143
 40
0.7142857142857143
 40
1.0
 40
1.0
 40
1.0
 40
1.0
 10
-21.7823
 20
3.223
 30
0.0
 10
-21.7823
 20
3.223
 30
0.0
 10
-22.1596
 20
3.1206
 30
0.0
 10
-22.1596
 20
3.1206
 30
0.0
 10
-22.1596
 20
3.1206
 30
0.0
 10
-22.1596
 20
3.1206
 30
0.0
 10
-22.4889
 20
3.0918
 30
0.0
 10
-22.4889
 20
3.0918
 30
0.0
 10
-22.4889
 20
3.0918
 30
0.0
 10
-22.4889
 20
3.0918
 30
0.0
 10
-22.5135
 20
3.3734
 30
0.0
 10
-22.5135
 20
3.3734
 30
0.0
 10
-22.5135
 20
3.3734
 30
0.0
 10
-22.5135
 20
3.3734
 30
0.0
 10
-22.1842
 20
3.4022
 30
0.0
 10
-22.1842
 20
3.4022
 30
0.0
 10
-22.1842
 20
3.4022
 30
0.0
 10
-22.1842
 20
3.4022
 30
0.0
 10
-21.7955
 20
3.3739
 30
0.0
 10
-21.7955
 20
3.3739
 30
0.0
 10
-21.7955
 20
3.3739
 30
0.0
 10
-21.7955
 20
3.3739
 30
0.0
 10
-21.7823
 20
3.223
 30
0.0
 10
-21.7823
 20
3.223
 30
0.0
  0
SPLINE
  5
7B
330
1F
100
AcDbEntity
  8
ROUND
 62
   250
100
AcDbSpline
210
0.0
220
0.0
230
1.0
 70
    11
 71
     3
 72
    28
 73
    24
 74
     0
 42
0.0000000001
 43
0.0000000001
 40
0.0
 40
0.0
 40
0.0
 40
0.0
 40
0.1428571428571428
 40
0.1428571428571428
 40
0.1428571428571428
 40
0.1428571428571428
 40
0.2857142857142857
 40
0.2857142857142857
 40
0.2857142857142857
 40
0.2857142857142857
 40
0.4285714285714285
 40
0.4285714285714285
 40
0.4285714285714285
 40
0.4285714285714285
 40
0.5714285714285714
 40
0.5714285714285714
 40
0.5714285714285714
 40
0.5714285714285714
 40
0.7142857142857143
 40
0.7142857142857143
 40
0.7142857142857143
 40
0.7142857142857143
 40
1.0
 40
1.0
 40
1.0
 40
1.0
 10
-21.822
 20
3.6776
 30
0.0
 10
-21.822
 20
3.6776
 30
0.0
 10
-22.1995
 20
3.5765
 30
0.0
 10
-22.1995
 20
3.5765
 30
0.0
 10
-22.1995
 20
3.5765
 30
0.0
 10
-22.1995
 20
3.5765
 30
0.0
 10
-22.5288
 20
3.5477
 30
0.0
 10
-22.5288
 20
3.5477
 30
0.0
 10
-22.5288
 20
3.5477
 30
0.0
 10
-22.5288
 20
3.5477
 30
0.0
 10
-22.5534
 20
3.8293
 30
0.0
 10
-22.5534
 20
3.8293
 30
0.0
 10
-22.5534
 20
3.8293
 30
0.0
 10
-22.5534
 20
3.8293
 30
0.0
 10
-22.2241
 20
3.8581
 30
0.0
 10
-22.2241
 20
3.8581
 30
0.0
 10
-22.2241
 20
3.8581
 30
0.0
 10
-22.2241
 20
3.8581
 30
0.0
 10
-21.835
 20
3.8256
 30
0.0
 10
-21.835
 20
3.8256
 30
0.0
 10
-21.835
 20
3.8256
 30
0.0
 10
-21.835
 20
3.8256
 30
0.0
 10
-21.822
 20
3.6776
 30
0.0
 10
-21.822
 20
3.6776
 30
0.0
  0
SPLINE
  5
7C
330
1F
100
AcDbEntity
  8
ROUND
 62
   250
100
AcDbSpline
210
0.0
220
0.0
230
1.0
 70
    11
 71
     3
 72
    20
 73
    16
 74
     0
 42
0.0000000001
 43
0.0000000001
 40
0.0
 40
0.0
 40
0.0
 40
0.0
 40
0.2
 40
0.2
 40
0.2
 40
0.2
 40
0.4
 40
0.4
 40
0.4
 40
0.4
 40
0.6
 40
0.6
 40
0.6
 40
0.6
 40
1.0
 40
1.0
 40
1.0
 40
1.0
 10
-19.1804
 20
-8.9479
 30
0.0
 10
-19.1804
 20
-8.9479
 30
0.0
 10
-19.02
 20
-5.9224
 30
0.0
 10
-19.02
 20
-5.9224
 30
0.0
 10
-19.02
 20
-5.9224
 30
0.0
 10
-19.02
 20
-5.9224
 30
0.0
 10
-18.9264
 20
-5.9142
 30
0.0
 10
-18.9264
 20
-5.9142
 30
0.0
 10
-18.9264
 20
-5.9142
 30
0.0
 10
-18.9264
 20
-5.9142
 30
0.0
 10
-18.2151
 20
-8.8634
 30
0.0
 10
-18.2151
 20
-8.8634
 30
0.0
 10
-18.2151
 20
-8.8634
 30
0.0
 10
-18.2151
 20
-8.8634
 30
0.0
 10
-19.1804
 20
-8.9479
 30
0.0
 10
-19.1804
 20
-8.9479
 30
0.0
  0
SPLINE
  5
7D
330
1F
100
AcDbEntity
  8
ROUND
 62
   250
100
AcDbSpline
210
0.0
220
0.0
230
1.0
 70
    11
 71
     3
 72
    20
 73
    16
 74
     0
 42
0.0000000001
 43
0.0000000001
 40
0.0
 40
0.0
 40
0.0
 40
0.0
 40
0.2
 40
0.2
 40
0.2
 40
0.2
 40
0.4
 40
0.4
 40
0.4
 40
0.4
 40
0.6
 40
0.6
 40
0.6
 40
0.6
 40
1.0
 40
1.0
 40
1.0
 40
1.0
 10
-19.6794
 20
7.291
 30
0.0
 10
-19.6794
 20
7.291
 30
0.0
 10
-19.8397
 20
4.2655
 30
0.0
 10
-19.8397
 20
4.2655
 30
0.0
 10
-19.8397
 20
4.2655
 30
0.0
 10
-19.8397
 20
4.2655
 30
0.0
 10
-19.9334
 20
4.2573
 30
0.0
 10
-19.9334
 20
4.2573
 30
0.0
 10
-19.9334
 20
4.2573
 30
0.0
 10
-19.9334
 20
4.2573
 30
0.0
 10
-20.6447
 20
7.2066
 30
0.0
 10
-20.6447
 20
7.2066
 30
0.0
 10
-20.6447
 20
7.2066
 30
0.0
 10
-20.6447
 20
7.2066
 30
0.0
 10
-19.6794
 20
7.291
 30
0.0
 10
-19.6794
 20
7.291
 30
0.0
  0
SPLINE
  5
7E
330
1F
100
AcDbEntity
  8
ROUND
  6
NEW_LINE7
 62
   250
100
AcDbSpline
210
0.0
220
0.0
230
1.0
 70
    24
 71
     3
 72
     8
 73
     4
 74
     0
 42
0.0000000001
 43
0.0000000001
 40
0.0
 40
0.0
 40
0.0
 40
0.0
 40
1.0
 40
1.0
 40
1.0
 40
1.0
 10
-19.5974
 20
-5.8508
 30
0.0
 10
-19.5974
 20
-5.8508
 30
0.0
 10
-17.0537
 20
-5.6283
 30
0.0
 10
-17.0537
 20
-5.6283
 30
0.0
  0
SPLINE
  5
80
330
1F
100
AcDbEntity
  8
ROUND
  6
NEW_LINE8
 62
   250
100
AcDbSpline
210
0.0
220
0.0
230
1.0
 70
    24
 71
     3
 72
     8
 73
     4
 74
     0
 42
0.0000000001
 43
0.0000000001
 40
0.0
 40
0.0
 40
0.0
 40
0.0
 40
1.0
 40
1.0
 40
1.0
 40
1.0
 10
-20.4076
 20
4.1054
 30
0.0
 10
-20.4076
 20
4.1054
 30
0.0
 10
-17.8129
 20
4.3324
 30
0.0
 10
-17.8129
 20
4.3324
 30
0.0
  0
SPLINE
  5
82
330
1F
100
AcDbEntity
  8
ROUND
 62
   250
100
AcDbSpline
210
0.0
220
0.0
230
1.0
 70
    24
 71
     3
 72
     8
 73
     4
 74
     0
 42
0.0000000001
 43
0.0000000001
 40
0.0
 40
0.0
 40
0.0
 40
0.0
 40
1.0
 40
1.0
 40
1.0
 40
1.0
 10
-16.1119
 20
-5.3905
 30
0.0
 10
-16.1119
 20
-5.3905
 30
0.0
 10
-17.123
 20
4.3047
 30
0.0
 10
-17.123
 20
4.3047
 30
0.0
  0
SPLINE
  5
83
330
1F
100
AcDbEntity
  8
ROUND
 62
   250
100
AcDbSpline
210
0.0
220
0.0
230
1.0
 70
    24
 71
     3
 72
     8
 73
     4
 74
     0
 42
0.0000000001
 43
0.0000000001
 40
0.0
 40
0.0
 40
0.0
 40
0.0
 40
1.0
 40
1.0
 40
1.0
 40
1.0
 10
-15.6574
 20
-5.3526
 30
0.0
 10
-15.6574
 20
-5.3526
 30
0.0
 10
-16.6684
 20
4.3426
 30
0.0
 10
-16.6684
 20
4.3426
 30
0.0
  0
SPLINE
  5
84
330
1F
100
AcDbEntity
  8
ROUND
 62
   250
100
AcDbSpline
210
0.0
220
0.0
230
1.0
 70
    24
 71
     3
 72
     8
 73
     4
 74
     0
 42
0.0000000001
 43
0.0000000001
 40
0.0
 40
0.0
 40
0.0
 40
0.0
 40
1.0
 40
1.0
 40
1.0
 40
1.0
 10
-15.1649
 20
-5.2958
 30
0.0
 10
-15.1649
 20
-5.2958
 30
0.0
 10
-16.176
 20
4.3994
 30
0.0
 10
-16.176
 20
4.3994
 30
0.0
  0
SPLINE
  5
85
330
1F
100
AcDbEntity
  8
ROUND
 62
   250
100
AcDbSpline
210
0.0
220
0.0
230
1.0
 70
    24
 71
     3
 72
     8
 73
     4
 74
     0
 42
0.0000000001
 43
0.0000000001
 40
0.0
 40
0.0
 40
0.0
 40
0.0
 40
1.0
 40
1.0
 40
1.0
 40
1.0
 10
-14.6535
 20
-5.3147
 30
0.0
 10
-14.6535
 20
-5.3147
 30
0.0
 10
-15.6645
 20
4.3805
 30
0.0
 10
-15.6645
 20
4.3805
 30
0.0
  0
SPLINE
  5
86
330
1F
100
AcDbEntity
  8
ROUND
 62
   250
100
AcDbSpline
210
0.0
220
0.0
230
1.0
 70
    24
 71
     3
 72
     8
 73
     4
 74
     0
 42
0.0000000001
 43
0.0000000001
 40
0.0
 40
0.0
 40
0.0
 40
0.0
 40
1.0
 40
1.0
 40
1.0
 40
1.0
 10
-14.1989
 20
-5.2011
 30
0.0
 10
-14.1989
 20
-5.2011
 30
0.0
 10
-15.21
 20
4.4941
 30
0.0
 10
-15.21
 20
4.4941
 30
0.0
  0
SPLINE
  5
87
330
1F
100
AcDbEntity
  8
ROUND
 62
   250
100
AcDbSpline
210
0.0
220
0.0
230
1.0
 70
    11
 71
     3
 72
    20
 73
    16
 74
     0
 42
0.0000000001
 43
0.0000000001
 40
0.0
 40
0.0
 40
0.0
 40
0.0
 40
0.2
 40
0.2
 40
0.2
 40
0.2
 40
0.4
 40
0.4
 40
0.4
 40
0.4
 40
0.6
 40
0.6
 40
0.6
 40
0.6
 40
1.0
 40
1.0
 40
1.0
 40
1.0
 10
-24.2378
 20
-6.5217
 30
0.0
 10
-24.2378
 20
-6.5217
 30
0.0
 10
-25.1426
 20
3.8199
 30
0.0
 10
-25.1426
 20
3.8199
 30
0.0
 10
-25.1426
 20
3.8199
 30
0.0
 10
-25.1426
 20
3.8199
 30
0.0
 10
-23.9829
 20
3.4276
 30
0.0
 10
-23.9829
 20
3.4276
 30
0.0
 10
-23.9829
 20
3.4276
 30
0.0
 10
-23.9829
 20
3.4276
 30
0.0
 10
-23.1575
 20
-5.9911
 30
0.0
 10
-23.1575
 20
-5.9911
 30
0.0
 10
-23.1575
 20
-5.9911
 30
0.0
 10
-23.1575
 20
-5.9911
 30
0.0
 10
-24.2378
 20
-6.5217
 30
0.0
 10
-24.2378
 20
-6.5217
 30
0.0
  0
SPLINE
  5
88
330
1F
100
AcDbEntity
  8
ROUND
 62
   250
100
AcDbSpline
210
0.0
220
0.0
230
1.0
 70
    11
 71
     3
 72
    20
 73
    16
 74
     0
 42
0.0000000001
 43
0.0000000001
 40
0.0
 40
0.0
 40
0.0
 40
0.0
 40
0.2
 40
0.2
 40
0.2
 40
0.2
 40
0.4
 40
0.4
 40
0.4
 40
0.4
 40
0.6
 40
0.6
 40
0.6
 40
0.6
 40
1.0
 40
1.0
 40
1.0
 40
1.0
 10
-17.2773
 20
4.3846
 30
0.0
 10
-17.2773
 20
4.3846
 30
0.0
 10
-17.2738
 20
4.3446
 30
0.0
 10
-17.2738
 20
4.3446
 30
0.0
 10
-17.2738
 20
4.3446
 30
0.0
 10
-17.2738
 20
4.3446
 30
0.0
 10
-16.4199
 20
-5.4148
 30
0.0
 10
-16.4199
 20
-5.4148
 30
0.0
 10
-16.4199
 20
-5.4148
 30
0.0
 10
-16.4199
 20
-5.4148
 30
0.0
 10
-16.4088
 20
-5.5415
 30
0.0
 10
-16.4088
 20
-5.5415
 30
0.0
 10
-16.4088
 20
-5.5415
 30
0.0
 10
-16.4088
 20
-5.5415
 30
0.0
 10
-17.2773
 20
4.3846
 30
0.0
 10
-17.2773
 20
4.3846
 30
0.0
  0
SPLINE
  5
89
330
1F
100
AcDbEntity
  8
ROUND
 62
   250
100
AcDbSpline
210
0.0
220
0.0
230
1.0
 70
     8
 71
     3
 72
    24
 73
    20
 74
     0
 42
0.0000000001
 43
0.0000000001
 40
0.0
 40
0.0
 40
0.0
 40
0.0
 40
0.1666666666666667
 40
0.1666666666666667
 40
0.1666666666666667
 40
0.1666666666666667
 40
0.3333333333333333
 40
0.3333333333333333
 40
0.3333333333333333
 40
0.3333333333333333
 40
0.5
 40
0.5
 40
0.5
 40
0.5
 40
0.6666666666666666
 40
0.6666666666666666
 40
0.6666666666666666
 40
0.6666666666666666
 40
1.0
 40
1.0
 40
1.0
 40
1.0
 10
-14.5807
 20
3.9779
 30
0.0
 10
-14.5807
 20
3.9779
 30
0.0
 10
-9.8298
 20
4.3711
 30
0.0
 10
-9.8298
 20
4.3711
 30
0.0
 10
-9.8298
 20
4.3711
 30
0.0
 10
-9.8298
 20
4.3711
 30
0.0
 10
-9.638
 20
3.9233
 30
0.0
 10
-9.638
 20
3.9233
 30
0.0
 10
-9.638
 20
3.9233
 30
0.0
 10
-9.638
 20
3.9233
 30
0.0
 10
-8.9658
 20
-3.7608
 30
0.0
 10
-8.9658
 20
-3.7608
 30
0.0
 10
-8.9658
 20
-3.7608
 30
0.0
 10
-8.9658
 20
-3.7608
 30
0.0
 10
-9.0678
 20
-4.2416
 30
0.0
 10
-9.0678
 20
-4.2416
 30
0.0
 10
-9.0678
 20
-4.2416
 30
0.0
 10
-9.0678
 20
-4.2416
 30
0.0
 10
-13.7999
 20
-4.6685
 30
0.0
 10
-13.7999
 20
-4.6685
 30
0.0
  0
SPLINE
  5
8A
330
1F
100
AcDbEntity
  8
ROUND
 62
   250
100
AcDbSpline
210
0.0
220
0.0
230
1.0
 70
    11
 71
     3
 72
    52
 73
    48
 74
     0
 42
0.0000000001
 43
0.0000000001
 40
0.0
 40
0.0
 40
0.0
 40
0.0
 40
0.0769230769230769
 40
0.0769230769230769
 40
0.0769230769230769
 40
0.0769230769230769
 40
0.1538461538461539
 40
0.1538461538461539
 40
0.1538461538461539
 40
0.1538461538461539
 40
0.2307692307692308
 40
0.2307692307692308
 40
0.2307692307692308
 40
0.2307692307692308
 40
0.3076923076923077
 40
0.3076923076923077
 40
0.3076923076923077
 40
0.3076923076923077
 40
0.3846153846153846
 40
0.3846153846153846
 40
0.3846153846153846
 40
0.3846153846153846
 40
0.4615384615384616
 40
0.4615384615384616
 40
0.4615384615384616
 40
0.4615384615384616
 40
0.5384615384615384
 40
0.5384615384615384
 40
0.5384615384615384
 40
0.5384615384615384
 40
0.6153846153846154
 40
0.6153846153846154
 40
0.6153846153846154
 40
0.6153846153846154
 40
0.6923076923076923
 40
0.6923076923076923
 40
0.6923076923076923
 40
0.6923076923076923
 40
0.7692307692307693
 40
0.7692307692307693
 40
0.7692307692307693
 40
0.7692307692307693
 40
0.8461538461538461
 40
0.8461538461538461
 40
0.8461538461538461
 40
0.8461538461538461
 40
1.0
 40
1.0
 40
1.0
 40
1.0
 10
-13.8685
 20
-4.6913
 30
0.0
 10
-13.8685
 20
-4.6913
 30
0.0
 10
-14.6279
 20
3.9882
 30
0.0
 10
-14.6279
 20
3.9882
 30
0.0
 10
-14.6279
 20
3.9882
 30
0.0
 10
-14.6279
 20
3.9882
 30
0.0
 10
-15.0115
 20
4.5502
 30
0.0
 10
-15.0115
 20
4.5502
 30
0.0
 10
-15.0115
 20
4.5502
 30
0.0
 10
-15.0115
 20
4.5502
 30
0.0
 10
-17.26
 20
4.3723
 30
0.0
 10
-17.26
 20
4.3723
 30
0.0
 10
-17.26
 20
4.3723
 30
0.0
 10
-17.26
 20
4.3723
 30
0.0
 10
-17.2738
 20
4.3446
 30
0.0
 10
-17.2738
 20
4.3446
 30
0.0
 10
-17.2738
 20
4.3446
 30
0.0
 10
-17.2738
 20
4.3446
 30
0.0
 10
-17.5564
 20
3.7687
 30
0.0
 10
-17.5564
 20
3.7687
 30
0.0
 10
-17.5564
 20
3.7687
 30
0.0
 10
-17.5564
 20
3.7687
 30
0.0
 10
-17.7729
 20
3.7399
 30
0.0
 10
-17.7729
 20
3.7399
 30
0.0
 10
-17.7729
 20
3.7399
 30
0.0
 10
-17.7729
 20
3.7399
 30
0.0
 10
-17.0628
 20
-4.9169
 30
0.0
 10
-17.0628
 20
-4.9169
 30
0.0
 10
-17.0628
 20
-4.9169
 30
0.0
 10
-17.0628
 20
-4.9169
 30
0.0
 10
-16.8458
 20
-4.8774
 30
0.0
 10
-16.8458
 20
-4.8774
 30
0.0
 10
-16.8458
 20
-4.8774
 30
0.0
 10
-16.8458
 20
-4.8774
 30
0.0
 10
-16.4391
 20
-5.482
 30
0.0
 10
-16.4391
 20
-5.482
 30
0.0
 10
-16.4391
 20
-5.482
 30
0.0
 10
-16.4391
 20
-5.482
 30
0.0
 10
-16.3133
 20
-5.5493
 30
0.0
 10
-16.3133
 20
-5.5493
 30
0.0
 10
-16.3133
 20
-5.5493
 30
0.0
 10
-16.3133
 20
-5.5493
 30
0.0
 10
-14.1437
 20
-5.3715
 30
0.0
 10
-14.1437
 20
-5.3715
 30
0.0
 10
-14.1437
 20
-5.3715
 30
0.0
 10
-14.1437
 20
-5.3715
 30
0.0
 10
-13.8685
 20
-4.6913
 30
0.0
 10
-13.8685
 20
-4.6913
 30
0.0
  0
SPLINE
  5
8B
330
1F
100
AcDbEntity
  8
ROUND
 62
   250
100
AcDbSpline
210
0.0
220
0.0
230
1.0
 70
     8
 71
     3
 72
    16
 73
    12
 74
     0
 42
0.0000000001
 43
0.0000000001
 40
0.0
 40
0.0
 40
0.0
 40
0.0
 40
0.25
 40
0.25
 40
0.25
 40
0.25
 40
0.5
 40
0.5
 40
0.5
 40
0.5
 40
1.0
 40
1.0
 40
1.0
 40
1.0
 10
-29.4157
 20
3.9874
 30
0.0
 10
-29.4157
 20
3.9874
 30
0.0
 10
-27.2224
 20
4.1961
 30
0.0
 10
-27.2224
 20
4.1961
 30
0.0
 10
-27.2224
 20
4.1961
 30
0.0
 10
-27.2224
 20
4.1961
 30
0.0
 10
-26.2207
 20
-7.2534
 30
0.0
 10
-26.2207
 20
-7.2534
 30
0.0
 10
-26.2207
 20
-7.2534
 30
0.0
 10
-26.2207
 20
-7.2534
 30
0.0
 10
-28.3957
 20
-7.4978
 30
0.0
 10
-28.3957
 20
-7.4978
 30
0.0
  0
SPLINE
  5
8C
330
1F
100
AcDbEntity
  8
ROUND
 62
   250
100
AcDbSpline
210
0.0
220
0.0
230
1.0
 70
     8
 71
     3
 72
    44
 73
    40
 74
     0
 42
0.0000000001
 43
0.0000000001
 40
0.0
 40
0.0
 40
0.0
 40
0.0
 40
0.0909090909090909
 40
0.0909090909090909
 40
0.0909090909090909
 40
0.0909090909090909
 40
0.1818181818181818
 40
0.1818181818181818
 40
0.1818181818181818
 40
0.1818181818181818
 40
0.2727272727272727
 40
0.2727272727272727
 40
0.2727272727272727
 40
0.2727272727272727
 40
0.3636363636363636
 40
0.3636363636363636
 40
0.3636363636363636
 40
0.3636363636363636
 40
0.4545454545454545
 40
0.4545454545454545
 40
0.4545454545454545
 40
0.4545454545454545
 40
0.5454545454545454
 40
0.5454545454545454
 40
0.5454545454545454
 40
0.5454545454545454
 40
0.6363636363636364
 40
0.6363636363636364
 40
0.6363636363636364
 40
0.6363636363636364
 40
0.7272727272727273
 40
0.7272727272727273
 40
0.7272727272727273
 40
0.7272727272727273
 40
0.8181818181818182
 40
0.8181818181818182
 40
0.8181818181818182
 40
0.8181818181818182
 40
1.0
 40
1.0
 40
1.0
 40
1.0
 10
-27.6409
 20
2.7022
 30
0.0
 10
-27.6409
 20
2.7022
 30
0.0
 10
-27.7429
 20
3.9262
 30
0.0
 10
-27.7429
 20
3.9262
 30
0.0
 10
-27.7429
 20
3.9262
 30
0.0
 10
-27.7429
 20
3.9262
 30
0.0
 10
-29.8849
 20
3.763
 30
0.0
 10
-29.8849
 20
3.763
 30
0.0
 10
-29.8849
 20
3.763
 30
0.0
 10
-29.8849
 20
3.763
 30
0.0
 10
-30.1093
 20
3.7018
 30
0.0
 10
-30.1093
 20
3.7018
 30
0.0
 10
-30.1093
 20
3.7018
 30
0.0
 10
-30.1093
 20
3.7018
 30
0.0
 10
-30.2725
 20
3.5794
 30
0.0
 10
-30.2725
 20
3.5794
 30
0.0
 10
-30.2725
 20
3.5794
 30
0.0
 10
-30.2725
 20
3.5794
 30
0.0
 10
-30.3133
 20
3.3675
 30
0.0
 10
-30.3133
 20
3.3675
 30
0.0
 10
-30.3133
 20
3.3675
 30
0.0
 10
-30.3133
 20
3.3675
 30
0.0
 10
-29.4086
 20
-6.9741
 30
0.0
 10
-29.4086
 20
-6.9741
 30
0.0
 10
-29.4086
 20
-6.9741
 30
0.0
 10
-29.4086
 20
-6.9741
 30
0.0
 10
-29.3545
 20
-7.1306
 30
0.0
 10
-29.3545
 20
-7.1306
 30
0.0
 10
-29.3545
 20
-7.1306
 30
0.0
 10
-29.3545
 20
-7.1306
 30
0.0
 10
-29.2117
 20
-7.253
 30
0.0
 10
-29.2117
 20
-7.253
 30
0.0
 10
-29.2117
 20
-7.253
 30
0.0
 10
-29.2117
 20
-7.253
 30
0.0
 10
-28.9057
 20
-7.3142
 30
0.0
 10
-28.9057
 20
-7.3142
 30
0.0
 10
-28.9057
 20
-7.3142
 30
0.0
 10
-28.9057
 20
-7.3142
 30
0.0
 10
-26.8045
 20
-7.1306
 30
0.0
 10
-26.8045
 20
-7.1306
 30
0.0
  0
SPLINE
  5
8D
330
1F
100
AcDbEntity
  8
ROUND
 62
   250
100
AcDbSpline
210
0.0
220
0.0
230
1.0
 70
     8
 71
     3
 72
   128
 73
   124
 74
     0
 42
0.0000000001
 43
0.0000000001
 40
0.0
 40
0.0
 40
0.0
 40
0.0
 40
0.03125
 40
0.03125
 40
0.03125
 40
0.03125
 40
0.0625
 40
0.0625
 40
0.0625
 40
0.0625
 40
0.09375
 40
0.09375
 40
0.09375
 40
0.09375
 40
0.125
 40
0.125
 40
0.125
 40
0.125
 40
0.15625
 40
0.15625
 40
0.15625
 40
0.15625
 40
0.1875
 40
0.1875
 40
0.1875
 40
0.1875
 40
0.21875
 40
0.21875
 40
0.21875
 40
0.21875
 40
0.25
 40
0.25
 40
0.25
 40
0.25
 40
0.28125
 40
0.28125
 40
0.28125
 40
0.28125
 40
0.3125
 40
0.3125
 40
0.3125
 40
0.3125
 40
0.34375
 40
0.34375
 40
0.34375
 40
0.34375
 40
0.375
 40
0.375
 40
0.375
 40
0.375
 40
0.40625
 40
0.40625
 40
0.40625
 40
0.40625
 40
0.4375
 40
0.4375
 40
0.4375
 40
0.4375
 40
0.46875
 40
0.46875
 40
0.46875
 40
0.46875
 40
0.5
 40
0.5
 40
0.5
 40
0.5
 40
0.53125
 40
0.53125
 40
0.53125
 40
0.53125
 40
0.5625
 40
0.5625
 40
0.5625
 40
0.5625
 40
0.59375
 40
0.59375
 40
0.59375
 40
0.59375
 40
0.625
 40
0.625
 40
0.625
 40
0.625
 40
0.65625
 40
0.65625
 40
0.65625
 40
0.65625
 40
0.6875
 40
0.6875
 40
0.6875
 40
0.6875
 40
0.71875
 40
0.71875
 40
0.71875
 40
0.71875
 40
0.75
 40
0.75
 40
0.75
 40
0.75
 40
0.78125
 40
0.78125
 40
0.78125
 40
0.78125
 40
0.8125
 40
0.8125
 40
0.8125
 40
0.8125
 40
0.84375
 40
0.84375
 40
0.84375
 40
0.84375
 40
0.875
 40
0.875
 40
0.875
 40
0.875
 40
0.90625
 40
0.90625
 40
0.90625
 40
0.90625
 40
0.9375
 40
0.9375
 40
0.9375
 40
0.9375
 40
1.0
 40
1.0
 40
1.0
 40
1.0
 10
-26.7758
 20
-7.29
 30
0.0
 10
-26.7758
 20
-7.29
 30
0.0
 10
-26.8925
 20
-5.9561
 30
0.0
 10
-26.8925
 20
-5.9561
 30
0.0
 10
-26.8925
 20
-5.9561
 30
0.0
 10
-26.8925
 20
-5.9561
 30
0.0
 10
-26.8993
 20
-5.8779
 30
0.0
 10
-26.8993
 20
-5.8779
 30
0.0
 10
-26.8993
 20
-5.8779
 30
0.0
 10
-26.8993
 20
-5.8779
 30
0.0
 10
-28.1917
 20
-5.9882
 30
0.0
 10
-28.1917
 20
-5.9882
 30
0.0
 10
-28.1917
 20
-5.9882
 30
0.0
 10
-28.1917
 20
-5.9882
 30
0.0
 10
-28.3141
 20
-5.9882
 30
0.0
 10
-28.3141
 20
-5.9882
 30
0.0
 10
-28.3141
 20
-5.9882
 30
0.0
 10
-28.3141
 20
-5.9882
 30
0.0
 10
-28.4161
 20
-5.927
 30
0.0
 10
-28.4161
 20
-5.927
 30
0.0
 10
-28.4161
 20
-5.927
 30
0.0
 10
-28.4161
 20
-5.927
 30
0.0
 10
-28.5181
 20
-5.7638
 30
0.0
 10
-28.5181
 20
-5.7638
 30
0.0
 10
-28.5181
 20
-5.7638
 30
0.0
 10
-28.5181
 20
-5.7638
 30
0.0
 10
-28.5181
 20
-5.6618
 30
0.0
 10
-28.5181
 20
-5.6618
 30
0.0
 10
-28.5181
 20
-5.6618
 30
0.0
 10
-28.5181
 20
-5.6618
 30
0.0
 10
-28.4365
 20
-5.4986
 30
0.0
 10
-28.4365
 20
-5.4986
 30
0.0
 10
-28.4365
 20
-5.4986
 30
0.0
 10
-28.4365
 20
-5.4986
 30
0.0
 10
-28.1713
 20
-5.4782
 30
0.0
 10
-28.1713
 20
-5.4782
 30
0.0
 10
-28.1713
 20
-5.4782
 30
0.0
 10
-28.1713
 20
-5.4782
 30
0.0
 10
-26.9373
 20
-5.3568
 30
0.0
 10
-26.9373
 20
-5.3568
 30
0.0
 10
-26.9373
 20
-5.3568
 30
0.0
 10
-26.9373
 20
-5.3568
 30
0.0
 10
-26.9269
 20
-5.3558
 30
0.0
 10
-26.9269
 20
-5.3558
 30
0.0
 10
-26.9269
 20
-5.3558
 30
0.0
 10
-26.9269
 20
-5.3558
 30
0.0
 10
-26.9741
 20
-4.8664
 30
0.0
 10
-26.9741
 20
-4.8664
 30
0.0
 10
-26.9741
 20
-4.8664
 30
0.0
 10
-26.9741
 20
-4.8664
 30
0.0
 10
-27.2533
 20
-1.9694
 30
0.0
 10
-27.2533
 20
-1.9694
 30
0.0
 10
-27.2533
 20
-1.9694
 30
0.0
 10
-27.2533
 20
-1.9694
 30
0.0
 10
-28.5181
 20
-2.0714
 30
0.0
 10
-28.5181
 20
-2.0714
 30
0.0
 10
-28.5181
 20
-2.0714
 30
0.0
 10
-28.5181
 20
-2.0714
 30
0.0
 10
-28.7629
 20
-2.0306
 30
0.0
 10
-28.7629
 20
-2.0306
 30
0.0
 10
-28.7629
 20
-2.0306
 30
0.0
 10
-28.7629
 20
-2.0306
 30
0.0
 10
-28.9057
 20
-1.8062
 30
0.0
 10
-28.9057
 20
-1.8062
 30
0.0
 10
-28.9057
 20
-1.8062
 30
0.0
 10
-28.9057
 20
-1.8062
 30
0.0
 10
-28.9261
 20
-1.643
 30
0.0
 10
-28.9261
 20
-1.643
 30
0.0
 10
-28.9261
 20
-1.643
 30
0.0
 10
-28.9261
 20
-1.643
 30
0.0
 10
-28.9057
 20
-1.5002
 30
0.0
 10
-28.9057
 20
-1.5002
 30
0.0
 10
-28.9057
 20
-1.5002
 30
0.0
 10
-28.9057
 20
-1.5002
 30
0.0
 10
-28.8037
 20
-1.3574
 30
0.0
 10
-28.8037
 20
-1.3574
 30
0.0
 10
-28.8037
 20
-1.3574
 30
0.0
 10
-28.8037
 20
-1.3574
 30
0.0
 10
-28.6201
 20
-1.337
 30
0.0
 10
-28.6201
 20
-1.337
 30
0.0
 10
-28.6201
 20
-1.337
 30
0.0
 10
-28.6201
 20
-1.337
 30
0.0
 10
-27.2737
 20
-1.1942
 30
0.0
 10
-27.2737
 20
-1.1942
 30
0.0
 10
-27.2737
 20
-1.1942
 30
0.0
 10
-27.2737
 20
-1.1942
 30
0.0
 10
-27.2926
 20
-0.9853
 30
0.0
 10
-27.2926
 20
-0.9853
 30
0.0
 10
-27.2926
 20
-0.9853
 30
0.0
 10
-27.2926
 20
-0.9853
 30
0.0
 10
-27.5797
 20
2.1922
 30
0.0
 10
-27.5797
 20
2.1922
 30
0.0
 10
-27.5797
 20
2.1922
 30
0.0
 10
-27.5797
 20
2.1922
 30
0.0
 10
-27.6032
 20
2.1902
 30
0.0
 10
-27.6032
 20
2.1902
 30
0.0
 10
-27.6032
 20
2.1902
 30
0.0
 10
-27.6032
 20
2.1902
 30
0.0
 10
-28.9873
 20
2.0698
 30
0.0
 10
-28.9873
 20
2.0698
 30
0.0
 10
-28.9873
 20
2.0698
 30
0.0
 10
-28.9873
 20
2.0698
 30
0.0
 10
-29.1913
 20
2.1514
 30
0.0
 10
-29.1913
 20
2.1514
 30
0.0
 10
-29.1913
 20
2.1514
 30
0.0
 10
-29.1913
 20
2.1514
 30
0.0
 10
-29.3137
 20
2.3146
 30
0.0
 10
-29.3137
 20
2.3146
 30
0.0
 10
-29.3137
 20
2.3146
 30
0.0
 10
-29.3137
 20
2.3146
 30
0.0
 10
-29.3137
 20
2.437
 30
0.0
 10
-29.3137
 20
2.437
 30
0.0
 10
-29.3137
 20
2.437
 30
0.0
 10
-29.3137
 20
2.437
 30
0.0
 10
-29.2117
 20
2.6206
 30
0.0
 10
-29.2117
 20
2.6206
 30
0.0
 10
-29.2117
 20
2.6206
 30
0.0
 10
-29.2117
 20
2.6206
 30
0.0
 10
-29.0485
 20
2.6614
 30
0.0
 10
-29.0485
 20
2.6614
 30
0.0
 10
-29.0485
 20
2.6614
 30
0.0
 10
-29.0485
 20
2.6614
 30
0.0
 10
-27.6613
 20
2.7838
 30
0.0
 10
-27.6613
 20
2.7838
 30
0.0
  0
ENDSEC
  0
SECTION
  2
OBJECTS
  0
DICTIONARY
  5
C
330
0
100
AcDbDictionary
  3
ACAD_GROUP
350
D
  3
ACAD_LAYOUT
350
1A
  3
ACAD_MATERIAL
350
3B
  3
ACAD_MLEADERSTYLE
350
B0
  3
ACAD_MLINESTYLE
350
17
  3
ACAD_PLOTSETTINGS
350
19
  3
ACAD_VISUALSTYLE
350
2A
  3
ACDBHEADERROUNDTRIPXREC
350
8E
  3
ACDBVARIABLEDICTIONARY
350
AE
  0
DICTIONARY
  5
D
102
{ACAD_REACTORS
330
C
102
}
330
C
100
AcDbDictionary
  0
DICTIONARY
  5
1A
102
{ACAD_REACTORS
330
C
102
}
330
C
100
AcDbDictionary
  0
DICTIONARY
  5
3B
102
{ACAD_REACTORS
330
C
102
}
330
C
100
AcDbDictionary
  3
BYBLOCK
350
3D
  3
BYLAYER
350
3C
  3
GLOBAL
350
3E
  0
DICTIONARY
  5
B0
102
{ACAD_REACTORS
330
C
102
}
330
C
100
AcDbDictionary
  0
DICTIONARY
  5
17
102
{ACAD_REACTORS
330
C
102
}
330
C
100
AcDbDictionary
  3
STANDARD
350
18
  0
DICTIONARY
  5
19
102
{ACAD_REACTORS
330
C
102
}
330
C
100
AcDbDictionary
  0
DICTIONARY
  5
2A
102
{ACAD_REACTORS
330
C
102
}
330
C
100
AcDbDictionary
  3
2DWIREFRAME
350
2F
  3
3D_HIDDEN
350
31
  3
3DWIREFRAME
350
30
  3
BASIC
350
32
  3
BRIGHTEN
350
36
  3
COLORCHANGE
350
3A
  3
CONCEPTUAL
350
34
  3
DIM
350
35
  3
FACEPATTERN
350
39
  3
FLAT
350
2B
  3
FLATWITHEDGES
350
2C
  3
GOURAUD
350
2D
  3
GOURAUDWITHEDGES
350
2E
  3
LINEPATTERN
350
38
  3
REALISTIC
350
33
  3
THICKEN
350
37
  0
DICTIONARY
  5
8E
102
{ACAD_REACTORS
330
C
102
}
330
C
100
AcDbDictionary
  3
CEPSNTYPE
350
97
  3
DIMSTYLEDATA
350
AD
  3
FINGERPRINTGUID
350
98
  3
HYPERLINKBASE
350
91
  3
INSUNITS
350
96
  3
LAYOUTDICT
350
93
  3
LWETCUNION
350
95
  3
PLOTSETDICT
350
94
  3
PSVPSCALE
350
9A
  3
PUCSBASE
350
9D
  3
PUCSORGBACK
350
A3
  3
PUCSORGBOTTOM
350
9F
  3
PUCSORGFRONT
350
A2
  3
PUCSORGLEFT
350
A0
  3
PUCSORGRIGHT
350
A1
  3
PUCSORGTOP
350
9E
  3
PUCSORTHOREF
350
9B
  3
PUCSORTHOVIEW
350
9C
  3
STYLESHEET
350
92
  3
TSTACKALIGN
350
8F
  3
TSTACKSIZE
350
90
  3
UCSBASE
350
A6
  3
UCSORGBACK
350
AC
  3
UCSORGBOTTOM
350
A8
  3
UCSORGFRONT
350
AB
  3
UCSORGLEFT
350
A9
  3
UCSORGRIGHT
350
AA
  3
UCSORGTOP
350
A7
  3
UCSORTHOREF
350
A4
  3
UCSORTHOVIEW
350
A5
  3
VERSIONGUID
350
99
  0
DICTIONARY
  5
AE
102
{ACAD_REACTORS
330
C
102
}
330
C
100
AcDbDictionary
  3
DIMASSOC
350
B1
  3
HIDETEXT
350
B2
  0
MATERIAL
  5
3D
102
{ACAD_REACTORS
330
3B
102
}
102
{ACAD_XDICTIONARY
360
B5
102
}
330
3B
100
AcDbMaterial
  1
ByBlock
  0
MATERIAL
  5
3C
102
{ACAD_REACTORS
330
3B
102
}
102
{ACAD_XDICTIONARY
360
B3
102
}
330
3B
100
AcDbMaterial
  1
ByLayer
  0
MATERIAL
  5
3E
102
{ACAD_REACTORS
330
3B
102
}
102
{ACAD_XDICTIONARY
360
B7
102
}
330
3B
100
AcDbMaterial
  1
Global
  0
MLINESTYLE
  5
18
102
{ACAD_REACTORS
330
17
102
}
330
17
100
AcDbMlineStyle
  2
Standard
 70
     0
  3

 62
   256
 51
90.0
 52
90.0
 71
     2
 49
0.5
 62
   256
  6
BYLAYER
 49
-0.5
 62
   256
  6
BYLAYER
  0
ACAD_PROXY_OBJECT
  5
2F
102
{ACAD_REACTORS
330
2A
102
}
330
2A
100
AcDbProxyObject
 90
      499
 91
      501
 93
      436
310
42CC9915DA5C99599C985B595049028333333333333E3BF0000000000000FB0107901411070040501600405405064090741402480A0340
1001
ACAD
1000
AcDbSavedByObjectVersion
1070
     0
  0
ACAD_PROXY_OBJECT
  5
31
102
{ACAD_REACTORS
330
2A
102
}
330
2A
100
AcDbProxyObject
 90
      499
 91
      501
 93
      500
310
424CD108121A5919195B90640502408333333333333E3BF0000000000000FB01079024090700405020000000000001110200405405064090740C02480A0340
1001
ACAD
1000
AcDbSavedByObjectVersion
1070
     0
  0
ACAD_PROXY_OBJECT
  5
30
102
{ACAD_REACTORS
330
2A
102
}
330
2A
100
AcDbProxyObject
 90
      499
 91
      501
 93
      436
310
42CCD915DA5C99599C985B595059028333333333333E3BF0000000000000FB0107901411070040501600405405064090741402480A0340
1001
ACAD
1000
AcDbSavedByObjectVersion
1070
     0
  0
ACAD_PROXY_OBJECT
  5
32
102
{ACAD_REACTORS
330
2A
102
}
330
2A
100
AcDbProxyObject
 90
      499
 91
      501
 93
      388
310
4150985CDA58D07406404333333333333E3BF0000000000000FB0107A41107004050150841D405064090741402480A0350
1001
ACAD
1000
AcDbSavedByObjectVersion
1070
     0
  0
ACAD_PROXY_OBJECT
  5
36
102
{ACAD_REACTORS
330
2A
102
}
330
2A
100
AcDbProxyObject
 90
      499
 91
      501
 93
      428
310
42109C9A59DA1D195B90C409028333333333333E3BF0000000000000FB010790141107004050150841D405064090741402480A029950
1001
ACAD
1000
AcDbSavedByObjectVersion
1070
     0
  0
ACAD_PROXY_OBJECT
  5
3A
102
{ACAD_REACTORS
330
2A
102
}
330
2A
100
AcDbProxyObject
 90
      499
 91
      501
 93
      452
310
42D0DBDB1BDC90DA185B99D95104090240C333333333333E3BF0000000000000FB0108901411070040501508421405064090741402480A0350
1001
ACAD
1000
AcDbSavedByObjectVersion
1070
     0
  0
ACAD_PROXY_OBJECT
  5
34
102
{ACAD_REACTORS
330
2A
102
}
330
2A
100
AcDbProxyObject
 90
      499
 91
      501
 93
      500
310
4290DBDB98D95C1D1D585B10940D028333333333333E3BF0000000000000FB0107902409070040501000000000000111010841D405064090740C02480A0340
1001
ACAD
1000
AcDbSavedByObjectVersion
1070
     0
  0
ACAD_PROXY_OBJECT
  5
35
102
{ACAD_REACTORS
330
2A
102
}
330
2A
100
AcDbProxyObject
 90
      499
 91
      501
 93
      412
310
40D11A5B50B409028333333333333E3BF0000000000000FB010790141107004050150841D405064090741402480A02677FFFFFD0
1001
ACAD
1000
AcDbSavedByObjectVersion
1070
     0
  0
ACAD_PROXY_OBJECT
  5
39
102
{ACAD_REACTORS
330
2A
102
}
330
2A
100
AcDbProxyObject
 90
      499
 91
      501
 93
      444
310
42D19858D95C185D1D195C9B90F409028333333333333E3BF0000000000000FB010790141107004050150841D405064090741402480A0350
1001
ACAD
1000
AcDbSavedByObjectVersion
1070
     0
  0
ACAD_PROXY_OBJECT
  5
2B
102
{ACAD_REACTORS
330
2A
102
}
330
2A
100
AcDbProxyObject
 90
      499
 91
      501
 93
      388
310
41119B185D240901404333333333333E3BF0000000000000F9010740A41107004050150841D405064090741402480A1B50
1001
ACAD
1000
AcDbSavedByObjectVersion
1070
     0
  0
ACAD_PROXY_OBJECT
  5
2C
102
{ACAD_REACTORS
330
2A
102
}
330
2A
100
AcDbProxyObject
 90
      499
 91
      501
 93
      476
310
43519B185D15DA5D1A115919D95CD0140901404333333333333E3BF0000000000000F9010740901411070040501600405405064090741402480A1B50
1001
ACAD
1000
AcDbSavedByObjectVersion
1070
     0
  0
ACAD_PROXY_OBJECT
  5
2D
102
{ACAD_REACTORS
330
2A
102
}
330
2A
100
AcDbProxyObject
 90
      499
 91
      501
 93
      412
310
41D1DBDD5C985D5910240902404333333333333E3BF0000000000000F9010740A411070040501641D405064090741402480A1B50
1001
ACAD
1000
AcDbSavedByObjectVersion
1070
     0
  0
ACAD_PROXY_OBJECT
  5
2E
102
{ACAD_REACTORS
330
2A
102
}
330
2A
100
AcDbProxyObject
 90
      499
 91
      501
 93
      500
310
4411DBDD5C985D5915DA5D1A115919D95CD0340902404333333333333E3BF0000000000000F9010740901411070040501600405405064090741402480A1B50
1001
ACAD
1000
AcDbSavedByObjectVersion
1070
     0
  0
ACAD_PROXY_OBJECT
  5
38
102
{ACAD_REACTORS
330
2A
102
}
330
2A
100
AcDbProxyObject
 90
      499
 91
      501
 93
      444
310
42D31A5B995C185D1D195C9B90E409028333333333333E3BF0000000000000FB010790141107004050750841D405064090741402483A0350
1001
ACAD
1000
AcDbSavedByObjectVersion
1070
     0
  0
ACAD_PROXY_OBJECT
  5
33
102
{ACAD_REACTORS
330
2A
102
}
330
2A
100
AcDbProxyObject
 90
      499
 91
      501
 93
      420
310
425499585B1A5CDD1A58D08409028333333333333E3BF0000000000000FB01079019070040501508421405064090741402480A1B40
1001
ACAD
1000
AcDbSavedByObjectVersion
1070
     0
  0
ACAD_PROXY_OBJECT
  5
37
102
{ACAD_REACTORS
330
2A
102
}
330
2A
100
AcDbProxyObject
 90
      499
 91
      501
 93
      412
310
41D51A1A58DAD95B90D409028333333333333E3BF0000000000000FB010790141107004050150C41D405064090741402480A0350
1001
ACAD
1000
AcDbSavedByObjectVersion
1070
     0
  0
XRECORD
  5
97
102
{ACAD_REACTORS
330
8E
102
}
330
8E
100
AcDbXrecord
 90
        0
  0
XRECORD
  5
AD
102
{ACAD_REACTORS
330
8E
102
}
330
8E
100
AcDbXrecord
1000
DSTYLE
1002
{
1070
   340
340
11
1002
}
  0
XRECORD
  5
98
102
{ACAD_REACTORS
330
8E
102
}
330
8E
100
AcDbXrecord
  1
{2C0C89B9-8C33-4B84-AD4E-2EDE6F47EEA7}
  0
XRECORD
  5
91
102
{ACAD_REACTORS
330
8E
102
}
330
8E
100
AcDbXrecord
  1

  0
XRECORD
  5
96
102
{ACAD_REACTORS
330
8E
102
}
330
8E
100
AcDbXrecord
 90
        4
  0
XRECORD
  5
93
102
{ACAD_REACTORS
330
8E
102
}
330
8E
100
AcDbXrecord
340
1A
  0
XRECORD
  5
95
102
{ACAD_REACTORS
330
8E
102
}
330
8E
100
AcDbXrecord
 90
    10781
  0
XRECORD
  5
94
102
{ACAD_REACTORS
330
8E
102
}
330
8E
100
AcDbXrecord
340
19
  0
XRECORD
  5
9A
102
{ACAD_REACTORS
330
8E
102
}
330
8E
100
AcDbXrecord
 40
0.0
  0
XRECORD
  5
9D
102
{ACAD_REACTORS
330
8E
102
}
330
8E
100
AcDbXrecord
340
0
  0
XRECORD
  5
A3
102
{ACAD_REACTORS
330
8E
102
}
330
8E
100
AcDbXrecord
 10
0.0
 20
0.0
 30
0.0
  0
XRECORD
  5
9F
102
{ACAD_REACTORS
330
8E
102
}
330
8E
100
AcDbXrecord
 10
0.0
 20
0.0
 30
0.0
  0
XRECORD
  5
A2
102
{ACAD_REACTORS
330
8E
102
}
330
8E
100
AcDbXrecord
 10
0.0
 20
0.0
 30
0.0
  0
XRECORD
  5
A0
102
{ACAD_REACTORS
330
8E
102
}
330
8E
100
AcDbXrecord
 10
0.0
 20
0.0
 30
0.0
  0
XRECORD
  5
A1
102
{ACAD_REACTORS
330
8E
102
}
330
8E
100
AcDbXrecord
 10
0.0
 20
0.0
 30
0.0
  0
XRECORD
  5
9E
102
{ACAD_REACTORS
330
8E
102
}
330
8E
100
AcDbXrecord
 10
0.0
 20
0.0
 30
0.0
  0
XRECORD
  5
9B
102
{ACAD_REACTORS
330
8E
102
}
330
8E
100
AcDbXrecord
340
0
  0
XRECORD
  5
9C
102
{ACAD_REACTORS
330
8E
102
}
330
8E
100
AcDbXrecord
 70
     0
  0
XRECORD
  5
92
102
{ACAD_REACTORS
330
8E
102
}
330
8E
100
AcDbXrecord
  1

  0
XRECORD
  5
8F
102
{ACAD_REACTORS
330
8E
102
}
330
8E
100
AcDbXrecord
 90
        1
  0
XRECORD
  5
90
102
{ACAD_REACTORS
330
8E
102
}
330
8E
100
AcDbXrecord
 90
       70
  0
XRECORD
  5
A6
102
{ACAD_REACTORS
330
8E
102
}
330
8E
100
AcDbXrecord
340
0
  0
XRECORD
  5
AC
102
{ACAD_REACTORS
330
8E
102
}
330
8E
100
AcDbXrecord
 10
0.0
 20
0.0
 30
0.0
  0
XRECORD
  5
A8
102
{ACAD_REACTORS
330
8E
102
}
330
8E
100
AcDbXrecord
 10
0.0
 20
0.0
 30
0.0
  0
XRECORD
  5
AB
102
{ACAD_REACTORS
330
8E
102
}
330
8E
100
AcDbXrecord
 10
0.0
 20
0.0
 30
0.0
  0
XRECORD
  5
A9
102
{ACAD_REACTORS
330
8E
102
}
330
8E
100
AcDbXrecord
 10
0.0
 20
0.0
 30
0.0
  0
XRECORD
  5
AA
102
{ACAD_REACTORS
330
8E
102
}
330
8E
100
AcDbXrecord
 10
0.0
 20
0.0
 30
0.0
  0
XRECORD
  5
A7
102
{ACAD_REACTORS
330
8E
102
}
330
8E
100
AcDbXrecord
 10
0.0
 20
0.0
 30
0.0
  0
XRECORD
  5
A4
102
{ACAD_REACTORS
330
8E
102
}
330
8E
100
AcDbXrecord
340
0
  0
XRECORD
  5
A5
102
{ACAD_REACTORS
330
8E
102
}
330
8E
100
AcDbXrecord
 70
     0
  0
XRECORD
  5
99
102
{ACAD_REACTORS
330
8E
102
}
330
8E
100
AcDbXrecord
  1
{FAEB1C32-E019-11D5-929B-00C0DF256EC4}
  0
DICTIONARYVAR
  5
B1
102
{ACAD_REACTORS
330
AE
102
}
330
AE
100
DictionaryVariables
280
     0
  1
2
  0
DICTIONARYVAR
  5
B2
102
{ACAD_REACTORS
330
AE
102
}
330
AE
100
DictionaryVariables
280
     0
  1
1
  0
DICTIONARY
  5
B5
330
3D
100
AcDbDictionary
280
     1
  3
ACAD_XREC_ROUNDTRIP
360
B6
  0
DICTIONARY
  5
B3
330
3C
100
AcDbDictionary
280
     1
  3
ACAD_XREC_ROUNDTRIP
360
B4
  0
DICTIONARY
  5
B7
330
3E
100
AcDbDictionary
280
     1
  3
ACAD_XREC_ROUNDTRIP
360
B8
  0
XRECORD
  5
B6
102
{ACAD_REACTORS
330
B5
102
}
330
B5
100
AcDbXrecord
102
MATERIAL
148
0.0
149
0.0
149
0.0
 93
        0
 94
      127
282
     0
 72
     1
 77
     1
171
     1
175
     1
179
     1
273
     0
  0
XRECORD
  5
B4
102
{ACAD_REACTORS
330
B3
102
}
330
B3
100
AcDbXrecord
102
MATERIAL
148
0.0
149
0.0
149
0.0
 93
        0
 94
      127
282
     0
 72
     1
 77
     1
171
     1
175
     1
179
     1
273
     0
  0
XRECORD
  5
B8
102
{ACAD_REACTORS
330
B7
102
}
330
B7
100
AcDbXrecord
102
MATERIAL
148
0.0
149
0.0
149
0.0
 93
        0
 94
      127
282
     0
 72
     1
 77
     1
171
     1
175
     1
179
     1
273
     0
  0
ENDSEC
  0
EOF
