  0
SECTION
  2
HEADER
  9
$ACADVER
  1
AC1014
  9
$ACADMAINTVER
 70
     9
  9
$DWGCODEPAGE
  3
ANSI_1250
  9
$INSBASE
 10
0.0
 20
0.0
 30
0.0
  9
$EXTMIN
 10
-50.289
 20
-16.136
 30
0.0
  9
$EXTMAX
 10
50.187
 20
16.1363
 30
0.0
  9
$LIMMIN
 10
0.0
 20
0.0
  9
$LIMMAX
 10
12.0
 20
9.0
  9
$ORTHOMODE
 70
     0
  9
$REGENMODE
 70
     1
  9
$FILLMODE
 70
     1
  9
$QTEXTMODE
 70
     0
  9
$MIRRTEXT
 70
     1
  9
$DRAGMODE
 70
     2
  9
$LTSCALE
 40
1.0
  9
$OSMODE
 70
    37
  9
$ATTMODE
 70
     1
  9
$TEXTSIZE
 40
0.2
  9
$TRACEWID
 40
0.05
  9
$TEXTSTYLE
  7
STANDARD
  9
$CLAYER
  8
0
  9
$CELTYPE
  6
BYLAYER
  9
$CECOLOR
 62
   256
  9
$CELTSCALE
 40
1.0
  9
$DELOBJ
 70
     1
  9
$DISPSILH
 70
     0
  9
$DIMSCALE
 40
1.0
  9
$DIMASZ
 40
0.18
  9
$DIMEXO
 40
0.0625
  9
$DIMDLI
 40
0.38
  9
$DIMRND
 40
0.0
  9
$DIMDLE
 40
0.0
  9
$DIMEXE
 40
0.18
  9
$DIMTP
 40
0.0
  9
$DIMTM
 40
0.0
  9
$DIMTXT
 40
0.18
  9
$DIMCEN
 40
0.09
  9
$DIMTSZ
 40
0.0
  9
$DIMTOL
 70
     0
  9
$DIMLIM
 70
     0
  9
$DIMTIH
 70
     1
  9
$DIMTOH
 70
     1
  9
$DIMSE1
 70
     0
  9
$DIMSE2
 70
     0
  9
$DIMTAD
 70
     0
  9
$DIMZIN
 70
     0
  9
$DIMBLK
  1

  9
$DIMASO
 70
     1
  9
$DIMSHO
 70
     1
  9
$DIMPOST
  1

  9
$DIMAPOST
  1

  9
$DIMALT
 70
     0
  9
$DIMALTD
 70
     2
  9
$DIMALTF
 40
25.4
  9
$DIMLFAC
 40
1.0
  9
$DIMTOFL
 70
     0
  9
$DIMTVP
 40
0.0
  9
$DIMTIX
 70
     0
  9
$DIMSOXD
 70
     0
  9
$DIMSAH
 70
     0
  9
$DIMBLK1
  1

  9
$DIMBLK2
  1

  9
$DIMSTYLE
  2
STANDARD
  9
$DIMCLRD
 70
     0
  9
$DIMCLRE
 70
     0
  9
$DIMCLRT
 70
     0
  9
$DIMTFAC
 40
1.0
  9
$DIMGAP
 40
0.09
  9
$DIMJUST
 70
     0
  9
$DIMSD1
 70
     0
  9
$DIMSD2
 70
     0
  9
$DIMTOLJ
 70
     1
  9
$DIMTZIN
 70
     0
  9
$DIMALTZ
 70
     0
  9
$DIMALTTZ
 70
     0
  9
$DIMFIT
 70
     3
  9
$DIMUPT
 70
     0
  9
$DIMUNIT
 70
     2
  9
$DIMDEC
 70
     4
  9
$DIMTDEC
 70
     4
  9
$DIMALTU
 70
     2
  9
$DIMALTTD
 70
     2
  9
$DIMTXSTY
  7
STANDARD
  9
$DIMAUNIT
 70
     0
  9
$LUNITS
 70
     2
  9
$LUPREC
 70
     4
  9
$SKETCHINC
 40
0.1
  9
$FILLETRAD
 40
0.5
  9
$AUNITS
 70
     0
  9
$AUPREC
 70
     0
  9
$MENU
  1
.
  9
$ELEVATION
 40
0.0
  9
$PELEVATION
 40
0.0
  9
$THICKNESS
 40
0.0
  9
$LIMCHECK
 70
     0
  9
$CHAMFERA
 40
0.5
  9
$CHAMFERB
 40
0.5
  9
$CHAMFERC
 40
1.0
  9
$CHAMFERD
 40
0.0
  9
$SKPOLY
 70
     0
  9
$TDCREATE
 40
2456272.361709942
  9
$TDUPDATE
 40
2456272.361709954
  9
$TDINDWG
 40
0.0000000116
  9
$TDUSRTIMER
 40
0.0000000116
  9
$USRTIMER
 70
     1
  9
$ANGBASE
 50
0.0
  9
$ANGDIR
 70
     0
  9
$PDMODE
 70
     0
  9
$PDSIZE
 40
0.0
  9
$PLINEWID
 40
0.0
  9
$COORDS
 70
     1
  9
$SPLFRAME
 70
     0
  9
$SPLINETYPE
 70
     6
  9
$SPLINESEGS
 70
     8
  9
$ATTDIA
 70
     0
  9
$ATTREQ
 70
     1
  9
$HANDLING
 70
     1
  9
$HANDSEED
  5
B9
  9
$SURFTAB1
 70
     6
  9
$SURFTAB2
 70
     6
  9
$SURFTYPE
 70
     6
  9
$SURFU
 70
     6
  9
$SURFV
 70
     6
  9
$UCSNAME
  2

  9
$UCSORG
 10
0.0
 20
0.0
 30
0.0
  9
$UCSXDIR
 10
1.0
 20
0.0
 30
0.0
  9
$UCSYDIR
 10
0.0
 20
1.0
 30
0.0
  9
$PUCSNAME
  2

  9
$PUCSORG
 10
0.0
 20
0.0
 30
0.0
  9
$PUCSXDIR
 10
1.0
 20
0.0
 30
0.0
  9
$PUCSYDIR
 10
0.0
 20
1.0
 30
0.0
  9
$USERI1
 70
     0
  9
$USERI2
 70
     0
  9
$USERI3
 70
     0
  9
$USERI4
 70
     0
  9
$USERI5
 70
     0
  9
$USERR1
 40
0.0
  9
$USERR2
 40
0.0
  9
$USERR3
 40
0.0
  9
$USERR4
 40
0.0
  9
$USERR5
 40
0.0
  9
$WORLDVIEW
 70
     1
  9
$SHADEDGE
 70
     3
  9
$SHADEDIF
 70
    70
  9
$TILEMODE
 70
     1
  9
$MAXACTVP
 70
    64
  9
$PINSBASE
 10
0.0
 20
0.0
 30
0.0
  9
$PLIMCHECK
 70
     0
  9
$PEXTMIN
 10
1.000000000000000E+20
 20
1.000000000000000E+20
 30
1.000000000000000E+20
  9
$PEXTMAX
 10
-1.000000000000000E+20
 20
-1.000000000000000E+20
 30
-1.000000000000000E+20
  9
$PLIMMIN
 10
0.0
 20
0.0
  9
$PLIMMAX
 10
12.0
 20
9.0
  9
$UNITMODE
 70
     0
  9
$VISRETAIN
 70
     1
  9
$PLINEGEN
 70
     0
  9
$PSLTSCALE
 70
     1
  9
$TREEDEPTH
 70
  3020
  9
$PICKSTYLE
 70
     1
  9
$CMLSTYLE
  2
STANDARD
  9
$CMLJUST
 70
     0
  9
$CMLSCALE
 40
1.0
  9
$PROXYGRAPHICS
 70
     1
  9
$MEASUREMENT
 70
     0
  0
ENDSEC
  0
SECTION
  2
CLASSES
  0
CLASS
  1
ACDBDICTIONARYWDFLT
  2
AcDbDictionaryWithDefault
  3
ObjectDBX Classes
 90
        0
280
     0
281
     0
  0
CLASS
  1
VISUALSTYLE
  2
AcDbVisualStyle
  3
ObjectDBX Classes
 90
     4095
280
     0
281
     0
  0
CLASS
  1
MATERIAL
  2
AcDbMaterial
  3
ObjectDBX Classes
 90
     1153
280
     0
281
     0
  0
CLASS
  1
DICTIONARYVAR
  2
AcDbDictionaryVar
  3
ObjectDBX Classes
 90
        0
280
     0
281
     0
  0
CLASS
  1
XRECORD
  2
AcDbXrecord
  3
AutoCAD 2000
 90
        0
280
     0
281
     0
  0
CLASS
  1
LWPOLYLINE
  2
AcDbPolyline
  3
AutoCAD 2000
 90
        0
280
     0
281
     1
  0
CLASS
  1
HATCH
  2
AcDbHatch
  3
AutoCAD 2000
 90
        0
280
     0
281
     1
  0
CLASS
  1
ACDBPLACEHOLDER
  2
AcDbPlaceHolder
  3
ObjectDBX Classes
 90
        0
280
     0
281
     0
  0
CLASS
  1
LAYOUT
  2
AcDbLayout
  3
ObjectDBX Classes
 90
        0
280
     0
281
     0
  0
ENDSEC
  0
SECTION
  2
TABLES
  0
TABLE
  2
VPORT
  5
8
330
0
100
AcDbSymbolTable
 70
     1
  0
VPORT
  5
29
330
8
100
AcDbSymbolTableRecord
100
AcDbViewportTableRecord
  2
*ACTIVE
 70
     0
 10
0.0
 20
0.0
 11
1.0
 21
1.0
 12
10.42990654205607
 22
4.5
 13
0.0
 23
0.0
 14
0.5
 24
0.5
 15
0.5
 25
0.5
 16
0.0
 26
0.0
 36
1.0
 17
0.0
 27
0.0
 37
0.0
 40
9.0
 41
1.972972972850329
 42
50.0
 43
0.0
 44
0.0
 50
0.0
 51
0.0
 71
     0
 72
   100
 73
     1
 74
     3
 75
     0
 76
     0
 77
     0
 78
     0
  0
ENDTAB
  0
TABLE
  2
LTYPE
  5
5
330
0
100
AcDbSymbolTable
 70
     2
  0
LTYPE
  5
14
330
5
100
AcDbSymbolTableRecord
100
AcDbLinetypeTableRecord
  2
BYBLOCK
 70
     0
  3

 72
    65
 73
     0
 40
0.0
  0
LTYPE
  5
15
330
5
100
AcDbSymbolTableRecord
100
AcDbLinetypeTableRecord
  2
BYLAYER
 70
     0
  3

 72
    65
 73
     0
 40
0.0
  0
LTYPE
  5
16
330
5
100
AcDbSymbolTableRecord
100
AcDbLinetypeTableRecord
  2
CONTINUOUS
 70
     0
  3
Solid line
 72
    65
 73
     0
 40
0.0
  0
LTYPE
  5
64
330
5
100
AcDbSymbolTableRecord
100
AcDbLinetypeTableRecord
  2
NEW_LINE1
 70
     0
  3

 72
    65
 73
     4
 40
1.2
 49
0.5
 74
     4
 75
     0
340
0
 46
1.0
 50
0.0
 44
0.0
 45
0.0
 49
-0.3
 74
     4
 75
     0
340
0
 46
1.0
 50
0.0
 44
0.0
 45
0.0
 49
0.1
 74
     4
 75
     0
340
0
 46
1.0
 50
0.0
 44
0.0
 45
0.0
 49
-0.3
 74
     4
 75
     0
340
0
 46
1.0
 50
0.0
 44
0.0
 45
0.0
  0
ENDTAB
  0
TABLE
  2
LAYER
  5
2
330
0
100
AcDbSymbolTable
 70
     2
  0
LAYER
  5
10
330
2
100
AcDbSymbolTableRecord
100
AcDbLayerTableRecord
  2
0
 70
     0
 62
     7
  6
CONTINUOUS
  0
LAYER
  5
40
330
2
100
AcDbSymbolTableRecord
100
AcDbLayerTableRecord
  2
VRSTVA_1
 70
     0
 62
     7
  6
CONTINUOUS
  0
ENDTAB
  0
TABLE
  2
STYLE
  5
3
330
0
100
AcDbSymbolTable
 70
     1
  0
STYLE
  5
11
330
3
100
AcDbSymbolTableRecord
100
AcDbTextStyleTableRecord
  2
STANDARD
 70
     0
 40
0.0
 41
1.0
 50
0.0
 71
     0
 42
0.2
  3
txt
  4

  0
ENDTAB
  0
TABLE
  2
VIEW
  5
6
330
0
100
AcDbSymbolTable
 70
     0
  0
ENDTAB
  0
TABLE
  2
UCS
  5
7
330
0
100
AcDbSymbolTable
 70
     0
  0
ENDTAB
  0
TABLE
  2
APPID
  5
9
330
0
100
AcDbSymbolTable
 70
     2
  0
APPID
  5
12
330
9
100
AcDbSymbolTableRecord
100
AcDbRegAppTableRecord
  2
ACAD
 70
     0
  0
APPID
  5
3F
330
9
100
AcDbSymbolTableRecord
100
AcDbRegAppTableRecord
  2
ODA
 70
     0
  0
ENDTAB
  0
TABLE
  2
DIMSTYLE
  5
A
330
0
100
AcDbSymbolTable
 70
     1
  0
DIMSTYLE
105
27
330
A
100
AcDbSymbolTableRecord
100
AcDbDimStyleTableRecord
  2
STANDARD
 70
     0
  3

  4

  5

  6

  7

 40
1.0
 41
0.18
 42
0.0625
 43
0.38
 44
0.18
 45
0.0
 46
0.0
 47
0.0
 48
0.0
140
0.18
141
0.09
142
0.0
143
25.4
144
1.0
145
0.0
146
1.0
147
0.09
 71
     0
 72
     0
 73
     1
 74
     1
 75
     0
 76
     0
 77
     0
 78
     0
170
     0
171
     2
172
     0
173
     0
174
     0
175
     0
176
     0
177
     0
178
     0
270
     2
271
     4
272
     4
273
     2
274
     2
340
11
275
     0
280
     0
281
     0
282
     0
283
     1
284
     0
285
     0
286
     0
287
     3
288
     0
  0
ENDTAB
  0
TABLE
  2
BLOCK_RECORD
  5
1
330
0
100
AcDbSymbolTable
 70
     1
  0
BLOCK_RECORD
  5
1F
330
1
100
AcDbSymbolTableRecord
100
AcDbBlockTableRecord
  2
*MODEL_SPACE
  0
BLOCK_RECORD
  5
1B
330
1
100
AcDbSymbolTableRecord
100
AcDbBlockTableRecord
  2
*PAPER_SPACE
  0
ENDTAB
  0
ENDSEC
  0
SECTION
  2
BLOCKS
  0
BLOCK
  5
20
330
1F
100
AcDbEntity
  8
0
100
AcDbBlockBegin
  2
*MODEL_SPACE
 70
     0
 10
0.0
 20
0.0
 30
0.0
  3
*MODEL_SPACE
  1

  0
ENDBLK
  5
21
330
1F
100
AcDbEntity
  8
0
100
AcDbBlockEnd
  0
BLOCK
  5
1C
330
1B
100
AcDbEntity
 67
     1
  8
0
100
AcDbBlockBegin
  2
*PAPER_SPACE
 70
     0
 10
0.0
 20
0.0
 30
0.0
  3
*PAPER_SPACE
  1

  0
ENDBLK
  5
1D
330
1B
100
AcDbEntity
 67
     1
  8
0
100
AcDbBlockEnd
  0
ENDSEC
  0
SECTION
  2
ENTITIES
  0
SPLINE
  5
41
330
1F
100
AcDbEntity
  8
VRSTVA_1
 62
   250
100
AcDbSpline
210
0.0
220
0.0
230
1.0
 70
    27
 71
     3
 72
    12
 73
     8
 74
     0
 42
0.0000000001
 43
0.0000000001
 40
0.0
 40
0.0
 40
0.0
 40
0.0
 40
0.3333333333333333
 40
0.3333333333333333
 40
0.3333333333333333
 40
0.3333333333333333
 40
1.0
 40
1.0
 40
1.0
 40
1.0
 10
48.2106
 20
-15.5399
 30
0.0
 10
48.2106
 20
-15.5399
 30
0.0
 10
-43.166
 20
-15.5399
 30
0.0
 10
-43.166
 20
-15.5399
 30
0.0
 10
-43.166
 20
-15.5399
 30
0.0
 10
-43.166
 20
-15.5399
 30
0.0
 10
48.2106
 20
-15.5399
 30
0.0
 10
48.2106
 20
-15.5399
 30
0.0
  0
SPLINE
  5
42
330
1F
100
AcDbEntity
  8
VRSTVA_1
 62
   250
100
AcDbSpline
210
0.0
220
0.0
230
1.0
 70
    11
 71
     3
 72
    48
 73
    44
 74
     0
 42
0.0000000001
 43
0.0000000001
 40
0.0
 40
0.0
 40
0.0
 40
0.0
 40
0.0833333333333333
 40
0.0833333333333333
 40
0.0833333333333333
 40
0.0833333333333333
 40
0.1666666666666667
 40
0.1666666666666667
 40
0.1666666666666667
 40
0.1666666666666667
 40
0.25
 40
0.25
 40
0.25
 40
0.25
 40
0.3333333333333333
 40
0.3333333333333333
 40
0.3333333333333333
 40
0.3333333333333333
 40
0.4166666666666667
 40
0.4166666666666667
 40
0.4166666666666667
 40
0.4166666666666667
 40
0.5
 40
0.5
 40
0.5
 40
0.5
 40
0.5833333333333334
 40
0.5833333333333334
 40
0.5833333333333334
 40
0.5833333333333334
 40
0.6666666666666666
 40
0.6666666666666666
 40
0.6666666666666666
 40
0.6666666666666666
 40
0.75
 40
0.75
 40
0.75
 40
0.75
 40
0.8333333333333334
 40
0.8333333333333334
 40
0.8333333333333334
 40
0.8333333333333334
 40
1.0
 40
1.0
 40
1.0
 40
1.0
 10
-4.481
 20
-14.8325
 30
0.0
 10
-4.481
 20
-14.8325
 30
0.0
 10
-4.481
 20
-14.349
 30
0.0
 10
-4.481
 20
-14.349
 30
0.0
 10
-4.481
 20
-14.349
 30
0.0
 10
-4.481
 20
-14.349
 30
0.0
 10
-5.3573
 20
-14.349
 30
0.0
 10
-5.3573
 20
-14.349
 30
0.0
 10
-5.3573
 20
-14.349
 30
0.0
 10
-5.3573
 20
-14.349
 30
0.0
 10
-5.3573
 20
-14.1213
 30
0.0
 10
-5.3573
 20
-14.1213
 30
0.0
 10
-5.3573
 20
-14.1213
 30
0.0
 10
-5.3573
 20
-14.1213
 30
0.0
 10
-4.4353
 20
-12.8123
 30
0.0
 10
-4.4353
 20
-12.8123
 30
0.0
 10
-4.4353
 20
-12.8123
 30
0.0
 10
-4.4353
 20
-12.8123
 30
0.0
 10
-4.2326
 20
-12.8123
 30
0.0
 10
-4.2326
 20
-12.8123
 30
0.0
 10
-4.2326
 20
-12.8123
 30
0.0
 10
-4.2326
 20
-12.8123
 30
0.0
 10
-4.2326
 20
-14.1213
 30
0.0
 10
-4.2326
 20
-14.1213
 30
0.0
 10
-4.2326
 20
-14.1213
 30
0.0
 10
-4.2326
 20
-14.1213
 30
0.0
 10
-3.9598
 20
-14.1213
 30
0.0
 10
-3.9598
 20
-14.1213
 30
0.0
 10
-3.9598
 20
-14.1213
 30
0.0
 10
-3.9598
 20
-14.1213
 30
0.0
 10
-3.9598
 20
-14.349
 30
0.0
 10
-3.9598
 20
-14.349
 30
0.0
 10
-3.9598
 20
-14.349
 30
0.0
 10
-3.9598
 20
-14.349
 30
0.0
 10
-4.2326
 20
-14.349
 30
0.0
 10
-4.2326
 20
-14.349
 30
0.0
 10
-4.2326
 20
-14.349
 30
0.0
 10
-4.2326
 20
-14.349
 30
0.0
 10
-4.2326
 20
-14.8325
 30
0.0
 10
-4.2326
 20
-14.8325
 30
0.0
 10
-4.2326
 20
-14.8325
 30
0.0
 10
-4.2326
 20
-14.8325
 30
0.0
 10
-4.481
 20
-14.8325
 30
0.0
 10
-4.481
 20
-14.8325
 30
0.0
  0
SPLINE
  5
43
330
1F
100
AcDbEntity
  8
VRSTVA_1
 62
   250
100
AcDbSpline
210
0.0
220
0.0
230
1.0
 70
    11
 71
     3
 72
    16
 73
    12
 74
     0
 42
0.0000000001
 43
0.0000000001
 40
0.0
 40
0.0
 40
0.0
 40
0.0
 40
0.25
 40
0.25
 40
0.25
 40
0.25
 40
0.5
 40
0.5
 40
0.5
 40
0.5
 40
1.0
 40
1.0
 40
1.0
 40
1.0
 10
-4.481
 20
-14.1213
 30
0.0
 10
-4.481
 20
-14.1213
 30
0.0
 10
-4.481
 20
-13.2107
 30
0.0
 10
-4.481
 20
-13.2107
 30
0.0
 10
-4.481
 20
-13.2107
 30
0.0
 10
-4.481
 20
-13.2107
 30
0.0
 10
-5.1131
 20
-14.1213
 30
0.0
 10
-5.1131
 20
-14.1213
 30
0.0
 10
-5.1131
 20
-14.1213
 30
0.0
 10
-5.1131
 20
-14.1213
 30
0.0
 10
-4.481
 20
-14.1213
 30
0.0
 10
-4.481
 20
-14.1213
 30
0.0
  0
SPLINE
  5
44
330
1F
100
AcDbEntity
  8
VRSTVA_1
 62
   250
100
AcDbSpline
210
0.0
220
0.0
230
1.0
 70
    11
 71
     3
 72
    52
 73
    48
 74
     0
 42
0.0000000001
 43
0.0000000001
 40
0.0
 40
0.0
 40
0.0
 40
0.0
 40
0.0769230769230769
 40
0.0769230769230769
 40
0.0769230769230769
 40
0.0769230769230769
 40
0.1538461538461539
 40
0.1538461538461539
 40
0.1538461538461539
 40
0.1538461538461539
 40
0.2307692307692308
 40
0.2307692307692308
 40
0.2307692307692308
 40
0.2307692307692308
 40
0.3076923076923077
 40
0.3076923076923077
 40
0.3076923076923077
 40
0.3076923076923077
 40
0.3846153846153846
 40
0.3846153846153846
 40
0.3846153846153846
 40
0.3846153846153846
 40
0.4615384615384616
 40
0.4615384615384616
 40
0.4615384615384616
 40
0.4615384615384616
 40
0.5384615384615384
 40
0.5384615384615384
 40
0.5384615384615384
 40
0.5384615384615384
 40
0.6153846153846154
 40
0.6153846153846154
 40
0.6153846153846154
 40
0.6153846153846154
 40
0.6923076923076923
 40
0.6923076923076923
 40
0.6923076923076923
 40
0.6923076923076923
 40
0.7692307692307693
 40
0.7692307692307693
 40
0.7692307692307693
 40
0.7692307692307693
 40
0.8461538461538461
 40
0.8461538461538461
 40
0.8461538461538461
 40
0.8461538461538461
 40
1.0
 40
1.0
 40
1.0
 40
1.0
 10
-3.7063
 20
-13.8363
 30
0.0
 10
-3.7063
 20
-13.5973
 30
0.0
 10
-3.6818
 20
-13.4049
 30
0.0
 10
-3.6324
 20
-13.2596
 30
0.0
 10
-3.6324
 20
-13.2596
 30
0.0
 10
-3.5835
 20
-13.1138
 30
0.0
 10
-3.5101
 20
-13.0014
 30
0.0
 10
-3.4132
 20
-12.9223
 30
0.0
 10
-3.4132
 20
-12.9223
 30
0.0
 10
-3.3163
 20
-12.8433
 30
0.0
 10
-3.1945
 20
-12.8038
 30
0.0
 10
-3.0478
 20
-12.8038
 30
0.0
 10
-3.0478
 20
-12.8038
 30
0.0
 10
-2.9391
 20
-12.8038
 30
0.0
 10
-2.8441
 20
-12.8259
 30
0.0
 10
-2.7623
 20
-12.8697
 30
0.0
 10
-2.7623
 20
-12.8697
 30
0.0
 10
-2.6804
 20
-12.9129
 30
0.0
 10
-2.6131
 20
-12.976
 30
0.0
 10
-2.5595
 20
-13.0583
 30
0.0
 10
-2.5595
 20
-13.0583
 30
0.0
 10
-2.5064
 20
-13.1406
 30
0.0
 10
-2.4645
 20
-13.2408
 30
0.0
 10
-2.4344
 20
-13.3588
 30
0.0
 10
-2.4344
 20
-13.3588
 30
0.0
 10
-2.4038
 20
-13.4769
 30
0.0
 10
-2.3888
 20
-13.6359
 30
0.0
 10
-2.3888
 20
-13.8363
 30
0.0
 10
-2.3888
 20
-13.8363
 30
0.0
 10
-2.3888
 20
-14.0733
 30
0.0
 10
-2.4132
 20
-14.2643
 30
0.0
 10
-2.4617
 20
-14.4101
 30
0.0
 10
-2.4617
 20
-14.4101
 30
0.0
 10
-2.5106
 20
-14.5559
 30
0.0
 10
-2.5835
 20
-14.6683
 30
0.0
 10
-2.6804
 20
-14.7478
 30
0.0
 10
-2.6804
 20
-14.7478
 30
0.0
 10
-2.7773
 20
-14.8273
 30
0.0
 10
-2.8996
 20
-14.8668
 30
0.0
 10
-3.0478
 20
-14.8668
 30
0.0
 10
-3.0478
 20
-14.8668
 30
0.0
 10
-3.2425
 20
-14.8668
 30
0.0
 10
-3.3954
 20
-14.7972
 30
0.0
 10
-3.5064
 20
-14.6575
 30
0.0
 10
-3.5064
 20
-14.6575
 30
0.0
 10
-3.6395
 20
-14.4896
 30
0.0
 10
-3.7063
 20
-14.2154
 30
0.0
 10
-3.7063
 20
-13.8363
 30
0.0
  0
SPLINE
  5
45
330
1F
100
AcDbEntity
  8
VRSTVA_1
 62
   250
100
AcDbSpline
210
0.0
220
0.0
230
1.0
 70
    11
 71
     3
 72
    36
 73
    32
 74
     0
 42
0.0000000001
 43
0.0000000001
 40
0.0
 40
0.0
 40
0.0
 40
0.0
 40
0.1111111111111111
 40
0.1111111111111111
 40
0.1111111111111111
 40
0.1111111111111111
 40
0.2222222222222222
 40
0.2222222222222222
 40
0.2222222222222222
 40
0.2222222222222222
 40
0.3333333333333333
 40
0.3333333333333333
 40
0.3333333333333333
 40
0.3333333333333333
 40
0.4444444444444444
 40
0.4444444444444444
 40
0.4444444444444444
 40
0.4444444444444444
 40
0.5555555555555556
 40
0.5555555555555556
 40
0.5555555555555556
 40
0.5555555555555556
 40
0.6666666666666666
 40
0.6666666666666666
 40
0.6666666666666666
 40
0.6666666666666666
 40
0.7777777777777778
 40
0.7777777777777778
 40
0.7777777777777778
 40
0.7777777777777778
 40
1.0
 40
1.0
 40
1.0
 40
1.0
 10
-3.4513
 20
-13.8363
 30
0.0
 10
-3.4513
 20
-14.1679
 30
0.0
 10
-3.4123
 20
-14.3885
 30
0.0
 10
-3.3347
 20
-14.4985
 30
0.0
 10
-3.3347
 20
-14.4985
 30
0.0
 10
-3.2571
 20
-14.6081
 30
0.0
 10
-3.1616
 20
-14.6632
 30
0.0
 10
-3.0478
 20
-14.6632
 30
0.0
 10
-3.0478
 20
-14.6632
 30
0.0
 10
-2.9335
 20
-14.6632
 30
0.0
 10
-2.838
 20
-14.6077
 30
0.0
 10
-2.7604
 20
-14.4976
 30
0.0
 10
-2.7604
 20
-14.4976
 30
0.0
 10
-2.6828
 20
-14.3875
 30
0.0
 10
-2.6437
 20
-14.1669
 30
0.0
 10
-2.6437
 20
-13.8363
 30
0.0
 10
-2.6437
 20
-13.8363
 30
0.0
 10
-2.6437
 20
-13.5037
 30
0.0
 10
-2.6828
 20
-13.2826
 30
0.0
 10
-2.7604
 20
-13.1735
 30
0.0
 10
-2.7604
 20
-13.1735
 30
0.0
 10
-2.838
 20
-13.0639
 30
0.0
 10
-2.9344
 20
-13.0094
 30
0.0
 10
-3.0501
 20
-13.0094
 30
0.0
 10
-3.0501
 20
-13.0094
 30
0.0
 10
-3.1644
 20
-13.0094
 30
0.0
 10
-3.2552
 20
-13.0578
 30
0.0
 10
-3.3234
 20
-13.1542
 30
0.0
 10
-3.3234
 20
-13.1542
 30
0.0
 10
-3.4085
 20
-13.277
 30
0.0
 10
-3.4513
 20
-13.5047
 30
0.0
 10
-3.4513
 20
-13.8363
 30
0.0
  0
SPLINE
  5
46
330
1F
100
AcDbEntity
  8
VRSTVA_1
 62
   250
100
AcDbSpline
210
0.0
220
0.0
230
1.0
 70
    11
 71
     3
 72
    52
 73
    48
 74
     0
 42
0.0000000001
 43
0.0000000001
 40
0.0
 40
0.0
 40
0.0
 40
0.0
 40
0.0769230769230769
 40
0.0769230769230769
 40
0.0769230769230769
 40
0.0769230769230769
 40
0.1538461538461539
 40
0.1538461538461539
 40
0.1538461538461539
 40
0.1538461538461539
 40
0.2307692307692308
 40
0.2307692307692308
 40
0.2307692307692308
 40
0.2307692307692308
 40
0.3076923076923077
 40
0.3076923076923077
 40
0.3076923076923077
 40
0.3076923076923077
 40
0.3846153846153846
 40
0.3846153846153846
 40
0.3846153846153846
 40
0.3846153846153846
 40
0.4615384615384616
 40
0.4615384615384616
 40
0.4615384615384616
 40
0.4615384615384616
 40
0.5384615384615384
 40
0.5384615384615384
 40
0.5384615384615384
 40
0.5384615384615384
 40
0.6153846153846154
 40
0.6153846153846154
 40
0.6153846153846154
 40
0.6153846153846154
 40
0.6923076923076923
 40
0.6923076923076923
 40
0.6923076923076923
 40
0.6923076923076923
 40
0.7692307692307693
 40
0.7692307692307693
 40
0.7692307692307693
 40
0.7692307692307693
 40
0.8461538461538461
 40
0.8461538461538461
 40
0.8461538461538461
 40
0.8461538461538461
 40
1.0
 40
1.0
 40
1.0
 40
1.0
 10
-2.1367
 20
-13.8363
 30
0.0
 10
-2.1367
 20
-13.5973
 30
0.0
 10
-2.1122
 20
-13.4049
 30
0.0
 10
-2.0628
 20
-13.2596
 30
0.0
 10
-2.0628
 20
-13.2596
 30
0.0
 10
-2.0139
 20
-13.1138
 30
0.0
 10
-1.9405
 20
-13.0014
 30
0.0
 10
-1.8436
 20
-12.9223
 30
0.0
 10
-1.8436
 20
-12.9223
 30
0.0
 10
-1.7467
 20
-12.8433
 30
0.0
 10
-1.6249
 20
-12.8038
 30
0.0
 10
-1.4782
 20
-12.8038
 30
0.0
 10
-1.4782
 20
-12.8038
 30
0.0
 10
-1.3695
 20
-12.8038
 30
0.0
 10
-1.2745
 20
-12.8259
 30
0.0
 10
-1.1927
 20
-12.8697
 30
0.0
 10
-1.1927
 20
-12.8697
 30
0.0
 10
-1.1108
 20
-12.9129
 30
0.0
 10
-1.0435
 20
-12.976
 30
0.0
 10
-0.9899
 20
-13.0583
 30
0.0
 10
-0.9899
 20
-13.0583
 30
0.0
 10
-0.9368
 20
-13.1406
 30
0.0
 10
-0.8949
 20
-13.2408
 30
0.0
 10
-0.8648
 20
-13.3588
 30
0.0
 10
-0.8648
 20
-13.3588
 30
0.0
 10
-0.8342
 20
-13.4769
 30
0.0
 10
-0.8192
 20
-13.6359
 30
0.0
 10
-0.8192
 20
-13.8363
 30
0.0
 10
-0.8192
 20
-13.8363
 30
0.0
 10
-0.8192
 20
-14.0733
 30
0.0
 10
-0.8436
 20
-14.2643
 30
0.0
 10
-0.8921
 20
-14.4101
 30
0.0
 10
-0.8921
 20
-14.4101
 30
0.0
 10
-0.941
 20
-14.5559
 30
0.0
 10
-1.0139
 20
-14.6683
 30
0.0
 10
-1.1108
 20
-14.7478
 30
0.0
 10
-1.1108
 20
-14.7478
 30
0.0
 10
-1.2077
 20
-14.8273
 30
0.0
 10
-1.33
 20
-14.8668
 30
0.0
 10
-1.4782
 20
-14.8668
 30
0.0
 10
-1.4782
 20
-14.8668
 30
0.0
 10
-1.6729
 20
-14.8668
 30
0.0
 10
-1.8258
 20
-14.7972
 30
0.0
 10
-1.9368
 20
-14.6575
 30
0.0
 10
-1.9368
 20
-14.6575
 30
0.0
 10
-2.0699
 20
-14.4896
 30
0.0
 10
-2.1367
 20
-14.2154
 30
0.0
 10
-2.1367
 20
-13.8363
 30
0.0
  0
SPLINE
  5
47
330
1F
100
AcDbEntity
  8
VRSTVA_1
 62
   250
100
AcDbSpline
210
0.0
220
0.0
230
1.0
 70
    11
 71
     3
 72
    36
 73
    32
 74
     0
 42
0.0000000001
 43
0.0000000001
 40
0.0
 40
0.0
 40
0.0
 40
0.0
 40
0.1111111111111111
 40
0.1111111111111111
 40
0.1111111111111111
 40
0.1111111111111111
 40
0.2222222222222222
 40
0.2222222222222222
 40
0.2222222222222222
 40
0.2222222222222222
 40
0.3333333333333333
 40
0.3333333333333333
 40
0.3333333333333333
 40
0.3333333333333333
 40
0.4444444444444444
 40
0.4444444444444444
 40
0.4444444444444444
 40
0.4444444444444444
 40
0.5555555555555556
 40
0.5555555555555556
 40
0.5555555555555556
 40
0.5555555555555556
 40
0.6666666666666666
 40
0.6666666666666666
 40
0.6666666666666666
 40
0.6666666666666666
 40
0.7777777777777778
 40
0.7777777777777778
 40
0.7777777777777778
 40
0.7777777777777778
 40
1.0
 40
1.0
 40
1.0
 40
1.0
 10
-1.8817
 20
-13.8363
 30
0.0
 10
-1.8817
 20
-14.1679
 30
0.0
 10
-1.8427
 20
-14.3885
 30
0.0
 10
-1.7651
 20
-14.4985
 30
0.0
 10
-1.7651
 20
-14.4985
 30
0.0
 10
-1.6875
 20
-14.6081
 30
0.0
 10
-1.592
 20
-14.6632
 30
0.0
 10
-1.4782
 20
-14.6632
 30
0.0
 10
-1.4782
 20
-14.6632
 30
0.0
 10
-1.3639
 20
-14.6632
 30
0.0
 10
-1.2684
 20
-14.6077
 30
0.0
 10
-1.1908
 20
-14.4976
 30
0.0
 10
-1.1908
 20
-14.4976
 30
0.0
 10
-1.1132
 20
-14.3875
 30
0.0
 10
-1.0741
 20
-14.1669
 30
0.0
 10
-1.0741
 20
-13.8363
 30
0.0
 10
-1.0741
 20
-13.8363
 30
0.0
 10
-1.0741
 20
-13.5037
 30
0.0
 10
-1.1132
 20
-13.2826
 30
0.0
 10
-1.1908
 20
-13.1735
 30
0.0
 10
-1.1908
 20
-13.1735
 30
0.0
 10
-1.2684
 20
-13.0639
 30
0.0
 10
-1.3648
 20
-13.0094
 30
0.0
 10
-1.4805
 20
-13.0094
 30
0.0
 10
-1.4805
 20
-13.0094
 30
0.0
 10
-1.5948
 20
-13.0094
 30
0.0
 10
-1.6856
 20
-13.0578
 30
0.0
 10
-1.7538
 20
-13.1542
 30
0.0
 10
-1.7538
 20
-13.1542
 30
0.0
 10
-1.8389
 20
-13.277
 30
0.0
 10
-1.8817
 20
-13.5047
 30
0.0
 10
-1.8817
 20
-13.8363
 30
0.0
  0
SPLINE
  5
48
330
1F
100
AcDbEntity
  8
VRSTVA_1
 62
   250
100
AcDbSpline
210
0.0
220
0.0
230
1.0
 70
    11
 71
     3
 72
    20
 73
    16
 74
     0
 42
0.0000000001
 43
0.0000000001
 40
0.0
 40
0.0
 40
0.0
 40
0.0
 40
0.2
 40
0.2
 40
0.2
 40
0.2
 40
0.4
 40
0.4
 40
0.4
 40
0.4
 40
0.6
 40
0.6
 40
0.6
 40
0.6
 40
1.0
 40
1.0
 40
1.0
 40
1.0
 10
0.1893
 20
-14.2262
 30
0.0
 10
0.1893
 20
-14.2262
 30
0.0
 10
0.1893
 20
-13.9769
 30
0.0
 10
0.1893
 20
-13.9769
 30
0.0
 10
0.1893
 20
-13.9769
 30
0.0
 10
0.1893
 20
-13.9769
 30
0.0
 10
0.9517
 20
-13.9769
 30
0.0
 10
0.9517
 20
-13.9769
 30
0.0
 10
0.9517
 20
-13.9769
 30
0.0
 10
0.9517
 20
-13.9769
 30
0.0
 10
0.9517
 20
-14.2262
 30
0.0
 10
0.9517
 20
-14.2262
 30
0.0
 10
0.9517
 20
-14.2262
 30
0.0
 10
0.9517
 20
-14.2262
 30
0.0
 10
0.1893
 20
-14.2262
 30
0.0
 10
0.1893
 20
-14.2262
 30
0.0
  0
SPLINE
  5
49
330
1F
100
AcDbEntity
  8
VRSTVA_1
 62
   250
100
AcDbSpline
210
0.0
220
0.0
230
1.0
 70
    11
 71
     3
 72
    68
 73
    64
 74
     0
 42
0.0000000001
 43
0.0000000001
 40
0.0
 40
0.0
 40
0.0
 40
0.0
 40
0.0588235294117647
 40
0.0588235294117647
 40
0.0588235294117647
 40
0.0588235294117647
 40
0.1176470588235294
 40
0.1176470588235294
 40
0.1176470588235294
 40
0.1176470588235294
 40
0.1764705882352941
 40
0.1764705882352941
 40
0.1764705882352941
 40
0.1764705882352941
 40
0.2352941176470588
 40
0.2352941176470588
 40
0.2352941176470588
 40
0.2352941176470588
 40
0.2941176470588235
 40
0.2941176470588235
 40
0.2941176470588235
 40
0.2941176470588235
 40
0.3529411764705883
 40
0.3529411764705883
 40
0.3529411764705883
 40
0.3529411764705883
 40
0.4117647058823529
 40
0.4117647058823529
 40
0.4117647058823529
 40
0.4117647058823529
 40
0.4705882352941176
 40
0.4705882352941176
 40
0.4705882352941176
 40
0.4705882352941176
 40
0.5294117647058824
 40
0.5294117647058824
 40
0.5294117647058824
 40
0.5294117647058824
 40
0.5882352941176471
 40
0.5882352941176471
 40
0.5882352941176471
 40
0.5882352941176471
 40
0.6470588235294118
 40
0.6470588235294118
 40
0.6470588235294118
 40
0.6470588235294118
 40
0.7058823529411765
 40
0.7058823529411765
 40
0.7058823529411765
 40
0.7058823529411765
 40
0.7647058823529411
 40
0.7647058823529411
 40
0.7647058823529411
 40
0.7647058823529411
 40
0.8235294117647058
 40
0.8235294117647058
 40
0.8235294117647058
 40
0.8235294117647058
 40
0.8823529411764706
 40
0.8823529411764706
 40
0.8823529411764706
 40
0.8823529411764706
 40
1.0
 40
1.0
 40
1.0
 40
1.0
 10
2.3229
 20
-13.737
 30
0.0
 10
2.2198
 20
-13.6994
 30
0.0
 10
2.1436
 20
-13.6458
 30
0.0
 10
2.0938
 20
-13.5757
 30
0.0
 10
2.0938
 20
-13.5757
 30
0.0
 10
2.0444
 20
-13.5061
 30
0.0
 10
2.0195
 20
-13.4223
 30
0.0
 10
2.0195
 20
-13.325
 30
0.0
 10
2.0195
 20
-13.325
 30
0.0
 10
2.0195
 20
-13.1778
 30
0.0
 10
2.0722
 20
-13.0545
 30
0.0
 10
2.178
 20
-12.9543
 30
0.0
 10
2.178
 20
-12.9543
 30
0.0
 10
2.2838
 20
-12.8541
 30
0.0
 10
2.424
 20
-12.8038
 30
0.0
 10
2.5994
 20
-12.8038
 30
0.0
 10
2.5994
 20
-12.8038
 30
0.0
 10
2.7758
 20
-12.8038
 30
0.0
 10
2.9179
 20
-12.8551
 30
0.0
 10
3.0256
 20
-12.9576
 30
0.0
 10
3.0256
 20
-12.9576
 30
0.0
 10
3.1328
 20
-13.0602
 30
0.0
 10
3.1865
 20
-13.1848
 30
0.0
 10
3.1865
 20
-13.332
 30
0.0
 10
3.1865
 20
-13.332
 30
0.0
 10
3.1865
 20
-13.4256
 30
0.0
 10
3.162
 20
-13.507
 30
0.0
 10
3.1131
 20
-13.5766
 30
0.0
 10
3.1131
 20
-13.5766
 30
0.0
 10
3.0637
 20
-13.6458
 30
0.0
 10
2.9894
 20
-13.6994
 30
0.0
 10
2.8892
 20
-13.737
 30
0.0
 10
2.8892
 20
-13.737
 30
0.0
 10
3.0129
 20
-13.7775
 30
0.0
 10
3.1074
 20
-13.8424
 30
0.0
 10
3.1723
 20
-13.9327
 30
0.0
 10
3.1723
 20
-13.9327
 30
0.0
 10
3.2368
 20
-14.0225
 30
0.0
 10
3.2692
 20
-14.1302
 30
0.0
 10
3.2692
 20
-14.2549
 30
0.0
 10
3.2692
 20
-14.2549
 30
0.0
 10
3.2692
 20
-14.428
 30
0.0
 10
3.2081
 20
-14.5729
 30
0.0
 10
3.0863
 20
-14.6904
 30
0.0
 10
3.0863
 20
-14.6904
 30
0.0
 10
2.964
 20
-14.808
 30
0.0
 10
2.8031
 20
-14.8668
 30
0.0
 10
2.6037
 20
-14.8668
 30
0.0
 10
2.6037
 20
-14.8668
 30
0.0
 10
2.4042
 20
-14.8668
 30
0.0
 10
2.2438
 20
-14.808
 30
0.0
 10
2.1215
 20
-14.69
 30
0.0
 10
2.1215
 20
-14.69
 30
0.0
 10
1.9992
 20
-14.5719
 30
0.0
 10
1.9381
 20
-14.4247
 30
0.0
 10
1.9381
 20
-14.2483
 30
0.0
 10
1.9381
 20
-14.2483
 30
0.0
 10
1.9381
 20
-14.1171
 30
0.0
 10
1.9715
 20
-14.007
 30
0.0
 10
2.0383
 20
-13.9181
 30
0.0
 10
2.0383
 20
-13.9181
 30
0.0
 10
2.1046
 20
-13.8297
 30
0.0
 10
2.1996
 20
-13.769
 30
0.0
 10
2.3229
 20
-13.737
 30
0.0
  0
SPLINE
  5
4A
330
1F
100
AcDbEntity
  8
VRSTVA_1
 62
   250
100
AcDbSpline
210
0.0
220
0.0
230
1.0
 70
    11
 71
     3
 72
    36
 73
    32
 74
     0
 42
0.0000000001
 43
0.0000000001
 40
0.0
 40
0.0
 40
0.0
 40
0.0
 40
0.1111111111111111
 40
0.1111111111111111
 40
0.1111111111111111
 40
0.1111111111111111
 40
0.2222222222222222
 40
0.2222222222222222
 40
0.2222222222222222
 40
0.2222222222222222
 40
0.3333333333333333
 40
0.3333333333333333
 40
0.3333333333333333
 40
0.3333333333333333
 40
0.4444444444444444
 40
0.4444444444444444
 40
0.4444444444444444
 40
0.4444444444444444
 40
0.5555555555555556
 40
0.5555555555555556
 40
0.5555555555555556
 40
0.5555555555555556
 40
0.6666666666666666
 40
0.6666666666666666
 40
0.6666666666666666
 40
0.6666666666666666
 40
0.7777777777777778
 40
0.7777777777777778
 40
0.7777777777777778
 40
0.7777777777777778
 40
1.0
 40
1.0
 40
1.0
 40
1.0
 10
2.273
 20
-13.3165
 30
0.0
 10
2.273
 20
-13.412
 30
0.0
 10
2.304
 20
-13.4901
 30
0.0
 10
2.3652
 20
-13.5508
 30
0.0
 10
2.3652
 20
-13.5508
 30
0.0
 10
2.4268
 20
-13.6114
 30
0.0
 10
2.5068
 20
-13.642
 30
0.0
 10
2.6051
 20
-13.642
 30
0.0
 10
2.6051
 20
-13.642
 30
0.0
 10
2.7006
 20
-13.642
 30
0.0
 10
2.7791
 20
-13.6119
 30
0.0
 10
2.8403
 20
-13.5517
 30
0.0
 10
2.8403
 20
-13.5517
 30
0.0
 10
2.9014
 20
-13.4915
 30
0.0
 10
2.9315
 20
-13.4176
 30
0.0
 10
2.9315
 20
-13.3306
 30
0.0
 10
2.9315
 20
-13.3306
 30
0.0
 10
2.9315
 20
-13.2394
 30
0.0
 10
2.9005
 20
-13.1632
 30
0.0
 10
2.8374
 20
-13.1011
 30
0.0
 10
2.8374
 20
-13.1011
 30
0.0
 10
2.7744
 20
-13.039
 30
0.0
 10
2.6963
 20
-13.0079
 30
0.0
 10
2.6023
 20
-13.0079
 30
0.0
 10
2.6023
 20
-13.0079
 30
0.0
 10
2.5077
 20
-13.0079
 30
0.0
 10
2.4292
 20
-13.0385
 30
0.0
 10
2.3666
 20
-13.0987
 30
0.0
 10
2.3666
 20
-13.0987
 30
0.0
 10
2.304
 20
-13.1594
 30
0.0
 10
2.273
 20
-13.2323
 30
0.0
 10
2.273
 20
-13.3165
 30
0.0
  0
SPLINE
  5
4B
330
1F
100
AcDbEntity
  8
VRSTVA_1
 62
   250
100
AcDbSpline
210
0.0
220
0.0
230
1.0
 70
    11
 71
     3
 72
    40
 73
    36
 74
     0
 42
0.0000000001
 43
0.0000000001
 40
0.0
 40
0.0
 40
0.0
 40
0.0
 40
0.1
 40
0.1
 40
0.1
 40
0.1
 40
0.2
 40
0.2
 40
0.2
 40
0.2
 40
0.3
 40
0.3
 40
0.3
 40
0.3
 40
0.4
 40
0.4
 40
0.4
 40
0.4
 40
0.5
 40
0.5
 40
0.5
 40
0.5
 40
0.6
 40
0.6
 40
0.6
 40
0.6
 40
0.7
 40
0.7
 40
0.7
 40
0.7
 40
0.8
 40
0.8
 40
0.8
 40
0.8
 40
1.0
 40
1.0
 40
1.0
 40
1.0
 10
2.193
 20
-14.2497
 30
0.0
 10
2.193
 20
-14.3203
 30
0.0
 10
2.21
 20
-14.3889
 30
0.0
 10
2.2434
 20
-14.4548
 30
0.0
 10
2.2434
 20
-14.4548
 30
0.0
 10
2.2768
 20
-14.5211
 30
0.0
 10
2.3266
 20
-14.5724
 30
0.0
 10
2.3929
 20
-14.6086
 30
0.0
 10
2.3929
 20
-14.6086
 30
0.0
 10
2.4593
 20
-14.6448
 30
0.0
 10
2.5303
 20
-14.6632
 30
0.0
 10
2.6065
 20
-14.6632
 30
0.0
 10
2.6065
 20
-14.6632
 30
0.0
 10
2.725
 20
-14.6632
 30
0.0
 10
2.8229
 20
-14.6251
 30
0.0
 10
2.9
 20
-14.5484
 30
0.0
 10
2.9
 20
-14.5484
 30
0.0
 10
2.9771
 20
-14.4722
 30
0.0
 10
3.0157
 20
-14.3753
 30
0.0
 10
3.0157
 20
-14.2577
 30
0.0
 10
3.0157
 20
-14.2577
 30
0.0
 10
3.0157
 20
-14.1382
 30
0.0
 10
2.9762
 20
-14.0395
 30
0.0
 10
2.8967
 20
-13.9614
 30
0.0
 10
2.8967
 20
-13.9614
 30
0.0
 10
2.8172
 20
-13.8833
 30
0.0
 10
2.7175
 20
-13.8443
 30
0.0
 10
2.598
 20
-13.8443
 30
0.0
 10
2.598
 20
-13.8443
 30
0.0
 10
2.4814
 20
-13.8443
 30
0.0
 10
2.3849
 20
-13.8828
 30
0.0
 10
2.3083
 20
-13.96
 30
0.0
 10
2.3083
 20
-13.96
 30
0.0
 10
2.2316
 20
-14.0376
 30
0.0
 10
2.193
 20
-14.134
 30
0.0
 10
2.193
 20
-14.2497
 30
0.0
  0
SPLINE
  5
4C
330
1F
100
AcDbEntity
  8
VRSTVA_1
 62
   250
100
AcDbSpline
210
0.0
220
0.0
230
1.0
 70
    11
 71
     3
 72
    92
 73
    88
 74
     0
 42
0.0000000001
 43
0.0000000001
 40
0.0
 40
0.0
 40
0.0
 40
0.0
 40
0.0434782608695652
 40
0.0434782608695652
 40
0.0434782608695652
 40
0.0434782608695652
 40
0.0869565217391304
 40
0.0869565217391304
 40
0.0869565217391304
 40
0.0869565217391304
 40
0.1304347826086956
 40
0.1304347826086956
 40
0.1304347826086956
 40
0.1304347826086956
 40
0.1739130434782609
 40
0.1739130434782609
 40
0.1739130434782609
 40
0.1739130434782609
 40
0.2173913043478261
 40
0.2173913043478261
 40
0.2173913043478261
 40
0.2173913043478261
 40
0.2608695652173913
 40
0.2608695652173913
 40
0.2608695652173913
 40
0.2608695652173913
 40
0.3043478260869565
 40
0.3043478260869565
 40
0.3043478260869565
 40
0.3043478260869565
 40
0.3478260869565217
 40
0.3478260869565217
 40
0.3478260869565217
 40
0.3478260869565217
 40
0.391304347826087
 40
0.391304347826087
 40
0.391304347826087
 40
0.391304347826087
 40
0.4347826086956522
 40
0.4347826086956522
 40
0.4347826086956522
 40
0.4347826086956522
 40
0.4782608695652174
 40
0.4782608695652174
 40
0.4782608695652174
 40
0.4782608695652174
 40
0.5217391304347826
 40
0.5217391304347826
 40
0.5217391304347826
 40
0.5217391304347826
 40
0.5652173913043478
 40
0.5652173913043478
 40
0.5652173913043478
 40
0.5652173913043478
 40
0.6086956521739131
 40
0.6086956521739131
 40
0.6086956521739131
 40
0.6086956521739131
 40
0.6521739130434783
 40
0.6521739130434783
 40
0.6521739130434783
 40
0.6521739130434783
 40
0.6956521739130435
 40
0.6956521739130435
 40
0.6956521739130435
 40
0.6956521739130435
 40
0.7391304347826086
 40
0.7391304347826086
 40
0.7391304347826086
 40
0.7391304347826086
 40
0.782608695652174
 40
0.782608695652174
 40
0.782608695652174
 40
0.782608695652174
 40
0.8260869565217391
 40
0.8260869565217391
 40
0.8260869565217391
 40
0.8260869565217391
 40
0.8695652173913043
 40
0.8695652173913043
 40
0.8695652173913043
 40
0.8695652173913043
 40
0.9130434782608695
 40
0.9130434782608695
 40
0.9130434782608695
 40
0.9130434782608695
 40
1.0
 40
1.0
 40
1.0
 40
1.0
 10
3.5105
 20
-14.3033
 30
0.0
 10
3.5105
 20
-14.3033
 30
0.0
 10
3.7711
 20
-14.2812
 30
0.0
 10
3.7711
 20
-14.2812
 30
0.0
 10
3.7711
 20
-14.2812
 30
0.0
 10
3.7904
 20
-14.4082
 30
0.0
 10
3.8351
 20
-14.5032
 30
0.0
 10
3.9052
 20
-14.5672
 30
0.0
 10
3.9052
 20
-14.5672
 30
0.0
 10
3.9757
 20
-14.6312
 30
0.0
 10
4.0604
 20
-14.6632
 30
0.0
 10
4.1596
 20
-14.6632
 30
0.0
 10
4.1596
 20
-14.6632
 30
0.0
 10
4.2791
 20
-14.6632
 30
0.0
 10
4.3802
 20
-14.618
 30
0.0
 10
4.4625
 20
-14.5282
 30
0.0
 10
4.4625
 20
-14.5282
 30
0.0
 10
4.5453
 20
-14.4379
 30
0.0
 10
4.5867
 20
-14.3184
 30
0.0
 10
4.5867
 20
-14.1698
 30
0.0
 10
4.5867
 20
-14.1698
 30
0.0
 10
4.5867
 20
-14.0282
 30
0.0
 10
4.5472
 20
-13.9167
 30
0.0
 10
4.4677
 20
-13.8349
 30
0.0
 10
4.4677
 20
-13.8349
 30
0.0
 10
4.3882
 20
-13.753
 30
0.0
 10
4.2843
 20
-13.7121
 30
0.0
 10
4.1554
 20
-13.7121
 30
0.0
 10
4.1554
 20
-13.7121
 30
0.0
 10
4.0754
 20
-13.7121
 30
0.0
 10
4.0035
 20
-13.7304
 30
0.0
 10
3.939
 20
-13.7666
 30
0.0
 10
3.939
 20
-13.7666
 30
0.0
 10
3.8746
 20
-13.8029
 30
0.0
 10
3.8243
 20
-13.8499
 30
0.0
 10
3.7876
 20
-13.9078
 30
0.0
 10
3.7876
 20
-13.9078
 30
0.0
 10
3.7876
 20
-13.9078
 30
0.0
 10
3.5547
 20
-13.8777
 30
0.0
 10
3.5547
 20
-13.8777
 30
0.0
 10
3.5547
 20
-13.8777
 30
0.0
 10
3.5547
 20
-13.8777
 30
0.0
 10
3.7504
 20
-12.84
 30
0.0
 10
3.7504
 20
-12.84
 30
0.0
 10
3.7504
 20
-12.84
 30
0.0
 10
3.7504
 20
-12.84
 30
0.0
 10
4.7551
 20
-12.84
 30
0.0
 10
4.7551
 20
-12.84
 30
0.0
 10
4.7551
 20
-12.84
 30
0.0
 10
4.7551
 20
-12.84
 30
0.0
 10
4.7551
 20
-13.0771
 30
0.0
 10
4.7551
 20
-13.0771
 30
0.0
 10
4.7551
 20
-13.0771
 30
0.0
 10
4.7551
 20
-13.0771
 30
0.0
 10
3.9489
 20
-13.0771
 30
0.0
 10
3.9489
 20
-13.0771
 30
0.0
 10
3.9489
 20
-13.0771
 30
0.0
 10
3.9489
 20
-13.0771
 30
0.0
 10
3.8398
 20
-13.6199
 30
0.0
 10
3.8398
 20
-13.6199
 30
0.0
 10
3.8398
 20
-13.6199
 30
0.0
 10
3.9611
 20
-13.5352
 30
0.0
 10
4.0886
 20
-13.4929
 30
0.0
 10
4.2217
 20
-13.4929
 30
0.0
 10
4.2217
 20
-13.4929
 30
0.0
 10
4.3981
 20
-13.4929
 30
0.0
 10
4.5467
 20
-13.554
 30
0.0
 10
4.6681
 20
-13.6763
 30
0.0
 10
4.6681
 20
-13.6763
 30
0.0
 10
4.7894
 20
-13.7986
 30
0.0
 10
4.8501
 20
-13.9557
 30
0.0
 10
4.8501
 20
-14.1476
 30
0.0
 10
4.8501
 20
-14.1476
 30
0.0
 10
4.8501
 20
-14.3306
 30
0.0
 10
4.7965
 20
-14.4887
 30
0.0
 10
4.6902
 20
-14.6218
 30
0.0
 10
4.6902
 20
-14.6218
 30
0.0
 10
4.5604
 20
-14.785
 30
0.0
 10
4.3835
 20
-14.8668
 30
0.0
 10
4.1596
 20
-14.8668
 30
0.0
 10
4.1596
 20
-14.8668
 30
0.0
 10
3.9757
 20
-14.8668
 30
0.0
 10
3.8257
 20
-14.8156
 30
0.0
 10
3.7095
 20
-14.7126
 30
0.0
 10
3.7095
 20
-14.7126
 30
0.0
 10
3.5933
 20
-14.6095
 30
0.0
 10
3.527
 20
-14.4731
 30
0.0
 10
3.5105
 20
-14.3033
 30
0.0
  0
SPLINE
  5
4D
330
1F
100
AcDbEntity
  8
VRSTVA_1
 62
   250
100
AcDbSpline
210
0.0
220
0.0
230
1.0
 70
    11
 71
     3
 72
    52
 73
    48
 74
     0
 42
0.0000000001
 43
0.0000000001
 40
0.0
 40
0.0
 40
0.0
 40
0.0
 40
0.0769230769230769
 40
0.0769230769230769
 40
0.0769230769230769
 40
0.0769230769230769
 40
0.1538461538461539
 40
0.1538461538461539
 40
0.1538461538461539
 40
0.1538461538461539
 40
0.2307692307692308
 40
0.2307692307692308
 40
0.2307692307692308
 40
0.2307692307692308
 40
0.3076923076923077
 40
0.3076923076923077
 40
0.3076923076923077
 40
0.3076923076923077
 40
0.3846153846153846
 40
0.3846153846153846
 40
0.3846153846153846
 40
0.3846153846153846
 40
0.4615384615384616
 40
0.4615384615384616
 40
0.4615384615384616
 40
0.4615384615384616
 40
0.5384615384615384
 40
0.5384615384615384
 40
0.5384615384615384
 40
0.5384615384615384
 40
0.6153846153846154
 40
0.6153846153846154
 40
0.6153846153846154
 40
0.6153846153846154
 40
0.6923076923076923
 40
0.6923076923076923
 40
0.6923076923076923
 40
0.6923076923076923
 40
0.7692307692307693
 40
0.7692307692307693
 40
0.7692307692307693
 40
0.7692307692307693
 40
0.8461538461538461
 40
0.8461538461538461
 40
0.8461538461538461
 40
0.8461538461538461
 40
1.0
 40
1.0
 40
1.0
 40
1.0
 10
5.0801
 20
-13.8363
 30
0.0
 10
5.0801
 20
-13.5973
 30
0.0
 10
5.1046
 20
-13.4049
 30
0.0
 10
5.154
 20
-13.2596
 30
0.0
 10
5.154
 20
-13.2596
 30
0.0
 10
5.2029
 20
-13.1138
 30
0.0
 10
5.2763
 20
-13.0014
 30
0.0
 10
5.3732
 20
-12.9223
 30
0.0
 10
5.3732
 20
-12.9223
 30
0.0
 10
5.4701
 20
-12.8433
 30
0.0
 10
5.5919
 20
-12.8038
 30
0.0
 10
5.7386
 20
-12.8038
 30
0.0
 10
5.7386
 20
-12.8038
 30
0.0
 10
5.8473
 20
-12.8038
 30
0.0
 10
5.9423
 20
-12.8259
 30
0.0
 10
6.0241
 20
-12.8697
 30
0.0
 10
6.0241
 20
-12.8697
 30
0.0
 10
6.106
 20
-12.9129
 30
0.0
 10
6.1733
 20
-12.976
 30
0.0
 10
6.2269
 20
-13.0583
 30
0.0
 10
6.2269
 20
-13.0583
 30
0.0
 10
6.28
 20
-13.1406
 30
0.0
 10
6.3219
 20
-13.2408
 30
0.0
 10
6.352
 20
-13.3588
 30
0.0
 10
6.352
 20
-13.3588
 30
0.0
 10
6.3826
 20
-13.4769
 30
0.0
 10
6.3976
 20
-13.6359
 30
0.0
 10
6.3976
 20
-13.8363
 30
0.0
 10
6.3976
 20
-13.8363
 30
0.0
 10
6.3976
 20
-14.0733
 30
0.0
 10
6.3732
 20
-14.2643
 30
0.0
 10
6.3247
 20
-14.4101
 30
0.0
 10
6.3247
 20
-14.4101
 30
0.0
 10
6.2758
 20
-14.5559
 30
0.0
 10
6.2029
 20
-14.6683
 30
0.0
 10
6.106
 20
-14.7478
 30
0.0
 10
6.106
 20
-14.7478
 30
0.0
 10
6.0091
 20
-14.8273
 30
0.0
 10
5.8868
 20
-14.8668
 30
0.0
 10
5.7386
 20
-14.8668
 30
0.0
 10
5.7386
 20
-14.8668
 30
0.0
 10
5.5439
 20
-14.8668
 30
0.0
 10
5.391
 20
-14.7972
 30
0.0
 10
5.28
 20
-14.6575
 30
0.0
 10
5.28
 20
-14.6575
 30
0.0
 10
5.1469
 20
-14.4896
 30
0.0
 10
5.0801
 20
-14.2154
 30
0.0
 10
5.0801
 20
-13.8363
 30
0.0
  0
SPLINE
  5
4E
330
1F
100
AcDbEntity
  8
VRSTVA_1
 62
   250
100
AcDbSpline
210
0.0
220
0.0
230
1.0
 70
    11
 71
     3
 72
    36
 73
    32
 74
     0
 42
0.0000000001
 43
0.0000000001
 40
0.0
 40
0.0
 40
0.0
 40
0.0
 40
0.1111111111111111
 40
0.1111111111111111
 40
0.1111111111111111
 40
0.1111111111111111
 40
0.2222222222222222
 40
0.2222222222222222
 40
0.2222222222222222
 40
0.2222222222222222
 40
0.3333333333333333
 40
0.3333333333333333
 40
0.3333333333333333
 40
0.3333333333333333
 40
0.4444444444444444
 40
0.4444444444444444
 40
0.4444444444444444
 40
0.4444444444444444
 40
0.5555555555555556
 40
0.5555555555555556
 40
0.5555555555555556
 40
0.5555555555555556
 40
0.6666666666666666
 40
0.6666666666666666
 40
0.6666666666666666
 40
0.6666666666666666
 40
0.7777777777777778
 40
0.7777777777777778
 40
0.7777777777777778
 40
0.7777777777777778
 40
1.0
 40
1.0
 40
1.0
 40
1.0
 10
5.3351
 20
-13.8363
 30
0.0
 10
5.3351
 20
-14.1679
 30
0.0
 10
5.3741
 20
-14.3885
 30
0.0
 10
5.4517
 20
-14.4985
 30
0.0
 10
5.4517
 20
-14.4985
 30
0.0
 10
5.5293
 20
-14.6081
 30
0.0
 10
5.6248
 20
-14.6632
 30
0.0
 10
5.7386
 20
-14.6632
 30
0.0
 10
5.7386
 20
-14.6632
 30
0.0
 10
5.8529
 20
-14.6632
 30
0.0
 10
5.9484
 20
-14.6077
 30
0.0
 10
6.026
 20
-14.4976
 30
0.0
 10
6.026
 20
-14.4976
 30
0.0
 10
6.1036
 20
-14.3875
 30
0.0
 10
6.1427
 20
-14.1669
 30
0.0
 10
6.1427
 20
-13.8363
 30
0.0
 10
6.1427
 20
-13.8363
 30
0.0
 10
6.1427
 20
-13.5037
 30
0.0
 10
6.1036
 20
-13.2826
 30
0.0
 10
6.026
 20
-13.1735
 30
0.0
 10
6.026
 20
-13.1735
 30
0.0
 10
5.9484
 20
-13.0639
 30
0.0
 10
5.852
 20
-13.0094
 30
0.0
 10
5.7363
 20
-13.0094
 30
0.0
 10
5.7363
 20
-13.0094
 30
0.0
 10
5.622
 20
-13.0094
 30
0.0
 10
5.5312
 20
-13.0578
 30
0.0
 10
5.463
 20
-13.1542
 30
0.0
 10
5.463
 20
-13.1542
 30
0.0
 10
5.3779
 20
-13.277
 30
0.0
 10
5.3351
 20
-13.5047
 30
0.0
 10
5.3351
 20
-13.8363
 30
0.0
  0
SPLINE
  5
4F
330
1F
100
AcDbEntity
  8
VRSTVA_1
 62
   250
100
AcDbSpline
210
0.0
220
0.0
230
1.0
 70
    11
 71
     3
 72
    20
 73
    16
 74
     0
 42
0.0000000001
 43
0.0000000001
 40
0.0
 40
0.0
 40
0.0
 40
0.0
 40
0.2
 40
0.2
 40
0.2
 40
0.2
 40
0.4
 40
0.4
 40
0.4
 40
0.4
 40
0.6
 40
0.6
 40
0.6
 40
0.6
 40
1.0
 40
1.0
 40
1.0
 40
1.0
 10
-41.7806
 20
-15.9989
 30
0.0
 10
-41.7806
 20
-15.9989
 30
0.0
 10
-44.7806
 20
-15.5756
 30
0.0
 10
-44.7806
 20
-15.5756
 30
0.0
 10
-44.7806
 20
-15.5756
 30
0.0
 10
-44.7806
 20
-15.5756
 30
0.0
 10
-44.7806
 20
-15.4816
 30
0.0
 10
-44.7806
 20
-15.4816
 30
0.0
 10
-44.7806
 20
-15.4816
 30
0.0
 10
-44.7806
 20
-15.4816
 30
0.0
 10
-41.7806
 20
-15.0302
 30
0.0
 10
-41.7806
 20
-15.0302
 30
0.0
 10
-41.7806
 20
-15.0302
 30
0.0
 10
-41.7806
 20
-15.0302
 30
0.0
 10
-41.7806
 20
-15.9989
 30
0.0
 10
-41.7806
 20
-15.9989
 30
0.0
  0
SPLINE
  5
50
330
1F
100
AcDbEntity
  8
VRSTVA_1
 62
   250
100
AcDbSpline
210
0.0
220
0.0
230
1.0
 70
    11
 71
     3
 72
    20
 73
    16
 74
     0
 42
0.0000000001
 43
0.0000000001
 40
0.0
 40
0.0
 40
0.0
 40
0.0
 40
0.2
 40
0.2
 40
0.2
 40
0.2
 40
0.4
 40
0.4
 40
0.4
 40
0.4
 40
0.6
 40
0.6
 40
0.6
 40
0.6
 40
1.0
 40
1.0
 40
1.0
 40
1.0
 10
45.9197
 20
-15.0485
 30
0.0
 10
45.9197
 20
-15.0485
 30
0.0
 10
48.9199
 20
-15.4719
 30
0.0
 10
48.9199
 20
-15.4719
 30
0.0
 10
48.9199
 20
-15.4719
 30
0.0
 10
48.9199
 20
-15.4719
 30
0.0
 10
48.9199
 20
-15.5659
 30
0.0
 10
48.9199
 20
-15.5659
 30
0.0
 10
48.9199
 20
-15.5659
 30
0.0
 10
48.9199
 20
-15.5659
 30
0.0
 10
45.9197
 20
-16.0174
 30
0.0
 10
45.9197
 20
-16.0174
 30
0.0
 10
45.9197
 20
-16.0174
 30
0.0
 10
45.9197
 20
-16.0174
 30
0.0
 10
45.9197
 20
-15.0485
 30
0.0
 10
45.9197
 20
-15.0485
 30
0.0
  0
SPLINE
  5
51
330
1F
100
AcDbEntity
  8
VRSTVA_1
 62
   250
100
AcDbSpline
210
0.0
220
0.0
230
1.0
 70
    24
 71
     3
 72
     8
 73
     4
 74
     0
 42
0.0000000001
 43
0.0000000001
 40
0.0
 40
0.0
 40
0.0
 40
0.0
 40
1.0
 40
1.0
 40
1.0
 40
1.0
 10
-44.8569
 20
-5.8674
 30
0.0
 10
-44.8569
 20
-5.8674
 30
0.0
 10
-44.8569
 20
-16.136
 30
0.0
 10
-44.8569
 20
-16.136
 30
0.0
  0
SPLINE
  5
52
330
1F
100
AcDbEntity
  8
VRSTVA_1
 62
   250
100
AcDbSpline
210
0.0
220
0.0
230
1.0
 70
    24
 71
     3
 72
     8
 73
     4
 74
     0
 42
0.0000000001
 43
0.0000000001
 40
0.0
 40
0.0
 40
0.0
 40
0.0
 40
1.0
 40
1.0
 40
1.0
 40
1.0
 10
49.0037
 20
-5.5296
 30
0.0
 10
49.0037
 20
-5.5296
 30
0.0
 10
49.0037
 20
-16.115
 30
0.0
 10
49.0037
 20
-16.115
 30
0.0
  0
SPLINE
  5
53
330
1F
100
AcDbEntity
  8
VRSTVA_1
 62
   250
100
AcDbSpline
210
0.0
220
0.0
230
1.0
 70
    24
 71
     3
 72
     8
 73
     4
 74
     0
 42
0.0000000001
 43
0.0000000001
 40
0.0
 40
0.0
 40
0.0
 40
0.0
 40
1.0
 40
1.0
 40
1.0
 40
1.0
 10
-7.5488
 20
-2.2233
 30
0.0
 10
-7.5488
 20
-2.2233
 30
0.0
 10
-7.5488
 20
8.9234
 30
0.0
 10
-7.5488
 20
8.9234
 30
0.0
  0
SPLINE
  5
54
330
1F
100
AcDbEntity
  8
VRSTVA_1
 62
   250
100
AcDbSpline
210
0.0
220
0.0
230
1.0
 70
    24
 71
     3
 72
     8
 73
     4
 74
     0
 42
0.0000000001
 43
0.0000000001
 40
0.0
 40
0.0
 40
0.0
 40
0.0
 40
1.0
 40
1.0
 40
1.0
 40
1.0
 10
-5.6645
 20
-0.8786
 30
0.0
 10
-5.6645
 20
-0.8786
 30
0.0
 10
-5.6645
 20
8.12
 30
0.0
 10
-5.6645
 20
8.12
 30
0.0
  0
SPLINE
  5
55
330
1F
100
AcDbEntity
  8
VRSTVA_1
 62
   250
100
AcDbSpline
210
0.0
220
0.0
230
1.0
 70
    24
 71
     3
 72
     8
 73
     4
 74
     0
 42
0.0000000001
 43
0.0000000001
 40
0.0
 40
0.0
 40
0.0
 40
0.0
 40
1.0
 40
1.0
 40
1.0
 40
1.0
 10
-2.8386
 20
-0.8786
 30
0.0
 10
-2.8386
 20
-0.8786
 30
0.0
 10
-2.8386
 20
8.12
 30
0.0
 10
-2.8386
 20
8.12
 30
0.0
  0
SPLINE
  5
56
330
1F
100
AcDbEntity
  8
VRSTVA_1
 62
   250
100
AcDbSpline
210
0.0
220
0.0
230
1.0
 70
    24
 71
     3
 72
     8
 73
     4
 74
     0
 42
0.0000000001
 43
0.0000000001
 40
0.0
 40
0.0
 40
0.0
 40
0.0
 40
1.0
 40
1.0
 40
1.0
 40
1.0
 10
-0.0128
 20
-0.8786
 30
0.0
 10
-0.0128
 20
-0.8786
 30
0.0
 10
-0.0128
 20
8.12
 30
0.0
 10
-0.0128
 20
8.12
 30
0.0
  0
SPLINE
  5
57
330
1F
100
AcDbEntity
  8
VRSTVA_1
 62
   250
100
AcDbSpline
210
0.0
220
0.0
230
1.0
 70
    24
 71
     3
 72
     8
 73
     4
 74
     0
 42
0.0000000001
 43
0.0000000001
 40
0.0
 40
0.0
 40
0.0
 40
0.0
 40
1.0
 40
1.0
 40
1.0
 40
1.0
 10
2.8131
 20
-0.8786
 30
0.0
 10
2.8131
 20
-0.8786
 30
0.0
 10
2.8131
 20
8.12
 30
0.0
 10
2.8131
 20
8.12
 30
0.0
  0
SPLINE
  5
58
330
1F
100
AcDbEntity
  8
VRSTVA_1
 62
   250
100
AcDbSpline
210
0.0
220
0.0
230
1.0
 70
    24
 71
     3
 72
     8
 73
     4
 74
     0
 42
0.0000000001
 43
0.0000000001
 40
0.0
 40
0.0
 40
0.0
 40
0.0
 40
1.0
 40
1.0
 40
1.0
 40
1.0
 10
5.639
 20
-0.8786
 30
0.0
 10
5.639
 20
-0.8786
 30
0.0
 10
5.639
 20
8.12
 30
0.0
 10
5.639
 20
8.12
 30
0.0
  0
SPLINE
  5
59
330
1F
100
AcDbEntity
  8
VRSTVA_1
 62
   250
100
AcDbSpline
210
0.0
220
0.0
230
1.0
 70
    24
 71
     3
 72
     8
 73
     4
 74
     0
 42
0.0000000001
 43
0.0000000001
 40
0.0
 40
0.0
 40
0.0
 40
0.0
 40
1.0
 40
1.0
 40
1.0
 40
1.0
 10
8.4656
 20
-0.8781
 30
0.0
 10
8.4656
 20
-0.8781
 30
0.0
 10
8.4656
 20
8.1194
 30
0.0
 10
8.4656
 20
8.1194
 30
0.0
  0
SPLINE
  5
5A
330
1F
100
AcDbEntity
  8
VRSTVA_1
 62
   250
100
AcDbSpline
210
0.0
220
0.0
230
1.0
 70
    24
 71
     3
 72
     8
 73
     4
 74
     0
 42
0.0000000001
 43
0.0000000001
 40
0.0
 40
0.0
 40
0.0
 40
0.0
 40
1.0
 40
1.0
 40
1.0
 40
1.0
 10
11.4035
 20
-0.5449
 30
0.0
 10
11.4035
 20
-0.5449
 30
0.0
 10
11.4035
 20
7.7862
 30
0.0
 10
11.4035
 20
7.7862
 30
0.0
  0
SPLINE
  5
5B
330
1F
100
AcDbEntity
  8
VRSTVA_1
 62
   250
100
AcDbSpline
210
0.0
220
0.0
230
1.0
 70
     8
 71
     3
 72
   228
 73
   224
 74
     0
 42
0.0000000001
 43
0.0000000001
 40
0.0
 40
0.0
 40
0.0
 40
0.0
 40
0.0175438596491228
 40
0.0175438596491228
 40
0.0175438596491228
 40
0.0175438596491228
 40
0.0350877192982456
 40
0.0350877192982456
 40
0.0350877192982456
 40
0.0350877192982456
 40
0.0526315789473684
 40
0.0526315789473684
 40
0.0526315789473684
 40
0.0526315789473684
 40
0.0701754385964912
 40
0.0701754385964912
 40
0.0701754385964912
 40
0.0701754385964912
 40
0.087719298245614
 40
0.087719298245614
 40
0.087719298245614
 40
0.087719298245614
 40
0.1052631578947368
 40
0.1052631578947368
 40
0.1052631578947368
 40
0.1052631578947368
 40
0.1228070175438596
 40
0.1228070175438596
 40
0.1228070175438596
 40
0.1228070175438596
 40
0.1403508771929824
 40
0.1403508771929824
 40
0.1403508771929824
 40
0.1403508771929824
 40
0.1578947368421053
 40
0.1578947368421053
 40
0.1578947368421053
 40
0.1578947368421053
 40
0.1754385964912281
 40
0.1754385964912281
 40
0.1754385964912281
 40
0.1754385964912281
 40
0.1929824561403509
 40
0.1929824561403509
 40
0.1929824561403509
 40
0.1929824561403509
 40
0.2105263157894737
 40
0.2105263157894737
 40
0.2105263157894737
 40
0.2105263157894737
 40
0.2280701754385965
 40
0.2280701754385965
 40
0.2280701754385965
 40
0.2280701754385965
 40
0.2456140350877193
 40
0.2456140350877193
 40
0.2456140350877193
 40
0.2456140350877193
 40
0.2631578947368421
 40
0.2631578947368421
 40
0.2631578947368421
 40
0.2631578947368421
 40
0.2807017543859649
 40
0.2807017543859649
 40
0.2807017543859649
 40
0.2807017543859649
 40
0.2982456140350877
 40
0.2982456140350877
 40
0.2982456140350877
 40
0.2982456140350877
 40
0.3157894736842105
 40
0.3157894736842105
 40
0.3157894736842105
 40
0.3157894736842105
 40
0.3333333333333333
 40
0.3333333333333333
 40
0.3333333333333333
 40
0.3333333333333333
 40
0.3508771929824561
 40
0.3508771929824561
 40
0.3508771929824561
 40
0.3508771929824561
 40
0.3684210526315789
 40
0.3684210526315789
 40
0.3684210526315789
 40
0.3684210526315789
 40
0.3859649122807017
 40
0.3859649122807017
 40
0.3859649122807017
 40
0.3859649122807017
 40
0.4035087719298245
 40
0.4035087719298245
 40
0.4035087719298245
 40
0.4035087719298245
 40
0.4210526315789473
 40
0.4210526315789473
 40
0.4210526315789473
 40
0.4210526315789473
 40
0.4385964912280702
 40
0.4385964912280702
 40
0.4385964912280702
 40
0.4385964912280702
 40
0.456140350877193
 40
0.456140350877193
 40
0.456140350877193
 40
0.456140350877193
 40
0.4736842105263158
 40
0.4736842105263158
 40
0.4736842105263158
 40
0.4736842105263158
 40
0.4912280701754386
 40
0.4912280701754386
 40
0.4912280701754386
 40
0.4912280701754386
 40
0.5087719298245614
 40
0.5087719298245614
 40
0.5087719298245614
 40
0.5087719298245614
 40
0.5263157894736842
 40
0.5263157894736842
 40
0.5263157894736842
 40
0.5263157894736842
 40
0.543859649122807
 40
0.543859649122807
 40
0.543859649122807
 40
0.543859649122807
 40
0.5614035087719298
 40
0.5614035087719298
 40
0.5614035087719298
 40
0.5614035087719298
 40
0.5789473684210527
 40
0.5789473684210527
 40
0.5789473684210527
 40
0.5789473684210527
 40
0.5964912280701754
 40
0.5964912280701754
 40
0.5964912280701754
 40
0.5964912280701754
 40
0.6140350877192983
 40
0.6140350877192983
 40
0.6140350877192983
 40
0.6140350877192983
 40
0.631578947368421
 40
0.631578947368421
 40
0.631578947368421
 40
0.631578947368421
 40
0.6491228070175439
 40
0.6491228070175439
 40
0.6491228070175439
 40
0.6491228070175439
 40
0.6666666666666666
 40
0.6666666666666666
 40
0.6666666666666666
 40
0.6666666666666666
 40
0.6842105263157895
 40
0.6842105263157895
 40
0.6842105263157895
 40
0.6842105263157895
 40
0.7017543859649122
 40
0.7017543859649122
 40
0.7017543859649122
 40
0.7017543859649122
 40
0.7192982456140351
 40
0.7192982456140351
 40
0.7192982456140351
 40
0.7192982456140351
 40
0.7368421052631579
 40
0.7368421052631579
 40
0.7368421052631579
 40
0.7368421052631579
 40
0.7543859649122807
 40
0.7543859649122807
 40
0.7543859649122807
 40
0.7543859649122807
 40
0.7719298245614035
 40
0.7719298245614035
 40
0.7719298245614035
 40
0.7719298245614035
 40
0.7894736842105263
 40
0.7894736842105263
 40
0.7894736842105263
 40
0.7894736842105263
 40
0.8070175438596491
 40
0.8070175438596491
 40
0.8070175438596491
 40
0.8070175438596491
 40
0.8245614035087719
 40
0.8245614035087719
 40
0.8245614035087719
 40
0.8245614035087719
 40
0.8421052631578947
 40
0.8421052631578947
 40
0.8421052631578947
 40
0.8421052631578947
 40
0.8596491228070176
 40
0.8596491228070176
 40
0.8596491228070176
 40
0.8596491228070176
 40
0.8771929824561403
 40
0.8771929824561403
 40
0.8771929824561403
 40
0.8771929824561403
 40
0.8947368421052632
 40
0.8947368421052632
 40
0.8947368421052632
 40
0.8947368421052632
 40
0.9122807017543859
 40
0.9122807017543859
 40
0.9122807017543859
 40
0.9122807017543859
 40
0.9298245614035088
 40
0.9298245614035088
 40
0.9298245614035088
 40
0.9298245614035088
 40
0.9473684210526315
 40
0.9473684210526315
 40
0.9473684210526315
 40
0.9473684210526315
 40
0.9649122807017544
 40
0.9649122807017544
 40
0.9649122807017544
 40
0.9649122807017544
 40
1.0
 40
1.0
 40
1.0
 40
1.0
 10
13.9998
 20
7.7597
 30
0.0
 10
13.9998
 20
7.7597
 30
0.0
 10
11.4035
 20
7.7862
 30
0.0
 10
11.4035
 20
7.7862
 30
0.0
 10
11.4035
 20
7.7862
 30
0.0
 10
11.4035
 20
7.7862
 30
0.0
 10
9.7191
 20
9.5063
 30
0.0
 10
9.7191
 20
9.5063
 30
0.0
 10
9.7191
 20
9.5063
 30
0.0
 10
9.7191
 20
9.5063
 30
0.0
 10
9.5954
 20
9.5063
 30
0.0
 10
9.5954
 20
9.5063
 30
0.0
 10
9.5954
 20
9.5063
 30
0.0
 10
9.5954
 20
9.5063
 30
0.0
 10
8.5554
 20
8.1169
 30
0.0
 10
8.5554
 20
8.1169
 30
0.0
 10
8.5554
 20
8.1169
 30
0.0
 10
8.5554
 20
8.1169
 30
0.0
 10
6.847
 20
9.531
 30
0.0
 10
6.847
 20
9.531
 30
0.0
 10
6.847
 20
9.531
 30
0.0
 10
6.847
 20
9.531
 30
0.0
 10
6.6985
 20
9.531
 30
0.0
 10
6.6985
 20
9.531
 30
0.0
 10
6.6985
 20
9.531
 30
0.0
 10
6.6985
 20
9.531
 30
0.0
 10
5.6832
 20
8.216
 30
0.0
 10
5.6832
 20
8.216
 30
0.0
 10
5.6832
 20
8.216
 30
0.0
 10
5.6832
 20
8.216
 30
0.0
 10
4.0244
 20
9.531
 30
0.0
 10
4.0244
 20
9.531
 30
0.0
 10
4.0244
 20
9.531
 30
0.0
 10
4.0244
 20
9.531
 30
0.0
 10
3.8016
 20
9.531
 30
0.0
 10
3.8016
 20
9.531
 30
0.0
 10
3.8016
 20
9.531
 30
0.0
 10
3.8016
 20
9.531
 30
0.0
 10
2.8359
 20
8.1913
 30
0.0
 10
2.8359
 20
8.1913
 30
0.0
 10
2.8359
 20
8.1913
 30
0.0
 10
2.8359
 20
8.1913
 30
0.0
 10
1.1769
 20
9.531
 30
0.0
 10
1.1769
 20
9.531
 30
0.0
 10
1.1769
 20
9.531
 30
0.0
 10
1.1769
 20
9.531
 30
0.0
 10
1.0532
 20
9.531
 30
0.0
 10
1.0532
 20
9.531
 30
0.0
 10
1.0532
 20
9.531
 30
0.0
 10
1.0532
 20
9.531
 30
0.0
 10
0.038
 20
8.1416
 30
0.0
 10
0.038
 20
8.1416
 30
0.0
 10
0.038
 20
8.1416
 30
0.0
 10
0.038
 20
8.1416
 30
0.0
 10
-1.5714
 20
9.5063
 30
0.0
 10
-1.5714
 20
9.5063
 30
0.0
 10
-1.5714
 20
9.5063
 30
0.0
 10
-1.5714
 20
9.5063
 30
0.0
 10
-1.7695
 20
9.5063
 30
0.0
 10
-1.7695
 20
9.5063
 30
0.0
 10
-1.7695
 20
9.5063
 30
0.0
 10
-1.7695
 20
9.5063
 30
0.0
 10
-2.8341
 20
8.1416
 30
0.0
 10
-2.8341
 20
8.1416
 30
0.0
 10
-2.8341
 20
8.1416
 30
0.0
 10
-2.8341
 20
8.1416
 30
0.0
 10
-4.4683
 20
9.5063
 30
0.0
 10
-4.4683
 20
9.5063
 30
0.0
 10
-4.4683
 20
9.5063
 30
0.0
 10
-4.4683
 20
9.5063
 30
0.0
 10
-4.592
 20
9.5063
 30
0.0
 10
-4.592
 20
9.5063
 30
0.0
 10
-4.592
 20
9.5063
 30
0.0
 10
-4.592
 20
9.5063
 30
0.0
 10
-5.5824
 20
8.1664
 30
0.0
 10
-5.5824
 20
8.1664
 30
0.0
 10
-5.5824
 20
8.1664
 30
0.0
 10
-5.5824
 20
8.1664
 30
0.0
 10
-7.3156
 20
9.531
 30
0.0
 10
-7.3156
 20
9.531
 30
0.0
 10
-7.3156
 20
9.531
 30
0.0
 10
-7.3156
 20
9.531
 30
0.0
 10
-7.5137
 20
8.8859
 30
0.0
 10
-7.5137
 20
8.8859
 30
0.0
 10
-7.5137
 20
8.8859
 30
0.0
 10
-7.5137
 20
8.8859
 30
0.0
 10
-7.8604
 20
7.8687
 30
0.0
 10
-7.8604
 20
7.8687
 30
0.0
 10
-7.8604
 20
7.8687
 30
0.0
 10
-7.8604
 20
7.8687
 30
0.0
 10
-8.2318
 20
6.8019
 30
0.0
 10
-8.2318
 20
6.8019
 30
0.0
 10
-8.2318
 20
6.8019
 30
0.0
 10
-8.2318
 20
6.8019
 30
0.0
 10
-8.4051
 20
6.0327
 30
0.0
 10
-8.4051
 20
6.0327
 30
0.0
 10
-8.4051
 20
6.0327
 30
0.0
 10
-8.4051
 20
6.0327
 30
0.0
 10
-8.4546
 20
5.4125
 30
0.0
 10
-8.4546
 20
5.4125
 30
0.0
 10
-8.4546
 20
5.4125
 30
0.0
 10
-8.4546
 20
5.4125
 30
0.0
 10
-8.4299
 20
4.8666
 30
0.0
 10
-8.4299
 20
4.8666
 30
0.0
 10
-8.4299
 20
4.8666
 30
0.0
 10
-8.4299
 20
4.8666
 30
0.0
 10
-8.2565
 20
4.1967
 30
0.0
 10
-8.2565
 20
4.1967
 30
0.0
 10
-8.2565
 20
4.1967
 30
0.0
 10
-8.2565
 20
4.1967
 30
0.0
 10
-8.0337
 20
3.4525
 30
0.0
 10
-8.0337
 20
3.4525
 30
0.0
 10
-8.0337
 20
3.4525
 30
0.0
 10
-8.0337
 20
3.4525
 30
0.0
 10
-7.7862
 20
2.584
 30
0.0
 10
-7.7862
 20
2.584
 30
0.0
 10
-7.7862
 20
2.584
 30
0.0
 10
-7.7862
 20
2.584
 30
0.0
 10
-7.7118
 20
1.6165
 30
0.0
 10
-7.7118
 20
1.6165
 30
0.0
 10
-7.7118
 20
1.6165
 30
0.0
 10
-7.7118
 20
1.6165
 30
0.0
 10
-7.7862
 20
0.4255
 30
0.0
 10
-7.7862
 20
0.4255
 30
0.0
 10
-7.7862
 20
0.4255
 30
0.0
 10
-7.7862
 20
0.4255
 30
0.0
 10
-7.7862
 20
-0.7902
 30
0.0
 10
-7.7862
 20
-0.7902
 30
0.0
 10
-7.7862
 20
-0.7902
 30
0.0
 10
-7.7862
 20
-0.7902
 30
0.0
 10
-7.8109
 20
-1.7329
 30
0.0
 10
-7.8109
 20
-1.7329
 30
0.0
 10
-7.8109
 20
-1.7329
 30
0.0
 10
-7.8109
 20
-1.7329
 30
0.0
 10
-7.687
 20
-2.0307
 30
0.0
 10
-7.687
 20
-2.0307
 30
0.0
 10
-7.687
 20
-2.0307
 30
0.0
 10
-7.687
 20
-2.0307
 30
0.0
 10
-7.5384
 20
-2.3284
 30
0.0
 10
-7.5384
 20
-2.3284
 30
0.0
 10
-7.5384
 20
-2.3284
 30
0.0
 10
-7.5384
 20
-2.3284
 30
0.0
 10
-7.3404
 20
-2.3284
 30
0.0
 10
-7.3404
 20
-2.3284
 30
0.0
 10
-7.3404
 20
-2.3284
 30
0.0
 10
-7.3404
 20
-2.3284
 30
0.0
 10
-5.6568
 20
-0.8646
 30
0.0
 10
-5.6568
 20
-0.8646
 30
0.0
 10
-5.6568
 20
-0.8646
 30
0.0
 10
-5.6568
 20
-0.8646
 30
0.0
 10
-4.6417
 20
-2.254
 30
0.0
 10
-4.6417
 20
-2.254
 30
0.0
 10
-4.6417
 20
-2.254
 30
0.0
 10
-4.6417
 20
-2.254
 30
0.0
 10
-4.4931
 20
-2.2044
 30
0.0
 10
-4.4931
 20
-2.2044
 30
0.0
 10
-4.4931
 20
-2.2044
 30
0.0
 10
-4.4931
 20
-2.2044
 30
0.0
 10
-2.7846
 20
-0.8397
 30
0.0
 10
-2.7846
 20
-0.8397
 30
0.0
 10
-2.7846
 20
-0.8397
 30
0.0
 10
-2.7846
 20
-0.8397
 30
0.0
 10
-1.819
 20
-2.2787
 30
0.0
 10
-1.819
 20
-2.2787
 30
0.0
 10
-1.819
 20
-2.2787
 30
0.0
 10
-1.819
 20
-2.2787
 30
0.0
 10
-1.6209
 20
-2.2787
 30
0.0
 10
-1.6209
 20
-2.2787
 30
0.0
 10
-1.6209
 20
-2.2787
 30
0.0
 10
-1.6209
 20
-2.2787
 30
0.0
 10
0.0132
 20
-0.8646
 30
0.0
 10
0.0132
 20
-0.8646
 30
0.0
 10
0.0132
 20
-0.8646
 30
0.0
 10
0.0132
 20
-0.8646
 30
0.0
 10
1.0036
 20
-2.3036
 30
0.0
 10
1.0036
 20
-2.3036
 30
0.0
 10
1.0036
 20
-2.3036
 30
0.0
 10
1.0036
 20
-2.3036
 30
0.0
 10
1.1769
 20
-2.2787
 30
0.0
 10
1.1769
 20
-2.2787
 30
0.0
 10
1.1769
 20
-2.2787
 30
0.0
 10
1.1769
 20
-2.2787
 30
0.0
 10
2.8854
 20
-0.7902
 30
0.0
 10
2.8854
 20
-0.7902
 30
0.0
 10
2.8854
 20
-0.7902
 30
0.0
 10
2.8854
 20
-0.7902
 30
0.0
 10
3.8511
 20
-2.3036
 30
0.0
 10
3.8511
 20
-2.3036
 30
0.0
 10
3.8511
 20
-2.3036
 30
0.0
 10
3.8511
 20
-2.3036
 30
0.0
 10
4.0986
 20
-2.2291
 30
0.0
 10
4.0986
 20
-2.2291
 30
0.0
 10
4.0986
 20
-2.2291
 30
0.0
 10
4.0986
 20
-2.2291
 30
0.0
 10
5.6585
 20
-0.8646
 30
0.0
 10
5.6585
 20
-0.8646
 30
0.0
 10
5.6585
 20
-0.8646
 30
0.0
 10
5.6585
 20
-0.8646
 30
0.0
 10
6.6489
 20
-2.254
 30
0.0
 10
6.6489
 20
-2.254
 30
0.0
 10
6.6489
 20
-2.254
 30
0.0
 10
6.6489
 20
-2.254
 30
0.0
 10
6.847
 20
-2.254
 30
0.0
 10
6.847
 20
-2.254
 30
0.0
 10
6.847
 20
-2.254
 30
0.0
 10
6.847
 20
-2.254
 30
0.0
 10
8.5059
 20
-0.8894
 30
0.0
 10
8.5059
 20
-0.8894
 30
0.0
 10
8.5059
 20
-0.8894
 30
0.0
 10
8.5059
 20
-0.8894
 30
0.0
 10
9.5458
 20
-2.2044
 30
0.0
 10
9.5458
 20
-2.2044
 30
0.0
 10
9.5458
 20
-2.2044
 30
0.0
 10
9.5458
 20
-2.2044
 30
0.0
 10
9.7191
 20
-2.1547
 30
0.0
 10
9.7191
 20
-2.1547
 30
0.0
 10
9.7191
 20
-2.1547
 30
0.0
 10
9.7191
 20
-2.1547
 30
0.0
 10
11.5018
 20
-0.4924
 30
0.0
 10
11.5018
 20
-0.4924
 30
0.0
 10
11.5018
 20
-0.4924
 30
0.0
 10
11.5018
 20
-0.4924
 30
0.0
 10
13.9804
 20
-0.5701
 30
0.0
 10
13.9804
 20
-0.5701
 30
0.0
  0
SPLINE
  5
5C
330
1F
100
AcDbEntity
  8
VRSTVA_1
 62
   250
100
AcDbSpline
210
0.0
220
0.0
230
1.0
 70
     8
 71
     3
 72
   152
 73
   148
 74
     0
 42
0.0000000001
 43
0.0000000001
 40
0.0
 40
0.0
 40
0.0
 40
0.0
 40
0.0263157894736842
 40
0.0263157894736842
 40
0.0263157894736842
 40
0.0263157894736842
 40
0.0526315789473684
 40
0.0526315789473684
 40
0.0526315789473684
 40
0.0526315789473684
 40
0.0789473684210526
 40
0.0789473684210526
 40
0.0789473684210526
 40
0.0789473684210526
 40
0.1052631578947368
 40
0.1052631578947368
 40
0.1052631578947368
 40
0.1052631578947368
 40
0.131578947368421
 40
0.131578947368421
 40
0.131578947368421
 40
0.131578947368421
 40
0.1578947368421053
 40
0.1578947368421053
 40
0.1578947368421053
 40
0.1578947368421053
 40
0.1842105263157895
 40
0.1842105263157895
 40
0.1842105263157895
 40
0.1842105263157895
 40
0.2105263157894737
 40
0.2105263157894737
 40
0.2105263157894737
 40
0.2105263157894737
 40
0.2368421052631579
 40
0.2368421052631579
 40
0.2368421052631579
 40
0.2368421052631579
 40
0.2631578947368421
 40
0.2631578947368421
 40
0.2631578947368421
 40
0.2631578947368421
 40
0.2894736842105263
 40
0.2894736842105263
 40
0.2894736842105263
 40
0.2894736842105263
 40
0.3157894736842105
 40
0.3157894736842105
 40
0.3157894736842105
 40
0.3157894736842105
 40
0.3421052631578947
 40
0.3421052631578947
 40
0.3421052631578947
 40
0.3421052631578947
 40
0.3684210526315789
 40
0.3684210526315789
 40
0.3684210526315789
 40
0.3684210526315789
 40
0.3947368421052632
 40
0.3947368421052632
 40
0.3947368421052632
 40
0.3947368421052632
 40
0.4210526315789473
 40
0.4210526315789473
 40
0.4210526315789473
 40
0.4210526315789473
 40
0.4473684210526316
 40
0.4473684210526316
 40
0.4473684210526316
 40
0.4473684210526316
 40
0.4736842105263158
 40
0.4736842105263158
 40
0.4736842105263158
 40
0.4736842105263158
 40
0.5
 40
0.5
 40
0.5
 40
0.5
 40
0.5263157894736842
 40
0.5263157894736842
 40
0.5263157894736842
 40
0.5263157894736842
 40
0.5526315789473685
 40
0.5526315789473685
 40
0.5526315789473685
 40
0.5526315789473685
 40
0.5789473684210527
 40
0.5789473684210527
 40
0.5789473684210527
 40
0.5789473684210527
 40
0.6052631578947368
 40
0.6052631578947368
 40
0.6052631578947368
 40
0.6052631578947368
 40
0.631578947368421
 40
0.631578947368421
 40
0.631578947368421
 40
0.631578947368421
 40
0.6578947368421053
 40
0.6578947368421053
 40
0.6578947368421053
 40
0.6578947368421053
 40
0.6842105263157895
 40
0.6842105263157895
 40
0.6842105263157895
 40
0.6842105263157895
 40
0.7105263157894737
 40
0.7105263157894737
 40
0.7105263157894737
 40
0.7105263157894737
 40
0.7368421052631579
 40
0.7368421052631579
 40
0.7368421052631579
 40
0.7368421052631579
 40
0.7631578947368421
 40
0.7631578947368421
 40
0.7631578947368421
 40
0.7631578947368421
 40
0.7894736842105263
 40
0.7894736842105263
 40
0.7894736842105263
 40
0.7894736842105263
 40
0.8157894736842105
 40
0.8157894736842105
 40
0.8157894736842105
 40
0.8157894736842105
 40
0.8421052631578947
 40
0.8421052631578947
 40
0.8421052631578947
 40
0.8421052631578947
 40
0.868421052631579
 40
0.868421052631579
 40
0.868421052631579
 40
0.868421052631579
 40
0.8947368421052632
 40
0.8947368421052632
 40
0.8947368421052632
 40
0.8947368421052632
 40
0.9210526315789473
 40
0.9210526315789473
 40
0.9210526315789473
 40
0.9210526315789473
 40
0.9473684210526315
 40
0.9473684210526315
 40
0.9473684210526315
 40
0.9473684210526315
 40
1.0
 40
1.0
 40
1.0
 40
1.0
 10
-24.6416
 20
-0.5254
 30
0.0
 10
-24.6416
 20
-0.5254
 30
0.0
 10
-22.0896
 20
-0.4897
 30
0.0
 10
-22.0896
 20
-0.4897
 30
0.0
 10
-22.0896
 20
-0.4897
 30
0.0
 10
-22.0896
 20
-0.4897
 30
0.0
 10
-20.32
 20
-2.2107
 30
0.0
 10
-20.32
 20
-2.2107
 30
0.0
 10
-20.32
 20
-2.2107
 30
0.0
 10
-20.32
 20
-2.2107
 30
0.0
 10
-20.1898
 20
-2.2369
 30
0.0
 10
-20.1898
 20
-2.2369
 30
0.0
 10
-20.1898
 20
-2.2369
 30
0.0
 10
-20.1898
 20
-2.2369
 30
0.0
 10
-18.5505
 20
-0.8808
 30
0.0
 10
-18.5505
 20
-0.8808
 30
0.0
 10
-18.5505
 20
-0.8808
 30
0.0
 10
-18.5505
 20
-0.8808
 30
0.0
 10
-17.5616
 20
-2.3411
 30
0.0
 10
-17.5616
 20
-2.3411
 30
0.0
 10
-17.5616
 20
-2.3411
 30
0.0
 10
-17.5616
 20
-2.3411
 30
0.0
 10
-17.4055
 20
-2.3411
 30
0.0
 10
-17.4055
 20
-2.3411
 30
0.0
 10
-17.4055
 20
-2.3411
 30
0.0
 10
-17.4055
 20
-2.3411
 30
0.0
 10
-15.74
 20
-0.9591
 30
0.0
 10
-15.74
 20
-0.9591
 30
0.0
 10
-15.74
 20
-0.9591
 30
0.0
 10
-15.74
 20
-0.9591
 30
0.0
 10
-14.7512
 20
-2.2889
 30
0.0
 10
-14.7512
 20
-2.2889
 30
0.0
 10
-14.7512
 20
-2.2889
 30
0.0
 10
-14.7512
 20
-2.2889
 30
0.0
 10
-14.517
 20
-2.2369
 30
0.0
 10
-14.517
 20
-2.2369
 30
0.0
 10
-14.517
 20
-2.2369
 30
0.0
 10
-14.517
 20
-2.2369
 30
0.0
 10
-12.9295
 20
-0.8548
 30
0.0
 10
-12.9295
 20
-0.8548
 30
0.0
 10
-12.9295
 20
-0.8548
 30
0.0
 10
-12.9295
 20
-0.8548
 30
0.0
 10
-12.0187
 20
-2.2629
 30
0.0
 10
-12.0187
 20
-2.2629
 30
0.0
 10
-12.0187
 20
-2.2629
 30
0.0
 10
-12.0187
 20
-2.2629
 30
0.0
 10
-11.7845
 20
-2.3411
 30
0.0
 10
-11.7845
 20
-2.3411
 30
0.0
 10
-11.7845
 20
-2.3411
 30
0.0
 10
-11.7845
 20
-2.3411
 30
0.0
 10
-10.093
 20
-0.907
 30
0.0
 10
-10.093
 20
-0.907
 30
0.0
 10
-10.093
 20
-0.907
 30
0.0
 10
-10.093
 20
-0.907
 30
0.0
 10
-9.5987
 20
-1.976
 30
0.0
 10
-9.5987
 20
-1.976
 30
0.0
 10
-9.5987
 20
-1.976
 30
0.0
 10
-9.5987
 20
-1.976
 30
0.0
 10
-9.3124
 20
-1.95
 30
0.0
 10
-9.3124
 20
-1.95
 30
0.0
 10
-9.3124
 20
-1.95
 30
0.0
 10
-9.3124
 20
-1.95
 30
0.0
 10
-9.3644
 20
0.1622
 30
0.0
 10
-9.3644
 20
0.1622
 30
0.0
 10
-9.3644
 20
0.1622
 30
0.0
 10
-9.3644
 20
0.1622
 30
0.0
 10
-9.3905
 20
1.6485
 30
0.0
 10
-9.3905
 20
1.6485
 30
0.0
 10
-9.3905
 20
1.6485
 30
0.0
 10
-9.3905
 20
1.6485
 30
0.0
 10
-9.6406
 20
3.5871
 30
0.0
 10
-9.6406
 20
3.5871
 30
0.0
 10
-9.6406
 20
3.5871
 30
0.0
 10
-9.6406
 20
3.5871
 30
0.0
 10
-10.0602
 20
4.7516
 30
0.0
 10
-10.0602
 20
4.7516
 30
0.0
 10
-10.0602
 20
4.7516
 30
0.0
 10
-10.0602
 20
4.7516
 30
0.0
 10
-10.1087
 20
5.5764
 30
0.0
 10
-10.1087
 20
5.5764
 30
0.0
 10
-10.1087
 20
5.5764
 30
0.0
 10
-10.1087
 20
5.5764
 30
0.0
 10
-9.8987
 20
6.4821
 30
0.0
 10
-9.8987
 20
6.4821
 30
0.0
 10
-9.8987
 20
6.4821
 30
0.0
 10
-9.8987
 20
6.4821
 30
0.0
 10
-8.8819
 20
9.4742
 30
0.0
 10
-8.8819
 20
9.4742
 30
0.0
 10
-8.8819
 20
9.4742
 30
0.0
 10
-8.8819
 20
9.4742
 30
0.0
 10
-9.0595
 20
9.5228
 30
0.0
 10
-9.0595
 20
9.5228
 30
0.0
 10
-9.0595
 20
9.5228
 30
0.0
 10
-9.0595
 20
9.5228
 30
0.0
 10
-10.0852
 20
8.12
 30
0.0
 10
-10.0852
 20
8.12
 30
0.0
 10
-10.0852
 20
8.12
 30
0.0
 10
-10.0852
 20
8.12
 30
0.0
 10
-11.726
 20
9.4968
 30
0.0
 10
-11.726
 20
9.4968
 30
0.0
 10
-11.726
 20
9.4968
 30
0.0
 10
-11.726
 20
9.4968
 30
0.0
 10
-11.8814
 20
9.501
 30
0.0
 10
-11.8814
 20
9.501
 30
0.0
 10
-11.8814
 20
9.501
 30
0.0
 10
-11.8814
 20
9.501
 30
0.0
 10
-12.9195
 20
8.1442
 30
0.0
 10
-12.9195
 20
8.1442
 30
0.0
 10
-12.9195
 20
8.1442
 30
0.0
 10
-12.9195
 20
8.1442
 30
0.0
 10
-14.5219
 20
9.4557
 30
0.0
 10
-14.5219
 20
9.4557
 30
0.0
 10
-14.5219
 20
9.4557
 30
0.0
 10
-14.5219
 20
9.4557
 30
0.0
 10
-14.7024
 20
9.4784
 30
0.0
 10
-14.7024
 20
9.4784
 30
0.0
 10
-14.7024
 20
9.4784
 30
0.0
 10
-14.7024
 20
9.4784
 30
0.0
 10
-15.6728
 20
8.1442
 30
0.0
 10
-15.6728
 20
8.1442
 30
0.0
 10
-15.6728
 20
8.1442
 30
0.0
 10
-15.6728
 20
8.1442
 30
0.0
 10
-17.3881
 20
9.5462
 30
0.0
 10
-17.3881
 20
9.5462
 30
0.0
 10
-17.3881
 20
9.5462
 30
0.0
 10
-17.3881
 20
9.5462
 30
0.0
 10
-17.546
 20
9.5462
 30
0.0
 10
-17.546
 20
9.5462
 30
0.0
 10
-17.546
 20
9.5462
 30
0.0
 10
-17.546
 20
9.5462
 30
0.0
 10
-18.5616
 20
8.1894
 30
0.0
 10
-18.5616
 20
8.1894
 30
0.0
 10
-18.5616
 20
8.1894
 30
0.0
 10
-18.5616
 20
8.1894
 30
0.0
 10
-20.164
 20
9.4784
 30
0.0
 10
-20.164
 20
9.4784
 30
0.0
 10
-20.164
 20
9.4784
 30
0.0
 10
-20.164
 20
9.4784
 30
0.0
 10
-20.322
 20
9.4784
 30
0.0
 10
-20.322
 20
9.4784
 30
0.0
 10
-20.322
 20
9.4784
 30
0.0
 10
-20.322
 20
9.4784
 30
0.0
 10
-22.0146
 20
7.8049
 30
0.0
 10
-22.0146
 20
7.8049
 30
0.0
 10
-22.0146
 20
7.8049
 30
0.0
 10
-22.0146
 20
7.8049
 30
0.0
 10
-24.6141
 20
7.7772
 30
0.0
 10
-24.6141
 20
7.7772
 30
0.0
  0
SPLINE
  5
5D
330
1F
100
AcDbEntity
  8
VRSTVA_1
 62
   250
100
AcDbSpline
210
0.0
220
0.0
230
1.0
 70
    24
 71
     3
 72
     8
 73
     4
 74
     0
 42
0.0000000001
 43
0.0000000001
 40
0.0
 40
0.0
 40
0.0
 40
0.0
 40
1.0
 40
1.0
 40
1.0
 40
1.0
 10
-22.0006
 20
-0.5449
 30
0.0
 10
-22.0006
 20
-0.5449
 30
0.0
 10
-22.0006
 20
7.7862
 30
0.0
 10
-22.0006
 20
7.7862
 30
0.0
  0
SPLINE
  5
5E
330
1F
100
AcDbEntity
  8
VRSTVA_1
 62
   250
100
AcDbSpline
210
0.0
220
0.0
230
1.0
 70
    24
 71
     3
 72
     8
 73
     4
 74
     0
 42
0.0000000001
 43
0.0000000001
 40
0.0
 40
0.0
 40
0.0
 40
0.0
 40
1.0
 40
1.0
 40
1.0
 40
1.0
 10
-20.2511
 20
-2.2944
 30
0.0
 10
-20.2511
 20
-2.2944
 30
0.0
 10
-20.2511
 20
9.5357
 30
0.0
 10
-20.2511
 20
9.5357
 30
0.0
  0
SPLINE
  5
5F
330
1F
100
AcDbEntity
  8
VRSTVA_1
 62
   250
100
AcDbSpline
210
0.0
220
0.0
230
1.0
 70
    24
 71
     3
 72
     8
 73
     4
 74
     0
 42
0.0000000001
 43
0.0000000001
 40
0.0
 40
0.0
 40
0.0
 40
0.0
 40
1.0
 40
1.0
 40
1.0
 40
1.0
 10
-18.5633
 20
-0.8781
 30
0.0
 10
-18.5633
 20
-0.8781
 30
0.0
 10
-18.5633
 20
8.1194
 30
0.0
 10
-18.5633
 20
8.1194
 30
0.0
  0
SPLINE
  5
60
330
1F
100
AcDbEntity
  8
VRSTVA_1
 62
   250
100
AcDbSpline
210
0.0
220
0.0
230
1.0
 70
    24
 71
     3
 72
     8
 73
     4
 74
     0
 42
0.0000000001
 43
0.0000000001
 40
0.0
 40
0.0
 40
0.0
 40
0.0
 40
1.0
 40
1.0
 40
1.0
 40
1.0
 10
-15.737
 20
-0.8786
 30
0.0
 10
-15.737
 20
-0.8786
 30
0.0
 10
-15.737
 20
8.12
 30
0.0
 10
-15.737
 20
8.12
 30
0.0
  0
SPLINE
  5
61
330
1F
100
AcDbEntity
  8
VRSTVA_1
 62
   250
100
AcDbSpline
210
0.0
220
0.0
230
1.0
 70
    24
 71
     3
 72
     8
 73
     4
 74
     0
 42
0.0000000001
 43
0.0000000001
 40
0.0
 40
0.0
 40
0.0
 40
0.0
 40
1.0
 40
1.0
 40
1.0
 40
1.0
 10
-12.9111
 20
-0.8786
 30
0.0
 10
-12.9111
 20
-0.8786
 30
0.0
 10
-12.9111
 20
8.12
 30
0.0
 10
-12.9111
 20
8.12
 30
0.0
  0
SPLINE
  5
62
330
1F
100
AcDbEntity
  8
VRSTVA_1
 62
   250
100
AcDbSpline
210
0.0
220
0.0
230
1.0
 70
    24
 71
     3
 72
     8
 73
     4
 74
     0
 42
0.0000000001
 43
0.0000000001
 40
0.0
 40
0.0
 40
0.0
 40
0.0
 40
1.0
 40
1.0
 40
1.0
 40
1.0
 10
-10.0853
 20
-0.8786
 30
0.0
 10
-10.0853
 20
-0.8786
 30
0.0
 10
-10.0853
 20
8.12
 30
0.0
 10
-10.0853
 20
8.12
 30
0.0
  0
SPLINE
  5
63
330
1F
100
AcDbEntity
  8
VRSTVA_1
  6
NEW_LINE1
 62
   250
100
AcDbSpline
210
0.0
220
0.0
230
1.0
 70
    24
 71
     3
 72
     8
 73
     4
 74
     0
 42
0.0000000001
 43
0.0000000001
 40
0.0
 40
0.0
 40
0.0
 40
0.0
 40
1.0
 40
1.0
 40
1.0
 40
1.0
 10
-45.902
 20
3.6207
 30
0.0
 10
-45.902
 20
3.6207
 30
0.0
 10
50.2892
 20
3.6207
 30
0.0
 10
50.2892
 20
3.6207
 30
0.0
  0
SPLINE
  5
65
330
1F
100
AcDbEntity
  8
VRSTVA_1
 62
   250
100
AcDbSpline
210
0.0
220
0.0
230
1.0
 70
    24
 71
     3
 72
     8
 73
     4
 74
     0
 42
0.0000000001
 43
0.0000000001
 40
0.0
 40
0.0
 40
0.0
 40
0.0
 40
1.0
 40
1.0
 40
1.0
 40
1.0
 10
22.4639
 20
-10.6761
 30
0.0
 10
22.4639
 20
-10.6761
 30
0.0
 10
22.4639
 20
14.7189
 30
0.0
 10
22.4639
 20
14.7189
 30
0.0
  0
SPLINE
  5
66
330
1F
100
AcDbEntity
  8
VRSTVA_1
 62
   250
100
AcDbSpline
210
0.0
220
0.0
230
1.0
 70
    11
 71
     3
 72
    20
 73
    16
 74
     0
 42
0.0000000001
 43
0.0000000001
 40
0.0
 40
0.0
 40
0.0
 40
0.0
 40
0.2
 40
0.2
 40
0.2
 40
0.2
 40
0.4
 40
0.4
 40
0.4
 40
0.4
 40
0.6
 40
0.6
 40
0.6
 40
0.6
 40
1.0
 40
1.0
 40
1.0
 40
1.0
 10
21.9972
 20
-6.1066
 30
0.0
 10
21.9972
 20
-6.1066
 30
0.0
 10
22.4205
 20
-3.1066
 30
0.0
 10
22.4205
 20
-3.1066
 30
0.0
 10
22.4205
 20
-3.1066
 30
0.0
 10
22.4205
 20
-3.1066
 30
0.0
 10
22.5145
 20
-3.1066
 30
0.0
 10
22.5145
 20
-3.1066
 30
0.0
 10
22.5145
 20
-3.1066
 30
0.0
 10
22.5145
 20
-3.1066
 30
0.0
 10
22.9659
 20
-6.1066
 30
0.0
 10
22.9659
 20
-6.1066
 30
0.0
 10
22.9659
 20
-6.1066
 30
0.0
 10
22.9659
 20
-6.1066
 30
0.0
 10
21.9972
 20
-6.1066
 30
0.0
 10
21.9972
 20
-6.1066
 30
0.0
  0
SPLINE
  5
67
330
1F
100
AcDbEntity
  8
VRSTVA_1
 62
   250
100
AcDbSpline
210
0.0
220
0.0
230
1.0
 70
    11
 71
     3
 72
    84
 73
    80
 74
     0
 42
0.0000000001
 43
0.0000000001
 40
0.0
 40
0.0
 40
0.0
 40
0.0
 40
0.0476190476190476
 40
0.0476190476190476
 40
0.0476190476190476
 40
0.0476190476190476
 40
0.0952380952380952
 40
0.0952380952380952
 40
0.0952380952380952
 40
0.0952380952380952
 40
0.1428571428571428
 40
0.1428571428571428
 40
0.1428571428571428
 40
0.1428571428571428
 40
0.1904761904761905
 40
0.1904761904761905
 40
0.1904761904761905
 40
0.1904761904761905
 40
0.2380952380952381
 40
0.2380952380952381
 40
0.2380952380952381
 40
0.2380952380952381
 40
0.2857142857142857
 40
0.2857142857142857
 40
0.2857142857142857
 40
0.2857142857142857
 40
0.3333333333333333
 40
0.3333333333333333
 40
0.3333333333333333
 40
0.3333333333333333
 40
0.3809523809523809
 40
0.3809523809523809
 40
0.3809523809523809
 40
0.3809523809523809
 40
0.4285714285714285
 40
0.4285714285714285
 40
0.4285714285714285
 40
0.4285714285714285
 40
0.4761904761904762
 40
0.4761904761904762
 40
0.4761904761904762
 40
0.4761904761904762
 40
0.5238095238095238
 40
0.5238095238095238
 40
0.5238095238095238
 40
0.5238095238095238
 40
0.5714285714285714
 40
0.5714285714285714
 40
0.5714285714285714
 40
0.5714285714285714
 40
0.6190476190476191
 40
0.6190476190476191
 40
0.6190476190476191
 40
0.6190476190476191
 40
0.6666666666666666
 40
0.6666666666666666
 40
0.6666666666666666
 40
0.6666666666666666
 40
0.7142857142857143
 40
0.7142857142857143
 40
0.7142857142857143
 40
0.7142857142857143
 40
0.7619047619047619
 40
0.7619047619047619
 40
0.7619047619047619
 40
0.7619047619047619
 40
0.8095238095238095
 40
0.8095238095238095
 40
0.8095238095238095
 40
0.8095238095238095
 40
0.8571428571428571
 40
0.8571428571428571
 40
0.8571428571428571
 40
0.8571428571428571
 40
0.9047619047619048
 40
0.9047619047619048
 40
0.9047619047619048
 40
0.9047619047619048
 40
1.0
 40
1.0
 40
1.0
 40
1.0
 10
19.8103
 20
-8.8194
 30
0.0
 10
19.8103
 20
-8.8194
 30
0.0
 10
19.5519
 20
-8.5872
 30
0.0
 10
19.5519
 20
-8.5872
 30
0.0
 10
19.5519
 20
-8.5872
 30
0.0
 10
19.5519
 20
-8.5872
 30
0.0
 10
19.668
 20
-8.4512
 30
0.0
 10
19.668
 20
-8.4512
 30
0.0
 10
19.668
 20
-8.4512
 30
0.0
 10
19.668
 20
-8.4512
 30
0.0
 10
19.9401
 20
-8.6942
 30
0.0
 10
19.9401
 20
-8.6942
 30
0.0
 10
19.9401
 20
-8.6942
 30
0.0
 10
20.0579
 20
-8.6155
 30
0.0
 10
20.1611
 20
-8.5627
 30
0.0
 10
20.249
 20
-8.5352
 30
0.0
 10
20.249
 20
-8.5352
 30
0.0
 10
20.365
 20
-8.4989
 30
0.0
 10
20.4948
 20
-8.4809
 30
0.0
 10
20.6378
 20
-8.4814
 30
0.0
 10
20.6378
 20
-8.4814
 30
0.0
 10
20.8447
 20
-8.482
 30
0.0
 10
21.029
 20
-8.5244
 30
0.0
 10
21.19
 20
-8.6086
 30
0.0
 10
21.19
 20
-8.6086
 30
0.0
 10
21.3517
 20
-8.6928
 30
0.0
 10
21.4735
 20
-8.8103
 30
0.0
 10
21.5559
 20
-8.9615
 30
0.0
 10
21.5559
 20
-8.9615
 30
0.0
 10
21.6377
 20
-9.1133
 30
0.0
 10
21.6786
 20
-9.2737
 30
0.0
 10
21.6781
 20
-9.4435
 30
0.0
 10
21.6781
 20
-9.4435
 30
0.0
 10
21.6777
 20
-9.5705
 30
0.0
 10
21.6596
 20
-9.6853
 30
0.0
 10
21.6235
 20
-9.7881
 30
0.0
 10
21.6235
 20
-9.7881
 30
0.0
 10
21.5955
 20
-9.8671
 30
0.0
 10
21.5426
 20
-9.9591
 30
0.0
 10
21.4642
 20
-10.0648
 30
0.0
 10
21.4642
 20
-10.0648
 30
0.0
 10
21.4642
 20
-10.0648
 30
0.0
 10
21.7227
 20
-10.2969
 30
0.0
 10
21.7227
 20
-10.2969
 30
0.0
 10
21.7227
 20
-10.2969
 30
0.0
 10
21.7227
 20
-10.2969
 30
0.0
 10
21.6065
 20
-10.433
 30
0.0
 10
21.6065
 20
-10.433
 30
0.0
 10
21.6065
 20
-10.433
 30
0.0
 10
21.6065
 20
-10.433
 30
0.0
 10
21.3359
 20
-10.1895
 30
0.0
 10
21.3359
 20
-10.1895
 30
0.0
 10
21.3359
 20
-10.1895
 30
0.0
 10
21.1987
 20
-10.2794
 30
0.0
 10
21.0814
 20
-10.3392
 30
0.0
 10
20.9844
 20
-10.369
 30
0.0
 10
20.9844
 20
-10.369
 30
0.0
 10
20.8874
 20
-10.3988
 30
0.0
 10
20.7707
 20
-10.414
 30
0.0
 10
20.6348
 20
-10.4136
 30
0.0
 10
20.6348
 20
-10.4136
 30
0.0
 10
20.4274
 20
-10.413
 30
0.0
 10
20.2426
 20
-10.371
 30
0.0
 10
20.0806
 20
-10.2878
 30
0.0
 10
20.0806
 20
-10.2878
 30
0.0
 10
19.9185
 20
-10.2045
 30
0.0
 10
19.7962
 20
-10.0885
 30
0.0
 10
19.7129
 20
-9.9386
 30
0.0
 10
19.7129
 20
-9.9386
 30
0.0
 10
19.6301
 20
-9.7893
 30
0.0
 10
19.5887
 20
-9.623
 30
0.0
 10
19.5892
 20
-9.4401
 30
0.0
 10
19.5892
 20
-9.4401
 30
0.0
 10
19.5896
 20
-9.3168
 30
0.0
 10
19.6059
 20
-9.2092
 30
0.0
 10
19.6392
 20
-9.1171
 30
0.0
 10
19.6392
 20
-9.1171
 30
0.0
 10
19.6719
 20
-9.025
 30
0.0
 10
19.7291
 20
-8.9254
 30
0.0
 10
19.8103
 20
-8.8194
 30
0.0
  0
SPLINE
  5
68
330
1F
100
AcDbEntity
  8
VRSTVA_1
 62
   250
100
AcDbSpline
210
0.0
220
0.0
230
1.0
 70
    11
 71
     3
 72
    32
 73
    28
 74
     0
 42
0.0000000001
 43
0.0000000001
 40
0.0
 40
0.0
 40
0.0
 40
0.0
 40
0.125
 40
0.125
 40
0.125
 40
0.125
 40
0.25
 40
0.25
 40
0.25
 40
0.25
 40
0.375
 40
0.375
 40
0.375
 40
0.375
 40
0.5
 40
0.5
 40
0.5
 40
0.5
 40
0.625
 40
0.625
 40
0.625
 40
0.625
 40
0.75
 40
0.75
 40
0.75
 40
0.75
 40
1.0
 40
1.0
 40
1.0
 40
1.0
 10
19.9956
 20
-8.985
 30
0.0
 10
19.9276
 20
-9.0714
 30
0.0
 10
19.8808
 20
-9.147
 30
0.0
 10
19.8557
 20
-9.2113
 30
0.0
 10
19.8557
 20
-9.2113
 30
0.0
 10
19.831
 20
-9.2762
 30
0.0
 10
19.8181
 20
-9.3523
 30
0.0
 10
19.8178
 20
-9.4394
 30
0.0
 10
19.8178
 20
-9.4394
 30
0.0
 10
19.8172
 20
-9.6407
 30
0.0
 10
19.8849
 20
-9.8069
 30
0.0
 10
20.0209
 20
-9.939
 30
0.0
 10
20.0209
 20
-9.939
 30
0.0
 10
20.157
 20
-10.0707
 30
0.0
 10
20.3604
 20
-10.1371
 30
0.0
 10
20.6318
 20
-10.138
 30
0.0
 10
20.6318
 20
-10.138
 30
0.0
 10
20.7381
 20
-10.1383
 30
0.0
 10
20.8328
 20
-10.1283
 30
0.0
 10
20.9156
 20
-10.1082
 30
0.0
 10
20.9156
 20
-10.1082
 30
0.0
 10
20.9773
 20
-10.0938
 30
0.0
 10
21.0531
 20
-10.0635
 30
0.0
 10
21.143
 20
-10.0167
 30
0.0
 10
21.143
 20
-10.0167
 30
0.0
 10
21.143
 20
-10.0167
 30
0.0
 10
19.9956
 20
-8.985
 30
0.0
 10
19.9956
 20
-8.985
 30
0.0
  0
SPLINE
  5
69
330
1F
100
AcDbEntity
  8
VRSTVA_1
 62
   250
100
AcDbSpline
210
0.0
220
0.0
230
1.0
 70
    11
 71
     3
 72
    28
 73
    24
 74
     0
 42
0.0000000001
 43
0.0000000001
 40
0.0
 40
0.0
 40
0.0
 40
0.0
 40
0.1428571428571428
 40
0.1428571428571428
 40
0.1428571428571428
 40
0.1428571428571428
 40
0.2857142857142857
 40
0.2857142857142857
 40
0.2857142857142857
 40
0.2857142857142857
 40
0.4285714285714285
 40
0.4285714285714285
 40
0.4285714285714285
 40
0.4285714285714285
 40
0.5714285714285714
 40
0.5714285714285714
 40
0.5714285714285714
 40
0.5714285714285714
 40
0.7142857142857143
 40
0.7142857142857143
 40
0.7142857142857143
 40
0.7142857142857143
 40
1.0
 40
1.0
 40
1.0
 40
1.0
 10
20.138
 20
-8.8726
 30
0.0
 10
20.138
 20
-8.8726
 30
0.0
 10
21.2812
 20
-9.9
 30
0.0
 10
21.2812
 20
-9.9
 30
0.0
 10
21.2812
 20
-9.9
 30
0.0
 10
21.3393
 20
-9.8297
 30
0.0
 10
21.38
 20
-9.7644
 30
0.0
 10
21.4031
 20
-9.7047
 30
0.0
 10
21.4031
 20
-9.7047
 30
0.0
 10
21.434
 20
-9.6268
 30
0.0
 10
21.4492
 20
-9.5421
 30
0.0
 10
21.4495
 20
-9.4513
 30
0.0
 10
21.4495
 20
-9.4513
 30
0.0
 10
21.4501
 20
-9.2509
 30
0.0
 10
21.3801
 20
-9.0856
 30
0.0
 10
21.2389
 20
-8.9545
 30
0.0
 10
21.2389
 20
-8.9545
 30
0.0
 10
21.0977
 20
-8.8238
 30
0.0
 10
20.8994
 20
-8.7578
 30
0.0
 10
20.644
 20
-8.757
 30
0.0
 10
20.644
 20
-8.757
 30
0.0
 10
20.4531
 20
-8.7564
 30
0.0
 10
20.2841
 20
-8.7949
 30
0.0
 10
20.138
 20
-8.8726
 30
0.0
  0
SPLINE
  5
6A
330
1F
100
AcDbEntity
  8
VRSTVA_1
 62
   250
100
AcDbSpline
210
0.0
220
0.0
230
1.0
 70
    11
 71
     3
 72
    48
 73
    44
 74
     0
 42
0.0000000001
 43
0.0000000001
 40
0.0
 40
0.0
 40
0.0
 40
0.0
 40
0.0833333333333333
 40
0.0833333333333333
 40
0.0833333333333333
 40
0.0833333333333333
 40
0.1666666666666667
 40
0.1666666666666667
 40
0.1666666666666667
 40
0.1666666666666667
 40
0.25
 40
0.25
 40
0.25
 40
0.25
 40
0.3333333333333333
 40
0.3333333333333333
 40
0.3333333333333333
 40
0.3333333333333333
 40
0.4166666666666667
 40
0.4166666666666667
 40
0.4166666666666667
 40
0.4166666666666667
 40
0.5
 40
0.5
 40
0.5
 40
0.5
 40
0.5833333333333334
 40
0.5833333333333334
 40
0.5833333333333334
 40
0.5833333333333334
 40
0.6666666666666666
 40
0.6666666666666666
 40
0.6666666666666666
 40
0.6666666666666666
 40
0.75
 40
0.75
 40
0.75
 40
0.75
 40
0.8333333333333334
 40
0.8333333333333334
 40
0.8333333333333334
 40
0.8333333333333334
 40
1.0
 40
1.0
 40
1.0
 40
1.0
 10
21.6498
 20
-7.4402
 30
0.0
 10
21.6498
 20
-7.4402
 30
0.0
 10
21.1663
 20
-7.4388
 30
0.0
 10
21.1663
 20
-7.4388
 30
0.0
 10
21.1663
 20
-7.4388
 30
0.0
 10
21.1663
 20
-7.4388
 30
0.0
 10
21.1637
 20
-8.3151
 30
0.0
 10
21.1637
 20
-8.3151
 30
0.0
 10
21.1637
 20
-8.3151
 30
0.0
 10
21.1637
 20
-8.3151
 30
0.0
 10
20.936
 20
-8.3144
 30
0.0
 10
20.936
 20
-8.3144
 30
0.0
 10
20.936
 20
-8.3144
 30
0.0
 10
20.936
 20
-8.3144
 30
0.0
 10
19.6298
 20
-7.3884
 30
0.0
 10
19.6298
 20
-7.3884
 30
0.0
 10
19.6298
 20
-7.3884
 30
0.0
 10
19.6298
 20
-7.3884
 30
0.0
 10
19.6304
 20
-7.1857
 30
0.0
 10
19.6304
 20
-7.1857
 30
0.0
 10
19.6304
 20
-7.1857
 30
0.0
 10
19.6304
 20
-7.1857
 30
0.0
 10
20.9394
 20
-7.1897
 30
0.0
 10
20.9394
 20
-7.1897
 30
0.0
 10
20.9394
 20
-7.1897
 30
0.0
 10
20.9394
 20
-7.1897
 30
0.0
 10
20.9402
 20
-6.9169
 30
0.0
 10
20.9402
 20
-6.9169
 30
0.0
 10
20.9402
 20
-6.9169
 30
0.0
 10
20.9402
 20
-6.9169
 30
0.0
 10
21.1679
 20
-6.9176
 30
0.0
 10
21.1679
 20
-6.9176
 30
0.0
 10
21.1679
 20
-6.9176
 30
0.0
 10
21.1679
 20
-6.9176
 30
0.0
 10
21.1671
 20
-7.1904
 30
0.0
 10
21.1671
 20
-7.1904
 30
0.0
 10
21.1671
 20
-7.1904
 30
0.0
 10
21.1671
 20
-7.1904
 30
0.0
 10
21.6506
 20
-7.1918
 30
0.0
 10
21.6506
 20
-7.1918
 30
0.0
 10
21.6506
 20
-7.1918
 30
0.0
 10
21.6506
 20
-7.1918
 30
0.0
 10
21.6498
 20
-7.4402
 30
0.0
 10
21.6498
 20
-7.4402
 30
0.0
  0
SPLINE
  5
6B
330
1F
100
AcDbEntity
  8
VRSTVA_1
 62
   250
100
AcDbSpline
210
0.0
220
0.0
230
1.0
 70
    11
 71
     3
 72
    16
 73
    12
 74
     0
 42
0.0000000001
 43
0.0000000001
 40
0.0
 40
0.0
 40
0.0
 40
0.0
 40
0.25
 40
0.25
 40
0.25
 40
0.25
 40
0.5
 40
0.5
 40
0.5
 40
0.5
 40
1.0
 40
1.0
 40
1.0
 40
1.0
 10
20.9386
 20
-7.4381
 30
0.0
 10
20.9386
 20
-7.4381
 30
0.0
 10
20.028
 20
-7.4353
 30
0.0
 10
20.028
 20
-7.4353
 30
0.0
 10
20.028
 20
-7.4353
 30
0.0
 10
20.028
 20
-7.4353
 30
0.0
 10
20.9367
 20
-8.0702
 30
0.0
 10
20.9367
 20
-8.0702
 30
0.0
 10
20.9367
 20
-8.0702
 30
0.0
 10
20.9367
 20
-8.0702
 30
0.0
 10
20.9386
 20
-7.4381
 30
0.0
 10
20.9386
 20
-7.4381
 30
0.0
  0
SPLINE
  5
6C
330
1F
100
AcDbEntity
  8
VRSTVA_1
 62
   250
100
AcDbSpline
210
0.0
220
0.0
230
1.0
 70
    11
 71
     3
 72
    52
 73
    48
 74
     0
 42
0.0000000001
 43
0.0000000001
 40
0.0
 40
0.0
 40
0.0
 40
0.0
 40
0.0769230769230769
 40
0.0769230769230769
 40
0.0769230769230769
 40
0.0769230769230769
 40
0.1538461538461539
 40
0.1538461538461539
 40
0.1538461538461539
 40
0.1538461538461539
 40
0.2307692307692308
 40
0.2307692307692308
 40
0.2307692307692308
 40
0.2307692307692308
 40
0.3076923076923077
 40
0.3076923076923077
 40
0.3076923076923077
 40
0.3076923076923077
 40
0.3846153846153846
 40
0.3846153846153846
 40
0.3846153846153846
 40
0.3846153846153846
 40
0.4615384615384616
 40
0.4615384615384616
 40
0.4615384615384616
 40
0.4615384615384616
 40
0.5384615384615384
 40
0.5384615384615384
 40
0.5384615384615384
 40
0.5384615384615384
 40
0.6153846153846154
 40
0.6153846153846154
 40
0.6153846153846154
 40
0.6153846153846154
 40
0.6923076923076923
 40
0.6923076923076923
 40
0.6923076923076923
 40
0.6923076923076923
 40
0.7692307692307693
 40
0.7692307692307693
 40
0.7692307692307693
 40
0.7692307692307693
 40
0.8461538461538461
 40
0.8461538461538461
 40
0.8461538461538461
 40
0.8461538461538461
 40
1.0
 40
1.0
 40
1.0
 40
1.0
 10
20.656
 20
-6.6625
 30
0.0
 10
20.417
 20
-6.6618
 30
0.0
 10
20.2247
 20
-6.6367
 30
0.0
 10
20.0795
 20
-6.5869
 30
0.0
 10
20.0795
 20
-6.5869
 30
0.0
 10
19.9338
 20
-6.5376
 30
0.0
 10
19.8217
 20
-6.4638
 30
0.0
 10
19.7429
 20
-6.3667
 30
0.0
 10
19.7429
 20
-6.3667
 30
0.0
 10
19.6642
 20
-6.2695
 30
0.0
 10
19.625
 20
-6.1476
 30
0.0
 10
19.6255
 20
-6.0009
 30
0.0
 10
19.6255
 20
-6.0009
 30
0.0
 10
19.6258
 20
-5.8922
 30
0.0
 10
19.6482
 20
-5.7973
 30
0.0
 10
19.6922
 20
-5.7156
 30
0.0
 10
19.6922
 20
-5.7156
 30
0.0
 10
19.7357
 20
-5.6339
 30
0.0
 10
19.799
 20
-5.5667
 30
0.0
 10
19.8814
 20
-5.5134
 30
0.0
 10
19.8814
 20
-5.5134
 30
0.0
 10
19.9639
 20
-5.4605
 30
0.0
 10
20.0642
 20
-5.4189
 30
0.0
 10
20.1823
 20
-5.3892
 30
0.0
 10
20.1823
 20
-5.3892
 30
0.0
 10
20.3005
 20
-5.3589
 30
0.0
 10
20.4595
 20
-5.3444
 30
0.0
 10
20.6599
 20
-5.345
 30
0.0
 10
20.6599
 20
-5.345
 30
0.0
 10
20.8969
 20
-5.3457
 30
0.0
 10
21.0879
 20
-5.3707
 30
0.0
 10
21.2335
 20
-5.4197
 30
0.0
 10
21.2335
 20
-5.4197
 30
0.0
 10
21.3792
 20
-5.469
 30
0.0
 10
21.4913
 20
-5.5422
 30
0.0
 10
21.5706
 20
-5.6394
 30
0.0
 10
21.5706
 20
-5.6394
 30
0.0
 10
21.6498
 20
-5.7365
 30
0.0
 10
21.6889
 20
-5.8589
 30
0.0
 10
21.6885
 20
-6.0071
 30
0.0
 10
21.6885
 20
-6.0071
 30
0.0
 10
21.6879
 20
-6.2018
 30
0.0
 10
21.6178
 20
-6.3545
 30
0.0
 10
21.4778
 20
-6.4651
 30
0.0
 10
21.4778
 20
-6.4651
 30
0.0
 10
21.3095
 20
-6.5977
 30
0.0
 10
21.0351
 20
-6.6637
 30
0.0
 10
20.656
 20
-6.6625
 30
0.0
  0
SPLINE
  5
6D
330
1F
100
AcDbEntity
  8
VRSTVA_1
 62
   250
100
AcDbSpline
210
0.0
220
0.0
230
1.0
 70
    11
 71
     3
 72
    36
 73
    32
 74
     0
 42
0.0000000001
 43
0.0000000001
 40
0.0
 40
0.0
 40
0.0
 40
0.0
 40
0.1111111111111111
 40
0.1111111111111111
 40
0.1111111111111111
 40
0.1111111111111111
 40
0.2222222222222222
 40
0.2222222222222222
 40
0.2222222222222222
 40
0.2222222222222222
 40
0.3333333333333333
 40
0.3333333333333333
 40
0.3333333333333333
 40
0.3333333333333333
 40
0.4444444444444444
 40
0.4444444444444444
 40
0.4444444444444444
 40
0.4444444444444444
 40
0.5555555555555556
 40
0.5555555555555556
 40
0.5555555555555556
 40
0.5555555555555556
 40
0.6666666666666666
 40
0.6666666666666666
 40
0.6666666666666666
 40
0.6666666666666666
 40
0.7777777777777778
 40
0.7777777777777778
 40
0.7777777777777778
 40
0.7777777777777778
 40
1.0
 40
1.0
 40
1.0
 40
1.0
 10
20.6567
 20
-6.4075
 30
0.0
 10
20.9883
 20
-6.4085
 30
0.0
 10
21.2091
 20
-6.3702
 30
0.0
 10
21.3193
 20
-6.2929
 30
0.0
 10
21.3193
 20
-6.2929
 30
0.0
 10
21.4291
 20
-6.2156
 30
0.0
 10
21.4845
 20
-6.1203
 30
0.0
 10
21.4849
 20
-6.0065
 30
0.0
 10
21.4849
 20
-6.0065
 30
0.0
 10
21.4852
 20
-5.8922
 30
0.0
 10
21.43
 20
-5.7965
 30
0.0
 10
21.3201
 20
-5.7186
 30
0.0
 10
21.3201
 20
-5.7186
 30
0.0
 10
21.2103
 20
-5.6407
 30
0.0
 10
20.9898
 20
-5.6009
 30
0.0
 10
20.6592
 20
-5.5999
 30
0.0
 10
20.6592
 20
-5.5999
 30
0.0
 10
20.3266
 20
-5.5989
 30
0.0
 10
20.1054
 20
-5.6374
 30
0.0
 10
19.996
 20
-5.7146
 30
0.0
 10
19.996
 20
-5.7146
 30
0.0
 10
19.8862
 20
-5.7919
 30
0.0
 10
19.8314
 20
-5.8881
 30
0.0
 10
19.8311
 20
-6.0038
 30
0.0
 10
19.8311
 20
-6.0038
 30
0.0
 10
19.8307
 20
-6.1181
 30
0.0
 10
19.8788
 20
-6.2091
 30
0.0
 10
19.975
 20
-6.2776
 30
0.0
 10
19.975
 20
-6.2776
 30
0.0
 10
20.0976
 20
-6.363
 30
0.0
 10
20.3251
 20
-6.4065
 30
0.0
 10
20.6567
 20
-6.4075
 30
0.0
  0
SPLINE
  5
6E
330
1F
100
AcDbEntity
  8
VRSTVA_1
 62
   250
100
AcDbSpline
210
0.0
220
0.0
230
1.0
 70
    11
 71
     3
 72
    20
 73
    16
 74
     0
 42
0.0000000001
 43
0.0000000001
 40
0.0
 40
0.0
 40
0.0
 40
0.0
 40
0.2
 40
0.2
 40
0.2
 40
0.2
 40
0.4
 40
0.4
 40
0.4
 40
0.4
 40
0.6
 40
0.6
 40
0.6
 40
0.6
 40
1.0
 40
1.0
 40
1.0
 40
1.0
 10
22.9403
 20
13.4418
 30
0.0
 10
22.9403
 20
13.4418
 30
0.0
 10
22.517
 20
10.4418
 30
0.0
 10
22.517
 20
10.4418
 30
0.0
 10
22.517
 20
10.4418
 30
0.0
 10
22.517
 20
10.4418
 30
0.0
 10
22.4229
 20
10.4418
 30
0.0
 10
22.4229
 20
10.4418
 30
0.0
 10
22.4229
 20
10.4418
 30
0.0
 10
22.4229
 20
10.4418
 30
0.0
 10
21.9715
 20
13.4418
 30
0.0
 10
21.9715
 20
13.4418
 30
0.0
 10
21.9715
 20
13.4418
 30
0.0
 10
21.9715
 20
13.4418
 30
0.0
 10
22.9403
 20
13.4418
 30
0.0
 10
22.9403
 20
13.4418
 30
0.0
  0
SPLINE
  5
6F
330
1F
100
AcDbEntity
  8
VRSTVA_1
 62
   250
100
AcDbSpline
210
0.0
220
0.0
230
1.0
 70
    11
 71
     3
 72
    20
 73
    16
 74
     0
 42
0.0000000001
 43
0.0000000001
 40
0.0
 40
0.0
 40
0.0
 40
0.0
 40
0.2
 40
0.2
 40
0.2
 40
0.2
 40
0.4
 40
0.4
 40
0.4
 40
0.4
 40
0.6
 40
0.6
 40
0.6
 40
0.6
 40
1.0
 40
1.0
 40
1.0
 40
1.0
 10
32.3173
 20
11.9553
 30
0.0
 10
32.3173
 20
11.9553
 30
0.0
 10
49.0513
 20
11.9553
 30
0.0
 10
49.0513
 20
11.9553
 30
0.0
 10
49.0513
 20
11.9553
 30
0.0
 10
49.0513
 20
11.9553
 30
0.0
 10
49.0513
 20
-4.8298
 30
0.0
 10
49.0513
 20
-4.8298
 30
0.0
 10
49.0513
 20
-4.8298
 30
0.0
 10
49.0513
 20
-4.8298
 30
0.0
 10
32.3173
 20
-4.8298
 30
0.0
 10
32.3173
 20
-4.8298
 30
0.0
 10
32.3173
 20
-4.8298
 30
0.0
 10
32.3173
 20
-4.8298
 30
0.0
 10
32.3173
 20
11.9553
 30
0.0
 10
32.3173
 20
11.9553
 30
0.0
  0
SPLINE
  5
70
330
1F
100
AcDbEntity
  8
VRSTVA_1
 62
   250
100
AcDbSpline
210
0.0
220
0.0
230
1.0
 70
     8
 71
     3
 72
    16
 73
    12
 74
     0
 42
0.0000000001
 43
0.0000000001
 40
0.0
 40
0.0
 40
0.0
 40
0.0
 40
0.25
 40
0.25
 40
0.25
 40
0.25
 40
0.5
 40
0.5
 40
0.5
 40
0.5
 40
1.0
 40
1.0
 40
1.0
 40
1.0
 10
15.6526
 20
-2.5986
 30
0.0
 10
15.6526
 20
-2.5986
 30
0.0
 10
14.0022
 20
-2.5986
 30
0.0
 10
14.0022
 20
-2.5986
 30
0.0
 10
14.0022
 20
-2.5986
 30
0.0
 10
14.0022
 20
-2.5986
 30
0.0
 10
14.0022
 20
9.8011
 30
0.0
 10
14.0022
 20
9.8011
 30
0.0
 10
14.0022
 20
9.8011
 30
0.0
 10
14.0022
 20
9.8011
 30
0.0
 10
15.6526
 20
9.8011
 30
0.0
 10
15.6526
 20
9.8011
 30
0.0
  0
SPLINE
  5
71
330
1F
100
AcDbEntity
  8
VRSTVA_1
 62
   250
100
AcDbSpline
210
0.0
220
0.0
230
1.0
 70
     8
 71
     3
 72
    16
 73
    12
 74
     0
 42
0.0000000001
 43
0.0000000001
 40
0.0
 40
0.0
 40
0.0
 40
0.0
 40
0.25
 40
0.25
 40
0.25
 40
0.25
 40
0.5
 40
0.5
 40
0.5
 40
0.5
 40
1.0
 40
1.0
 40
1.0
 40
1.0
 10
32.3231
 20
-3.134
 30
0.0
 10
32.3231
 20
-3.134
 30
0.0
 10
15.6742
 20
-3.134
 30
0.0
 10
15.6742
 20
-3.134
 30
0.0
 10
15.6742
 20
-3.134
 30
0.0
 10
15.6742
 20
-3.134
 30
0.0
 10
15.6742
 20
10.2715
 30
0.0
 10
15.6742
 20
10.2715
 30
0.0
 10
15.6742
 20
10.2715
 30
0.0
 10
15.6742
 20
10.2715
 30
0.0
 10
32.3231
 20
10.2715
 30
0.0
 10
32.3231
 20
10.2715
 30
0.0
  0
SPLINE
  5
72
330
1F
100
AcDbEntity
  8
VRSTVA_1
 62
   250
100
AcDbSpline
210
0.0
220
0.0
230
1.0
 70
    24
 71
     3
 72
     8
 73
     4
 74
     0
 42
0.0000000001
 43
0.0000000001
 40
0.0
 40
0.0
 40
0.0
 40
0.0
 40
1.0
 40
1.0
 40
1.0
 40
1.0
 10
-47.7483
 20
-8.3819
 30
0.0
 10
-47.7483
 20
-8.3819
 30
0.0
 10
-47.7483
 20
15.367
 30
0.0
 10
-47.7483
 20
15.367
 30
0.0
  0
SPLINE
  5
73
330
1F
100
AcDbEntity
  8
VRSTVA_1
 62
   250
100
AcDbSpline
210
0.0
220
0.0
230
1.0
 70
    11
 71
     3
 72
    20
 73
    16
 74
     0
 42
0.0000000001
 43
0.0000000001
 40
0.0
 40
0.0
 40
0.0
 40
0.0
 40
0.2
 40
0.2
 40
0.2
 40
0.2
 40
0.4
 40
0.4
 40
0.4
 40
0.4
 40
0.6
 40
0.6
 40
0.6
 40
0.6
 40
1.0
 40
1.0
 40
1.0
 40
1.0
 10
-48.2158
 20
-6.9979
 30
0.0
 10
-48.2158
 20
-6.9979
 30
0.0
 10
-47.7926
 20
-3.9979
 30
0.0
 10
-47.7926
 20
-3.9979
 30
0.0
 10
-47.7926
 20
-3.9979
 30
0.0
 10
-47.7926
 20
-3.9979
 30
0.0
 10
-47.6985
 20
-3.9979
 30
0.0
 10
-47.6985
 20
-3.9979
 30
0.0
 10
-47.6985
 20
-3.9979
 30
0.0
 10
-47.6985
 20
-3.9979
 30
0.0
 10
-47.2471
 20
-6.9979
 30
0.0
 10
-47.2471
 20
-6.9979
 30
0.0
 10
-47.2471
 20
-6.9979
 30
0.0
 10
-47.2471
 20
-6.9979
 30
0.0
 10
-48.2158
 20
-6.9979
 30
0.0
 10
-48.2158
 20
-6.9979
 30
0.0
  0
SPLINE
  5
74
330
1F
100
AcDbEntity
  8
VRSTVA_1
 62
   250
100
AcDbSpline
210
0.0
220
0.0
230
1.0
 70
    11
 71
     3
 72
   120
 73
   116
 74
     0
 42
0.0000000001
 43
0.0000000001
 40
0.0
 40
0.0
 40
0.0
 40
0.0
 40
0.0333333333333333
 40
0.0333333333333333
 40
0.0333333333333333
 40
0.0333333333333333
 40
0.0666666666666667
 40
0.0666666666666667
 40
0.0666666666666667
 40
0.0666666666666667
 40
0.1
 40
0.1
 40
0.1
 40
0.1
 40
0.1333333333333333
 40
0.1333333333333333
 40
0.1333333333333333
 40
0.1333333333333333
 40
0.1666666666666667
 40
0.1666666666666667
 40
0.1666666666666667
 40
0.1666666666666667
 40
0.2
 40
0.2
 40
0.2
 40
0.2
 40
0.2333333333333333
 40
0.2333333333333333
 40
0.2333333333333333
 40
0.2333333333333333
 40
0.2666666666666667
 40
0.2666666666666667
 40
0.2666666666666667
 40
0.2666666666666667
 40
0.3
 40
0.3
 40
0.3
 40
0.3
 40
0.3333333333333333
 40
0.3333333333333333
 40
0.3333333333333333
 40
0.3333333333333333
 40
0.3666666666666666
 40
0.3666666666666666
 40
0.3666666666666666
 40
0.3666666666666666
 40
0.4
 40
0.4
 40
0.4
 40
0.4
 40
0.4333333333333333
 40
0.4333333333333333
 40
0.4333333333333333
 40
0.4333333333333333
 40
0.4666666666666667
 40
0.4666666666666667
 40
0.4666666666666667
 40
0.4666666666666667
 40
0.5
 40
0.5
 40
0.5
 40
0.5
 40
0.5333333333333333
 40
0.5333333333333333
 40
0.5333333333333333
 40
0.5333333333333333
 40
0.5666666666666667
 40
0.5666666666666667
 40
0.5666666666666667
 40
0.5666666666666667
 40
0.6
 40
0.6
 40
0.6
 40
0.6
 40
0.6333333333333333
 40
0.6333333333333333
 40
0.6333333333333333
 40
0.6333333333333333
 40
0.6666666666666666
 40
0.6666666666666666
 40
0.6666666666666666
 40
0.6666666666666666
 40
0.7
 40
0.7
 40
0.7
 40
0.7
 40
0.7333333333333333
 40
0.7333333333333333
 40
0.7333333333333333
 40
0.7333333333333333
 40
0.7666666666666667
 40
0.7666666666666667
 40
0.7666666666666667
 40
0.7666666666666667
 40
0.8
 40
0.8
 40
0.8
 40
0.8
 40
0.8333333333333334
 40
0.8333333333333334
 40
0.8333333333333334
 40
0.8333333333333334
 40
0.8666666666666667
 40
0.8666666666666667
 40
0.8666666666666667
 40
0.8666666666666667
 40
0.9
 40
0.9
 40
0.9
 40
0.9
 40
0.9333333333333333
 40
0.9333333333333333
 40
0.9333333333333333
 40
0.9333333333333333
 40
1.0
 40
1.0
 40
1.0
 40
1.0
 10
-49.0269
 20
0.6704
 30
0.0
 10
-49.0269
 20
0.6704
 30
0.0
 10
-49.2635
 20
0.6711
 30
0.0
 10
-49.2635
 20
0.6711
 30
0.0
 10
-49.2635
 20
0.6711
 30
0.0
 10
-49.2635
 20
0.6711
 30
0.0
 10
-49.2623
 20
1.5267
 30
0.0
 10
-49.2623
 20
1.5267
 30
0.0
 10
-49.2623
 20
1.5267
 30
0.0
 10
-49.2623
 20
1.5267
 30
0.0
 10
-48.513
 20
1.5244
 30
0.0
 10
-48.513
 20
1.5244
 30
0.0
 10
-48.513
 20
1.5244
 30
0.0
 10
-48.4085
 20
1.3929
 30
0.0
 10
-48.3303
 20
1.2572
 30
0.0
 10
-48.2777
 20
1.1173
 30
0.0
 10
-48.2777
 20
1.1173
 30
0.0
 10
-48.2254
 20
0.9775
 30
0.0
 10
-48.1995
 20
0.834
 30
0.0
 10
-48.1999
 20
0.6872
 30
0.0
 10
-48.1999
 20
0.6872
 30
0.0
 10
-48.2005
 20
0.4887
 30
0.0
 10
-48.2434
 20
0.3082
 30
0.0
 10
-48.329
 20
0.1467
 30
0.0
 10
-48.329
 20
0.1467
 30
0.0
 10
-48.4142
 20
-0.0154
 30
0.0
 10
-48.5377
 20
-0.1373
 30
0.0
 10
-48.6984
 20
-0.2196
 30
0.0
 10
-48.6984
 20
-0.2196
 30
0.0
 10
-48.8595
 20
-0.3019
 30
0.0
 10
-49.0393
 20
-0.3428
 30
0.0
 10
-49.2378
 20
-0.3422
 30
0.0
 10
-49.2378
 20
-0.3422
 30
0.0
 10
-49.4344
 20
-0.3416
 30
0.0
 10
-49.6177
 20
-0.2997
 30
0.0
 10
-49.7878
 20
-0.2167
 30
0.0
 10
-49.7878
 20
-0.2167
 30
0.0
 10
-49.9582
 20
-0.1344
 30
0.0
 10
-50.0845
 20
-0.0155
 30
0.0
 10
-50.1668
 20
0.139
 30
0.0
 10
-50.1668
 20
0.139
 30
0.0
 10
-50.2486
 20
0.2935
 30
0.0
 10
-50.2895
 20
0.4715
 30
0.0
 10
-50.2889
 20
0.6728
 30
0.0
 10
-50.2889
 20
0.6728
 30
0.0
 10
-50.2885
 20
0.8186
 30
0.0
 10
-50.2645
 20
0.9507
 30
0.0
 10
-50.2166
 20
1.0687
 30
0.0
 10
-50.2166
 20
1.0687
 30
0.0
 10
-50.1693
 20
1.1865
 30
0.0
 10
-50.1031
 20
1.279
 30
0.0
 10
-50.0183
 20
1.3456
 30
0.0
 10
-50.0183
 20
1.3456
 30
0.0
 10
-49.9334
 20
1.4125
 30
0.0
 10
-49.8232
 20
1.463
 30
0.0
 10
-49.6871
 20
1.4979
 30
0.0
 10
-49.6871
 20
1.4979
 30
0.0
 10
-49.6871
 20
1.4979
 30
0.0
 10
-49.6215
 20
1.2564
 30
0.0
 10
-49.6215
 20
1.2564
 30
0.0
 10
-49.6215
 20
1.2564
 30
0.0
 10
-49.7246
 20
1.2261
 30
0.0
 10
-49.8056
 20
1.1887
 30
0.0
 10
-49.8646
 20
1.1442
 30
0.0
 10
-49.8646
 20
1.1442
 30
0.0
 10
-49.9235
 20
1.0993
 30
0.0
 10
-49.9707
 20
1.0349
 30
0.0
 10
-50.0063
 20
0.9513
 30
0.0
 10
-50.0063
 20
0.9513
 30
0.0
 10
-50.0418
 20
0.8681
 30
0.0
 10
-50.06
 20
0.7751
 30
0.0
 10
-50.0603
 20
0.6735
 30
0.0
 10
-50.0603
 20
0.6735
 30
0.0
 10
-50.0607
 20
0.5512
 30
0.0
 10
-50.0421
 20
0.4453
 30
0.0
 10
-50.0052
 20
0.3563
 30
0.0
 10
-50.0052
 20
0.3563
 30
0.0
 10
-49.9683
 20
0.2668
 30
0.0
 10
-49.9196
 20
0.1952
 30
0.0
 10
-49.8591
 20
0.14
 30
0.0
 10
-49.8591
 20
0.14
 30
0.0
 10
-49.7987
 20
0.0852
 30
0.0
 10
-49.7324
 20
0.0427
 30
0.0
 10
-49.6596
 20
0.0119
 30
0.0
 10
-49.6596
 20
0.0119
 30
0.0
 10
-49.5351
 20
-0.0397
 30
0.0
 10
-49.3997
 20
-0.066
 30
0.0
 10
-49.2534
 20
-0.0664
 30
0.0
 10
-49.2534
 20
-0.0664
 30
0.0
 10
-49.0733
 20
-0.067
 30
0.0
 10
-48.9227
 20
-0.0364
 30
0.0
 10
-48.8011
 20
0.0253
 30
0.0
 10
-48.8011
 20
0.0253
 30
0.0
 10
-48.6797
 20
0.087
 30
0.0
 10
-48.5895
 20
0.1771
 30
0.0
 10
-48.5303
 20
0.2954
 30
0.0
 10
-48.5303
 20
0.2954
 30
0.0
 10
-48.4712
 20
0.4138
 30
0.0
 10
-48.4412
 20
0.5393
 30
0.0
 10
-48.4408
 20
0.6724
 30
0.0
 10
-48.4408
 20
0.6724
 30
0.0
 10
-48.4404
 20
0.7886
 30
0.0
 10
-48.4627
 20
0.9015
 30
0.0
 10
-48.5071
 20
1.0117
 30
0.0
 10
-48.5071
 20
1.0117
 30
0.0
 10
-48.5509
 20
1.1224
 30
0.0
 10
-48.5982
 20
1.2058
 30
0.0
 10
-48.6488
 20
1.2628
 30
0.0
 10
-48.6488
 20
1.2628
 30
0.0
 10
-48.6488
 20
1.2628
 30
0.0
 10
-49.0251
 20
1.264
 30
0.0
 10
-49.0251
 20
1.264
 30
0.0
 10
-49.0251
 20
1.264
 30
0.0
 10
-49.0251
 20
1.264
 30
0.0
 10
-49.0269
 20
0.6704
 30
0.0
 10
-49.0269
 20
0.6704
 30
0.0
  0
SPLINE
  5
75
330
1F
100
AcDbEntity
  8
VRSTVA_1
 62
   250
100
AcDbSpline
210
0.0
220
0.0
230
1.0
 70
    11
 71
     3
 72
    80
 73
    76
 74
     0
 42
0.0000000001
 43
0.0000000001
 40
0.0
 40
0.0
 40
0.0
 40
0.0
 40
0.05
 40
0.05
 40
0.05
 40
0.05
 40
0.1
 40
0.1
 40
0.1
 40
0.1
 40
0.15
 40
0.15
 40
0.15
 40
0.15
 40
0.2
 40
0.2
 40
0.2
 40
0.2
 40
0.25
 40
0.25
 40
0.25
 40
0.25
 40
0.3
 40
0.3
 40
0.3
 40
0.3
 40
0.35
 40
0.35
 40
0.35
 40
0.35
 40
0.4
 40
0.4
 40
0.4
 40
0.4
 40
0.45
 40
0.45
 40
0.45
 40
0.45
 40
0.5
 40
0.5
 40
0.5
 40
0.5
 40
0.55
 40
0.55
 40
0.55
 40
0.55
 40
0.6
 40
0.6
 40
0.6
 40
0.6
 40
0.65
 40
0.65
 40
0.65
 40
0.65
 40
0.7
 40
0.7
 40
0.7
 40
0.7
 40
0.75
 40
0.75
 40
0.75
 40
0.75
 40
0.8
 40
0.8
 40
0.8
 40
0.8
 40
0.85
 40
0.85
 40
0.85
 40
0.85
 40
0.9
 40
0.9
 40
0.9
 40
0.9
 40
1.0
 40
1.0
 40
1.0
 40
1.0
 10
-49.75
 20
3.8927
 30
0.0
 10
-49.75
 20
3.8927
 30
0.0
 10
-49.7315
 20
3.6462
 30
0.0
 10
-49.7315
 20
3.6462
 30
0.0
 10
-49.7315
 20
3.6462
 30
0.0
 10
-49.8289
 20
3.6244
 30
0.0
 10
-49.9
 20
3.5935
 30
0.0
 10
-49.9438
 20
3.5532
 30
0.0
 10
-49.9438
 20
3.5532
 30
0.0
 10
-50.0151
 20
3.4862
 30
0.0
 10
-50.0507
 20
3.4035
 30
0.0
 10
-50.051
 20
3.3052
 30
0.0
 10
-50.051
 20
3.3052
 30
0.0
 10
-50.0512
 20
3.2262
 30
0.0
 10
-50.0292
 20
3.157
 30
0.0
 10
-49.9852
 20
3.0971
 30
0.0
 10
-49.9852
 20
3.0971
 30
0.0
 10
-49.9285
 20
3.0188
 30
0.0
 10
-49.8455
 20
2.9569
 30
0.0
 10
-49.7365
 20
2.9115
 30
0.0
 10
-49.7365
 20
2.9115
 30
0.0
 10
-49.6275
 20
2.8665
 30
0.0
 10
-49.4719
 20
2.8425
 30
0.0
 10
-49.2697
 20
2.84
 30
0.0
 10
-49.2697
 20
2.84
 30
0.0
 10
-49.3602
 20
2.9
 30
0.0
 10
-49.4278
 20
2.9731
 30
0.0
 10
-49.4717
 20
3.0598
 30
0.0
 10
-49.4717
 20
3.0598
 30
0.0
 10
-49.5152
 20
3.146
 30
0.0
 10
-49.537
 20
3.2368
 30
0.0
 10
-49.5367
 20
3.3314
 30
0.0
 10
-49.5367
 20
3.3314
 30
0.0
 10
-49.5362
 20
3.4969
 30
0.0
 10
-49.4752
 20
3.6374
 30
0.0
 10
-49.3529
 20
3.7533
 30
0.0
 10
-49.3529
 20
3.7533
 30
0.0
 10
-49.2308
 20
3.869
 30
0.0
 10
-49.0735
 20
3.9269
 30
0.0
 10
-48.8807
 20
3.9264
 30
0.0
 10
-48.8807
 20
3.9264
 30
0.0
 10
-48.7537
 20
3.926
 30
0.0
 10
-48.6362
 20
3.8978
 30
0.0
 10
-48.5272
 20
3.8429
 30
0.0
 10
-48.5272
 20
3.8429
 30
0.0
 10
-48.4187
 20
3.7881
 30
0.0
 10
-48.3352
 20
3.7125
 30
0.0
 10
-48.2776
 20
3.6168
 30
0.0
 10
-48.2776
 20
3.6168
 30
0.0
 10
-48.2201
 20
3.5213
 30
0.0
 10
-48.1917
 20
3.413
 30
0.0
 10
-48.1921
 20
3.2916
 30
0.0
 10
-48.1921
 20
3.2916
 30
0.0
 10
-48.1927
 20
3.0847
 30
0.0
 10
-48.2689
 20
2.9165
 30
0.0
 10
-48.4217
 20
2.7867
 30
0.0
 10
-48.4217
 20
2.7867
 30
0.0
 10
-48.574
 20
2.6563
 30
0.0
 10
-48.8249
 20
2.5922
 30
0.0
 10
-49.1739
 20
2.5932
 30
0.0
 10
-49.1739
 20
2.5932
 30
0.0
 10
-49.5643
 20
2.5944
 30
0.0
 10
-49.8478
 20
2.6673
 30
0.0
 10
-50.0247
 20
2.8122
 30
0.0
 10
-50.0247
 20
2.8122
 30
0.0
 10
-50.1786
 20
2.9383
 30
0.0
 10
-50.2557
 20
3.1078
 30
0.0
 10
-50.255
 20
3.3213
 30
0.0
 10
-50.255
 20
3.3213
 30
0.0
 10
-50.2546
 20
3.4799
 30
0.0
 10
-50.2095
 20
3.6099
 30
0.0
 10
-50.1198
 20
3.7113
 30
0.0
 10
-50.1198
 20
3.7113
 30
0.0
 10
-50.0306
 20
3.8126
 30
0.0
 10
-49.9072
 20
3.8729
 30
0.0
 10
-49.75
 20
3.8927
 30
0.0
  0
SPLINE
  5
76
330
1F
100
AcDbEntity
  8
VRSTVA_1
 62
   250
100
AcDbSpline
210
0.0
220
0.0
230
1.0
 70
    11
 71
     3
 72
    40
 73
    36
 74
     0
 42
0.0000000001
 43
0.0000000001
 40
0.0
 40
0.0
 40
0.0
 40
0.0
 40
0.1
 40
0.1
 40
0.1
 40
0.1
 40
0.2
 40
0.2
 40
0.2
 40
0.2
 40
0.3
 40
0.3
 40
0.3
 40
0.3
 40
0.4
 40
0.4
 40
0.4
 40
0.4
 40
0.5
 40
0.5
 40
0.5
 40
0.5
 40
0.6
 40
0.6
 40
0.6
 40
0.6
 40
0.7
 40
0.7
 40
0.7
 40
0.7
 40
0.8
 40
0.8
 40
0.8
 40
0.8
 40
1.0
 40
1.0
 40
1.0
 40
1.0
 10
-48.8825
 20
2.8774
 30
0.0
 10
-48.7968
 20
2.8771
 30
0.0
 10
-48.7149
 20
2.8952
 30
0.0
 10
-48.6367
 20
2.9312
 30
0.0
 10
-48.6367
 20
2.9312
 30
0.0
 10
-48.5585
 20
2.9672
 30
0.0
 10
-48.4991
 20
3.0178
 30
0.0
 10
-48.458
 20
3.0826
 30
0.0
 10
-48.458
 20
3.0826
 30
0.0
 10
-48.4168
 20
3.1479
 30
0.0
 10
-48.3959
 20
3.2165
 30
0.0
 10
-48.3957
 20
3.288
 30
0.0
 10
-48.3957
 20
3.288
 30
0.0
 10
-48.3954
 20
3.3929
 30
0.0
 10
-48.4375
 20
3.4828
 30
0.0
 10
-48.5219
 20
3.5584
 30
0.0
 10
-48.5219
 20
3.5584
 30
0.0
 10
-48.6064
 20
3.6338
 30
0.0
 10
-48.7211
 20
3.6719
 30
0.0
 10
-48.8659
 20
3.6723
 30
0.0
 10
-48.8659
 20
3.6723
 30
0.0
 10
-49.0056
 20
3.6727
 30
0.0
 10
-49.1158
 20
3.6359
 30
0.0
 10
-49.1964
 20
3.5618
 30
0.0
 10
-49.1964
 20
3.5618
 30
0.0
 10
-49.2771
 20
3.4877
 30
0.0
 10
-49.3174
 20
3.3943
 30
0.0
 10
-49.3178
 20
3.2814
 30
0.0
 10
-49.3178
 20
3.2814
 30
0.0
 10
-49.3181
 20
3.169
 30
0.0
 10
-49.2784
 20
3.0737
 30
0.0
 10
-49.1981
 20
2.9955
 30
0.0
 10
-49.1981
 20
2.9955
 30
0.0
 10
-49.1179
 20
2.9172
 30
0.0
 10
-49.0127
 20
2.8777
 30
0.0
 10
-48.8825
 20
2.8774
 30
0.0
  0
SPLINE
  5
77
330
1F
100
AcDbEntity
  8
VRSTVA_1
 62
   250
100
AcDbSpline
210
0.0
220
0.0
230
1.0
 70
    11
 71
     3
 72
    20
 73
    16
 74
     0
 42
0.0000000001
 43
0.0000000001
 40
0.0
 40
0.0
 40
0.0
 40
0.0
 40
0.2
 40
0.2
 40
0.2
 40
0.2
 40
0.4
 40
0.4
 40
0.4
 40
0.4
 40
0.6
 40
0.6
 40
0.6
 40
0.6
 40
1.0
 40
1.0
 40
1.0
 40
1.0
 10
-48.1898
 20
4.0536
 30
0.0
 10
-48.1898
 20
4.0536
 30
0.0
 10
-50.277
 20
4.6455
 30
0.0
 10
-50.277
 20
4.6455
 30
0.0
 10
-50.277
 20
4.6455
 30
0.0
 10
-50.277
 20
4.6455
 30
0.0
 10
-50.2764
 20
4.844
 30
0.0
 10
-50.2764
 20
4.844
 30
0.0
 10
-50.2764
 20
4.844
 30
0.0
 10
-50.2764
 20
4.844
 30
0.0
 10
-48.1892
 20
4.2535
 30
0.0
 10
-48.1892
 20
4.2535
 30
0.0
 10
-48.1892
 20
4.2535
 30
0.0
 10
-48.1892
 20
4.2535
 30
0.0
 10
-48.1898
 20
4.0536
 30
0.0
 10
-48.1898
 20
4.0536
 30
0.0
  0
SPLINE
  5
78
330
1F
100
AcDbEntity
  8
VRSTVA_1
 62
   250
100
AcDbSpline
210
0.0
220
0.0
230
1.0
 70
    11
 71
     3
 72
    48
 73
    44
 74
     0
 42
0.0000000001
 43
0.0000000001
 40
0.0
 40
0.0
 40
0.0
 40
0.0
 40
0.0833333333333333
 40
0.0833333333333333
 40
0.0833333333333333
 40
0.0833333333333333
 40
0.1666666666666667
 40
0.1666666666666667
 40
0.1666666666666667
 40
0.1666666666666667
 40
0.25
 40
0.25
 40
0.25
 40
0.25
 40
0.3333333333333333
 40
0.3333333333333333
 40
0.3333333333333333
 40
0.3333333333333333
 40
0.4166666666666667
 40
0.4166666666666667
 40
0.4166666666666667
 40
0.4166666666666667
 40
0.5
 40
0.5
 40
0.5
 40
0.5
 40
0.5833333333333334
 40
0.5833333333333334
 40
0.5833333333333334
 40
0.5833333333333334
 40
0.6666666666666666
 40
0.6666666666666666
 40
0.6666666666666666
 40
0.6666666666666666
 40
0.75
 40
0.75
 40
0.75
 40
0.75
 40
0.8333333333333334
 40
0.8333333333333334
 40
0.8333333333333334
 40
0.8333333333333334
 40
1.0
 40
1.0
 40
1.0
 40
1.0
 10
-48.219
 20
5.7498
 30
0.0
 10
-48.219
 20
5.7498
 30
0.0
 10
-48.7025
 20
5.7512
 30
0.0
 10
-48.7025
 20
5.7512
 30
0.0
 10
-48.7025
 20
5.7512
 30
0.0
 10
-48.7025
 20
5.7512
 30
0.0
 10
-48.7052
 20
4.8749
 30
0.0
 10
-48.7052
 20
4.8749
 30
0.0
 10
-48.7052
 20
4.8749
 30
0.0
 10
-48.7052
 20
4.8749
 30
0.0
 10
-48.9329
 20
4.8756
 30
0.0
 10
-48.9329
 20
4.8756
 30
0.0
 10
-48.9329
 20
4.8756
 30
0.0
 10
-48.9329
 20
4.8756
 30
0.0
 10
-50.2391
 20
5.8015
 30
0.0
 10
-50.2391
 20
5.8015
 30
0.0
 10
-50.2391
 20
5.8015
 30
0.0
 10
-50.2391
 20
5.8015
 30
0.0
 10
-50.2385
 20
6.0042
 30
0.0
 10
-50.2385
 20
6.0042
 30
0.0
 10
-50.2385
 20
6.0042
 30
0.0
 10
-50.2385
 20
6.0042
 30
0.0
 10
-48.9295
 20
6.0003
 30
0.0
 10
-48.9295
 20
6.0003
 30
0.0
 10
-48.9295
 20
6.0003
 30
0.0
 10
-48.9295
 20
6.0003
 30
0.0
 10
-48.9287
 20
6.2731
 30
0.0
 10
-48.9287
 20
6.2731
 30
0.0
 10
-48.9287
 20
6.2731
 30
0.0
 10
-48.9287
 20
6.2731
 30
0.0
 10
-48.701
 20
6.2724
 30
0.0
 10
-48.701
 20
6.2724
 30
0.0
 10
-48.701
 20
6.2724
 30
0.0
 10
-48.701
 20
6.2724
 30
0.0
 10
-48.7018
 20
5.9996
 30
0.0
 10
-48.7018
 20
5.9996
 30
0.0
 10
-48.7018
 20
5.9996
 30
0.0
 10
-48.7018
 20
5.9996
 30
0.0
 10
-48.2183
 20
5.9982
 30
0.0
 10
-48.2183
 20
5.9982
 30
0.0
 10
-48.2183
 20
5.9982
 30
0.0
 10
-48.2183
 20
5.9982
 30
0.0
 10
-48.219
 20
5.7498
 30
0.0
 10
-48.219
 20
5.7498
 30
0.0
  0
SPLINE
  5
79
330
1F
100
AcDbEntity
  8
VRSTVA_1
 62
   250
100
AcDbSpline
210
0.0
220
0.0
230
1.0
 70
    11
 71
     3
 72
    16
 73
    12
 74
     0
 42
0.0000000001
 43
0.0000000001
 40
0.0
 40
0.0
 40
0.0
 40
0.0
 40
0.25
 40
0.25
 40
0.25
 40
0.25
 40
0.5
 40
0.5
 40
0.5
 40
0.5
 40
1.0
 40
1.0
 40
1.0
 40
1.0
 10
-48.9302
 20
5.7519
 30
0.0
 10
-48.9302
 20
5.7519
 30
0.0
 10
-49.8408
 20
5.7546
 30
0.0
 10
-49.8408
 20
5.7546
 30
0.0
 10
-49.8408
 20
5.7546
 30
0.0
 10
-49.8408
 20
5.7546
 30
0.0
 10
-48.9321
 20
5.1198
 30
0.0
 10
-48.9321
 20
5.1198
 30
0.0
 10
-48.9321
 20
5.1198
 30
0.0
 10
-48.9321
 20
5.1198
 30
0.0
 10
-48.9302
 20
5.7519
 30
0.0
 10
-48.9302
 20
5.7519
 30
0.0
  0
SPLINE
  5
7A
330
1F
100
AcDbEntity
  8
VRSTVA_1
 62
   250
100
AcDbSpline
210
0.0
220
0.0
230
1.0
 70
    11
 71
     3
 72
    28
 73
    24
 74
     0
 42
0.0000000001
 43
0.0000000001
 40
0.0
 40
0.0
 40
0.0
 40
0.0
 40
0.1428571428571428
 40
0.1428571428571428
 40
0.1428571428571428
 40
0.1428571428571428
 40
0.2857142857142857
 40
0.2857142857142857
 40
0.2857142857142857
 40
0.2857142857142857
 40
0.4285714285714285
 40
0.4285714285714285
 40
0.4285714285714285
 40
0.4285714285714285
 40
0.5714285714285714
 40
0.5714285714285714
 40
0.5714285714285714
 40
0.5714285714285714
 40
0.7142857142857143
 40
0.7142857142857143
 40
0.7142857142857143
 40
0.7142857142857143
 40
1.0
 40
1.0
 40
1.0
 40
1.0
 10
-49.5212
 20
6.6098
 30
0.0
 10
-49.5212
 20
6.6098
 30
0.0
 10
-49.9062
 20
6.5418
 30
0.0
 10
-49.9062
 20
6.5418
 30
0.0
 10
-49.9062
 20
6.5418
 30
0.0
 10
-49.9062
 20
6.5418
 30
0.0
 10
-50.2368
 20
6.5428
 30
0.0
 10
-50.2368
 20
6.5428
 30
0.0
 10
-50.2368
 20
6.5428
 30
0.0
 10
-50.2368
 20
6.5428
 30
0.0
 10
-50.236
 20
6.8254
 30
0.0
 10
-50.236
 20
6.8254
 30
0.0
 10
-50.236
 20
6.8254
 30
0.0
 10
-50.236
 20
6.8254
 30
0.0
 10
-49.9054
 20
6.8244
 30
0.0
 10
-49.9054
 20
6.8244
 30
0.0
 10
-49.9054
 20
6.8244
 30
0.0
 10
-49.9054
 20
6.8244
 30
0.0
 10
-49.5208
 20
6.7613
 30
0.0
 10
-49.5208
 20
6.7613
 30
0.0
 10
-49.5208
 20
6.7613
 30
0.0
 10
-49.5208
 20
6.7613
 30
0.0
 10
-49.5212
 20
6.6098
 30
0.0
 10
-49.5212
 20
6.6098
 30
0.0
  0
SPLINE
  5
7B
330
1F
100
AcDbEntity
  8
VRSTVA_1
 62
   250
100
AcDbSpline
210
0.0
220
0.0
230
1.0
 70
    11
 71
     3
 72
    28
 73
    24
 74
     0
 42
0.0000000001
 43
0.0000000001
 40
0.0
 40
0.0
 40
0.0
 40
0.0
 40
0.1428571428571428
 40
0.1428571428571428
 40
0.1428571428571428
 40
0.1428571428571428
 40
0.2857142857142857
 40
0.2857142857142857
 40
0.2857142857142857
 40
0.2857142857142857
 40
0.4285714285714285
 40
0.4285714285714285
 40
0.4285714285714285
 40
0.4285714285714285
 40
0.5714285714285714
 40
0.5714285714285714
 40
0.5714285714285714
 40
0.5714285714285714
 40
0.7142857142857143
 40
0.7142857142857143
 40
0.7142857142857143
 40
0.7142857142857143
 40
1.0
 40
1.0
 40
1.0
 40
1.0
 10
-49.5199
 20
7.0661
 30
0.0
 10
-49.5199
 20
7.0661
 30
0.0
 10
-49.9049
 20
6.9994
 30
0.0
 10
-49.9049
 20
6.9994
 30
0.0
 10
-49.9049
 20
6.9994
 30
0.0
 10
-49.9049
 20
6.9994
 30
0.0
 10
-50.2355
 20
7.0004
 30
0.0
 10
-50.2355
 20
7.0004
 30
0.0
 10
-50.2355
 20
7.0004
 30
0.0
 10
-50.2355
 20
7.0004
 30
0.0
 10
-50.2346
 20
7.2831
 30
0.0
 10
-50.2346
 20
7.2831
 30
0.0
 10
-50.2346
 20
7.2831
 30
0.0
 10
-50.2346
 20
7.2831
 30
0.0
 10
-49.904
 20
7.2821
 30
0.0
 10
-49.904
 20
7.2821
 30
0.0
 10
-49.904
 20
7.2821
 30
0.0
 10
-49.904
 20
7.2821
 30
0.0
 10
-49.5194
 20
7.2147
 30
0.0
 10
-49.5194
 20
7.2147
 30
0.0
 10
-49.5194
 20
7.2147
 30
0.0
 10
-49.5194
 20
7.2147
 30
0.0
 10
-49.5199
 20
7.0661
 30
0.0
 10
-49.5199
 20
7.0661
 30
0.0
  0
SPLINE
  5
7C
330
1F
100
AcDbEntity
  8
VRSTVA_1
 62
   250
100
AcDbSpline
210
0.0
220
0.0
230
1.0
 70
    11
 71
     3
 72
    20
 73
    16
 74
     0
 42
0.0000000001
 43
0.0000000001
 40
0.0
 40
0.0
 40
0.0
 40
0.0
 40
0.2
 40
0.2
 40
0.2
 40
0.2
 40
0.4
 40
0.4
 40
0.4
 40
0.4
 40
0.6
 40
0.6
 40
0.6
 40
0.6
 40
1.0
 40
1.0
 40
1.0
 40
1.0
 10
-47.2669
 20
14.2736
 30
0.0
 10
-47.2669
 20
14.2736
 30
0.0
 10
-47.6902
 20
11.2736
 30
0.0
 10
-47.6902
 20
11.2736
 30
0.0
 10
-47.6902
 20
11.2736
 30
0.0
 10
-47.6902
 20
11.2736
 30
0.0
 10
-47.7842
 20
11.2736
 30
0.0
 10
-47.7842
 20
11.2736
 30
0.0
 10
-47.7842
 20
11.2736
 30
0.0
 10
-47.7842
 20
11.2736
 30
0.0
 10
-48.2356
 20
14.2736
 30
0.0
 10
-48.2356
 20
14.2736
 30
0.0
 10
-48.2356
 20
14.2736
 30
0.0
 10
-48.2356
 20
14.2736
 30
0.0
 10
-47.2669
 20
14.2736
 30
0.0
 10
-47.2669
 20
14.2736
 30
0.0
  0
SPLINE
  5
7D
330
1F
100
AcDbEntity
  8
VRSTVA_1
 62
   250
100
AcDbSpline
210
0.0
220
0.0
230
1.0
 70
    24
 71
     3
 72
     8
 73
     4
 74
     0
 42
0.0000000001
 43
0.0000000001
 40
0.0
 40
0.0
 40
0.0
 40
0.0
 40
1.0
 40
1.0
 40
1.0
 40
1.0
 10
41.5139
 20
-11.4039
 30
0.0
 10
41.5139
 20
-11.4039
 30
0.0
 10
41.5139
 20
16.1363
 30
0.0
 10
41.5139
 20
16.1363
 30
0.0
  0
SPLINE
  5
7E
330
1F
100
AcDbEntity
  8
VRSTVA_1
 62
   250
100
AcDbSpline
210
0.0
220
0.0
230
1.0
 70
    11
 71
     3
 72
    20
 73
    16
 74
     0
 42
0.0000000001
 43
0.0000000001
 40
0.0
 40
0.0
 40
0.0
 40
0.0
 40
0.2
 40
0.2
 40
0.2
 40
0.2
 40
0.4
 40
0.4
 40
0.4
 40
0.4
 40
0.6
 40
0.6
 40
0.6
 40
0.6
 40
1.0
 40
1.0
 40
1.0
 40
1.0
 10
41.0472
 20
-7.9591
 30
0.0
 10
41.0472
 20
-7.9591
 30
0.0
 10
41.4705
 20
-4.9591
 30
0.0
 10
41.4705
 20
-4.9591
 30
0.0
 10
41.4705
 20
-4.9591
 30
0.0
 10
41.4705
 20
-4.9591
 30
0.0
 10
41.5645
 20
-4.9591
 30
0.0
 10
41.5645
 20
-4.9591
 30
0.0
 10
41.5645
 20
-4.9591
 30
0.0
 10
41.5645
 20
-4.9591
 30
0.0
 10
42.0159
 20
-7.9591
 30
0.0
 10
42.0159
 20
-7.9591
 30
0.0
 10
42.0159
 20
-7.9591
 30
0.0
 10
42.0159
 20
-7.9591
 30
0.0
 10
41.0472
 20
-7.9591
 30
0.0
 10
41.0472
 20
-7.9591
 30
0.0
  0
SPLINE
  5
7F
330
1F
100
AcDbEntity
  8
VRSTVA_1
 62
   250
100
AcDbSpline
210
0.0
220
0.0
230
1.0
 70
    11
 71
     3
 72
    84
 73
    80
 74
     0
 42
0.0000000001
 43
0.0000000001
 40
0.0
 40
0.0
 40
0.0
 40
0.0
 40
0.0476190476190476
 40
0.0476190476190476
 40
0.0476190476190476
 40
0.0476190476190476
 40
0.0952380952380952
 40
0.0952380952380952
 40
0.0952380952380952
 40
0.0952380952380952
 40
0.1428571428571428
 40
0.1428571428571428
 40
0.1428571428571428
 40
0.1428571428571428
 40
0.1904761904761905
 40
0.1904761904761905
 40
0.1904761904761905
 40
0.1904761904761905
 40
0.2380952380952381
 40
0.2380952380952381
 40
0.2380952380952381
 40
0.2380952380952381
 40
0.2857142857142857
 40
0.2857142857142857
 40
0.2857142857142857
 40
0.2857142857142857
 40
0.3333333333333333
 40
0.3333333333333333
 40
0.3333333333333333
 40
0.3333333333333333
 40
0.3809523809523809
 40
0.3809523809523809
 40
0.3809523809523809
 40
0.3809523809523809
 40
0.4285714285714285
 40
0.4285714285714285
 40
0.4285714285714285
 40
0.4285714285714285
 40
0.4761904761904762
 40
0.4761904761904762
 40
0.4761904761904762
 40
0.4761904761904762
 40
0.5238095238095238
 40
0.5238095238095238
 40
0.5238095238095238
 40
0.5238095238095238
 40
0.5714285714285714
 40
0.5714285714285714
 40
0.5714285714285714
 40
0.5714285714285714
 40
0.6190476190476191
 40
0.6190476190476191
 40
0.6190476190476191
 40
0.6190476190476191
 40
0.6666666666666666
 40
0.6666666666666666
 40
0.6666666666666666
 40
0.6666666666666666
 40
0.7142857142857143
 40
0.7142857142857143
 40
0.7142857142857143
 40
0.7142857142857143
 40
0.7619047619047619
 40
0.7619047619047619
 40
0.7619047619047619
 40
0.7619047619047619
 40
0.8095238095238095
 40
0.8095238095238095
 40
0.8095238095238095
 40
0.8095238095238095
 40
0.8571428571428571
 40
0.8571428571428571
 40
0.8571428571428571
 40
0.8571428571428571
 40
0.9047619047619048
 40
0.9047619047619048
 40
0.9047619047619048
 40
0.9047619047619048
 40
1.0
 40
1.0
 40
1.0
 40
1.0
 10
38.8603
 20
-9.7503
 30
0.0
 10
38.8603
 20
-9.7503
 30
0.0
 10
38.6019
 20
-9.5181
 30
0.0
 10
38.6019
 20
-9.5181
 30
0.0
 10
38.6019
 20
-9.5181
 30
0.0
 10
38.6019
 20
-9.5181
 30
0.0
 10
38.718
 20
-9.3821
 30
0.0
 10
38.718
 20
-9.3821
 30
0.0
 10
38.718
 20
-9.3821
 30
0.0
 10
38.718
 20
-9.3821
 30
0.0
 10
38.9901
 20
-9.6251
 30
0.0
 10
38.9901
 20
-9.6251
 30
0.0
 10
38.9901
 20
-9.6251
 30
0.0
 10
39.1079
 20
-9.5464
 30
0.0
 10
39.2111
 20
-9.4936
 30
0.0
 10
39.299
 20
-9.4661
 30
0.0
 10
39.299
 20
-9.4661
 30
0.0
 10
39.415
 20
-9.4298
 30
0.0
 10
39.5448
 20
-9.4118
 30
0.0
 10
39.6878
 20
-9.4123
 30
0.0
 10
39.6878
 20
-9.4123
 30
0.0
 10
39.8947
 20
-9.4129
 30
0.0
 10
40.079
 20
-9.4553
 30
0.0
 10
40.24
 20
-9.5395
 30
0.0
 10
40.24
 20
-9.5395
 30
0.0
 10
40.4017
 20
-9.6237
 30
0.0
 10
40.5235
 20
-9.7412
 30
0.0
 10
40.6059
 20
-9.8924
 30
0.0
 10
40.6059
 20
-9.8924
 30
0.0
 10
40.6877
 20
-10.0442
 30
0.0
 10
40.7286
 20
-10.2046
 30
0.0
 10
40.7281
 20
-10.3744
 30
0.0
 10
40.7281
 20
-10.3744
 30
0.0
 10
40.7277
 20
-10.5014
 30
0.0
 10
40.7096
 20
-10.6162
 30
0.0
 10
40.6735
 20
-10.719
 30
0.0
 10
40.6735
 20
-10.719
 30
0.0
 10
40.6455
 20
-10.798
 30
0.0
 10
40.5926
 20
-10.89
 30
0.0
 10
40.5142
 20
-10.9957
 30
0.0
 10
40.5142
 20
-10.9957
 30
0.0
 10
40.5142
 20
-10.9957
 30
0.0
 10
40.7727
 20
-11.2278
 30
0.0
 10
40.7727
 20
-11.2278
 30
0.0
 10
40.7727
 20
-11.2278
 30
0.0
 10
40.7727
 20
-11.2278
 30
0.0
 10
40.6565
 20
-11.3639
 30
0.0
 10
40.6565
 20
-11.3639
 30
0.0
 10
40.6565
 20
-11.3639
 30
0.0
 10
40.6565
 20
-11.3639
 30
0.0
 10
40.3859
 20
-11.1204
 30
0.0
 10
40.3859
 20
-11.1204
 30
0.0
 10
40.3859
 20
-11.1204
 30
0.0
 10
40.2487
 20
-11.2103
 30
0.0
 10
40.1314
 20
-11.2701
 30
0.0
 10
40.0344
 20
-11.2999
 30
0.0
 10
40.0344
 20
-11.2999
 30
0.0
 10
39.9374
 20
-11.3297
 30
0.0
 10
39.8207
 20
-11.3449
 30
0.0
 10
39.6848
 20
-11.3445
 30
0.0
 10
39.6848
 20
-11.3445
 30
0.0
 10
39.4774
 20
-11.3439
 30
0.0
 10
39.2926
 20
-11.3019
 30
0.0
 10
39.1306
 20
-11.2187
 30
0.0
 10
39.1306
 20
-11.2187
 30
0.0
 10
38.9685
 20
-11.1354
 30
0.0
 10
38.8462
 20
-11.0194
 30
0.0
 10
38.7629
 20
-10.8695
 30
0.0
 10
38.7629
 20
-10.8695
 30
0.0
 10
38.6801
 20
-10.7202
 30
0.0
 10
38.6387
 20
-10.5539
 30
0.0
 10
38.6392
 20
-10.371
 30
0.0
 10
38.6392
 20
-10.371
 30
0.0
 10
38.6396
 20
-10.2477
 30
0.0
 10
38.6559
 20
-10.1401
 30
0.0
 10
38.6892
 20
-10.048
 30
0.0
 10
38.6892
 20
-10.048
 30
0.0
 10
38.7219
 20
-9.9559
 30
0.0
 10
38.7791
 20
-9.8563
 30
0.0
 10
38.8603
 20
-9.7503
 30
0.0
  0
SPLINE
  5
80
330
1F
100
AcDbEntity
  8
VRSTVA_1
 62
   250
100
AcDbSpline
210
0.0
220
0.0
230
1.0
 70
    11
 71
     3
 72
    32
 73
    28
 74
     0
 42
0.0000000001
 43
0.0000000001
 40
0.0
 40
0.0
 40
0.0
 40
0.0
 40
0.125
 40
0.125
 40
0.125
 40
0.125
 40
0.25
 40
0.25
 40
0.25
 40
0.25
 40
0.375
 40
0.375
 40
0.375
 40
0.375
 40
0.5
 40
0.5
 40
0.5
 40
0.5
 40
0.625
 40
0.625
 40
0.625
 40
0.625
 40
0.75
 40
0.75
 40
0.75
 40
0.75
 40
1.0
 40
1.0
 40
1.0
 40
1.0
 10
39.0456
 20
-9.9159
 30
0.0
 10
38.9776
 20
-10.0023
 30
0.0
 10
38.9308
 20
-10.0779
 30
0.0
 10
38.9057
 20
-10.1422
 30
0.0
 10
38.9057
 20
-10.1422
 30
0.0
 10
38.881
 20
-10.2071
 30
0.0
 10
38.8681
 20
-10.2832
 30
0.0
 10
38.8678
 20
-10.3703
 30
0.0
 10
38.8678
 20
-10.3703
 30
0.0
 10
38.8672
 20
-10.5716
 30
0.0
 10
38.9349
 20
-10.7378
 30
0.0
 10
39.0709
 20
-10.8699
 30
0.0
 10
39.0709
 20
-10.8699
 30
0.0
 10
39.207
 20
-11.0016
 30
0.0
 10
39.4104
 20
-11.068
 30
0.0
 10
39.6818
 20
-11.0689
 30
0.0
 10
39.6818
 20
-11.0689
 30
0.0
 10
39.7881
 20
-11.0692
 30
0.0
 10
39.8828
 20
-11.0592
 30
0.0
 10
39.9656
 20
-11.0391
 30
0.0
 10
39.9656
 20
-11.0391
 30
0.0
 10
40.0273
 20
-11.0247
 30
0.0
 10
40.1031
 20
-10.9944
 30
0.0
 10
40.193
 20
-10.9476
 30
0.0
 10
40.193
 20
-10.9476
 30
0.0
 10
40.193
 20
-10.9476
 30
0.0
 10
39.0456
 20
-9.9159
 30
0.0
 10
39.0456
 20
-9.9159
 30
0.0
  0
SPLINE
  5
81
330
1F
100
AcDbEntity
  8
VRSTVA_1
 62
   250
100
AcDbSpline
210
0.0
220
0.0
230
1.0
 70
    11
 71
     3
 72
    28
 73
    24
 74
     0
 42
0.0000000001
 43
0.0000000001
 40
0.0
 40
0.0
 40
0.0
 40
0.0
 40
0.1428571428571428
 40
0.1428571428571428
 40
0.1428571428571428
 40
0.1428571428571428
 40
0.2857142857142857
 40
0.2857142857142857
 40
0.2857142857142857
 40
0.2857142857142857
 40
0.4285714285714285
 40
0.4285714285714285
 40
0.4285714285714285
 40
0.4285714285714285
 40
0.5714285714285714
 40
0.5714285714285714
 40
0.5714285714285714
 40
0.5714285714285714
 40
0.7142857142857143
 40
0.7142857142857143
 40
0.7142857142857143
 40
0.7142857142857143
 40
1.0
 40
1.0
 40
1.0
 40
1.0
 10
39.188
 20
-9.8035
 30
0.0
 10
39.188
 20
-9.8035
 30
0.0
 10
40.3312
 20
-10.8309
 30
0.0
 10
40.3312
 20
-10.8309
 30
0.0
 10
40.3312
 20
-10.8309
 30
0.0
 10
40.3893
 20
-10.7606
 30
0.0
 10
40.43
 20
-10.6953
 30
0.0
 10
40.4531
 20
-10.6356
 30
0.0
 10
40.4531
 20
-10.6356
 30
0.0
 10
40.484
 20
-10.5577
 30
0.0
 10
40.4992
 20
-10.473
 30
0.0
 10
40.4995
 20
-10.3822
 30
0.0
 10
40.4995
 20
-10.3822
 30
0.0
 10
40.5001
 20
-10.1818
 30
0.0
 10
40.4301
 20
-10.0165
 30
0.0
 10
40.2889
 20
-9.8854
 30
0.0
 10
40.2889
 20
-9.8854
 30
0.0
 10
40.1477
 20
-9.7547
 30
0.0
 10
39.9494
 20
-9.6887
 30
0.0
 10
39.694
 20
-9.6879
 30
0.0
 10
39.694
 20
-9.6879
 30
0.0
 10
39.5031
 20
-9.6873
 30
0.0
 10
39.3341
 20
-9.7258
 30
0.0
 10
39.188
 20
-9.8035
 30
0.0
  0
SPLINE
  5
82
330
1F
100
AcDbEntity
  8
VRSTVA_1
 62
   250
100
AcDbSpline
210
0.0
220
0.0
230
1.0
 70
    11
 71
     3
 72
    92
 73
    88
 74
     0
 42
0.0000000001
 43
0.0000000001
 40
0.0
 40
0.0
 40
0.0
 40
0.0
 40
0.0434782608695652
 40
0.0434782608695652
 40
0.0434782608695652
 40
0.0434782608695652
 40
0.0869565217391304
 40
0.0869565217391304
 40
0.0869565217391304
 40
0.0869565217391304
 40
0.1304347826086956
 40
0.1304347826086956
 40
0.1304347826086956
 40
0.1304347826086956
 40
0.1739130434782609
 40
0.1739130434782609
 40
0.1739130434782609
 40
0.1739130434782609
 40
0.2173913043478261
 40
0.2173913043478261
 40
0.2173913043478261
 40
0.2173913043478261
 40
0.2608695652173913
 40
0.2608695652173913
 40
0.2608695652173913
 40
0.2608695652173913
 40
0.3043478260869565
 40
0.3043478260869565
 40
0.3043478260869565
 40
0.3043478260869565
 40
0.3478260869565217
 40
0.3478260869565217
 40
0.3478260869565217
 40
0.3478260869565217
 40
0.391304347826087
 40
0.391304347826087
 40
0.391304347826087
 40
0.391304347826087
 40
0.4347826086956522
 40
0.4347826086956522
 40
0.4347826086956522
 40
0.4347826086956522
 40
0.4782608695652174
 40
0.4782608695652174
 40
0.4782608695652174
 40
0.4782608695652174
 40
0.5217391304347826
 40
0.5217391304347826
 40
0.5217391304347826
 40
0.5217391304347826
 40
0.5652173913043478
 40
0.5652173913043478
 40
0.5652173913043478
 40
0.5652173913043478
 40
0.6086956521739131
 40
0.6086956521739131
 40
0.6086956521739131
 40
0.6086956521739131
 40
0.6521739130434783
 40
0.6521739130434783
 40
0.6521739130434783
 40
0.6521739130434783
 40
0.6956521739130435
 40
0.6956521739130435
 40
0.6956521739130435
 40
0.6956521739130435
 40
0.7391304347826086
 40
0.7391304347826086
 40
0.7391304347826086
 40
0.7391304347826086
 40
0.782608695652174
 40
0.782608695652174
 40
0.782608695652174
 40
0.782608695652174
 40
0.8260869565217391
 40
0.8260869565217391
 40
0.8260869565217391
 40
0.8260869565217391
 40
0.8695652173913043
 40
0.8695652173913043
 40
0.8695652173913043
 40
0.8695652173913043
 40
0.9130434782608695
 40
0.9130434782608695
 40
0.9130434782608695
 40
0.9130434782608695
 40
1.0
 40
1.0
 40
1.0
 40
1.0
 10
40.1683
 20
-9.1644
 30
0.0
 10
40.1683
 20
-9.1644
 30
0.0
 10
40.1469
 20
-8.9038
 30
0.0
 10
40.1469
 20
-8.9038
 30
0.0
 10
40.1469
 20
-8.9038
 30
0.0
 10
40.274
 20
-8.8848
 30
0.0
 10
40.3691
 20
-8.8404
 30
0.0
 10
40.4333
 20
-8.7705
 30
0.0
 10
40.4333
 20
-8.7705
 30
0.0
 10
40.4976
 20
-8.7002
 30
0.0
 10
40.5298
 20
-8.6156
 30
0.0
 10
40.5301
 20
-8.5164
 30
0.0
 10
40.5301
 20
-8.5164
 30
0.0
 10
40.5305
 20
-8.3969
 30
0.0
 10
40.4856
 20
-8.2957
 30
0.0
 10
40.396
 20
-8.2131
 30
0.0
 10
40.396
 20
-8.2131
 30
0.0
 10
40.306
 20
-8.13
 30
0.0
 10
40.1866
 20
-8.0883
 30
0.0
 10
40.038
 20
-8.0878
 30
0.0
 10
40.038
 20
-8.0878
 30
0.0
 10
39.8964
 20
-8.0874
 30
0.0
 10
39.7848
 20
-8.1266
 30
0.0
 10
39.7027
 20
-8.2058
 30
0.0
 10
39.7027
 20
-8.2058
 30
0.0
 10
39.6206
 20
-8.2851
 30
0.0
 10
39.5794
 20
-8.3888
 30
0.0
 10
39.579
 20
-8.5177
 30
0.0
 10
39.579
 20
-8.5177
 30
0.0
 10
39.5788
 20
-8.5977
 30
0.0
 10
39.5968
 20
-8.6697
 30
0.0
 10
39.6328
 20
-8.7343
 30
0.0
 10
39.6328
 20
-8.7343
 30
0.0
 10
39.669
 20
-8.7988
 30
0.0
 10
39.7158
 20
-8.8493
 30
0.0
 10
39.7736
 20
-8.8861
 30
0.0
 10
39.7736
 20
-8.8861
 30
0.0
 10
39.7736
 20
-8.8861
 30
0.0
 10
39.7428
 20
-9.1189
 30
0.0
 10
39.7428
 20
-9.1189
 30
0.0
 10
39.7428
 20
-9.1189
 30
0.0
 10
39.7428
 20
-9.1189
 30
0.0
 10
38.7057
 20
-8.9201
 30
0.0
 10
38.7057
 20
-8.9201
 30
0.0
 10
38.7057
 20
-8.9201
 30
0.0
 10
38.7057
 20
-8.9201
 30
0.0
 10
38.7087
 20
-7.9154
 30
0.0
 10
38.7087
 20
-7.9154
 30
0.0
 10
38.7087
 20
-7.9154
 30
0.0
 10
38.7087
 20
-7.9154
 30
0.0
 10
38.9458
 20
-7.9161
 30
0.0
 10
38.9458
 20
-7.9161
 30
0.0
 10
38.9458
 20
-7.9161
 30
0.0
 10
38.9458
 20
-7.9161
 30
0.0
 10
38.9434
 20
-8.7223
 30
0.0
 10
38.9434
 20
-8.7223
 30
0.0
 10
38.9434
 20
-8.7223
 30
0.0
 10
38.9434
 20
-8.7223
 30
0.0
 10
39.4858
 20
-8.8331
 30
0.0
 10
39.4858
 20
-8.8331
 30
0.0
 10
39.4858
 20
-8.8331
 30
0.0
 10
39.4015
 20
-8.7115
 30
0.0
 10
39.3596
 20
-8.5839
 30
0.0
 10
39.36
 20
-8.4508
 30
0.0
 10
39.36
 20
-8.4508
 30
0.0
 10
39.3605
 20
-8.2744
 30
0.0
 10
39.4221
 20
-8.126
 30
0.0
 10
39.5447
 20
-8.0049
 30
0.0
 10
39.5447
 20
-8.0049
 30
0.0
 10
39.6674
 20
-7.884
 30
0.0
 10
39.8247
 20
-7.8238
 30
0.0
 10
40.0166
 20
-7.8244
 30
0.0
 10
40.0166
 20
-7.8244
 30
0.0
 10
40.1996
 20
-7.8249
 30
0.0
 10
40.3575
 20
-7.879
 30
0.0
 10
40.4903
 20
-7.9857
 30
0.0
 10
40.4903
 20
-7.9857
 30
0.0
 10
40.6531
 20
-8.116
 30
0.0
 10
40.7344
 20
-8.2931
 30
0.0
 10
40.7337
 20
-8.517
 30
0.0
 10
40.7337
 20
-8.517
 30
0.0
 10
40.7332
 20
-8.7009
 30
0.0
 10
40.6815
 20
-8.8508
 30
0.0
 10
40.5782
 20
-8.9667
 30
0.0
 10
40.5782
 20
-8.9667
 30
0.0
 10
40.4747
 20
-9.0825
 30
0.0
 10
40.3381
 20
-9.1484
 30
0.0
 10
40.1683
 20
-9.1644
 30
0.0
  0
SPLINE
  5
83
330
1F
100
AcDbEntity
  8
VRSTVA_1
 62
   250
100
AcDbSpline
210
0.0
220
0.0
230
1.0
 70
    11
 71
     3
 72
    52
 73
    48
 74
     0
 42
0.0000000001
 43
0.0000000001
 40
0.0
 40
0.0
 40
0.0
 40
0.0
 40
0.0769230769230769
 40
0.0769230769230769
 40
0.0769230769230769
 40
0.0769230769230769
 40
0.1538461538461539
 40
0.1538461538461539
 40
0.1538461538461539
 40
0.1538461538461539
 40
0.2307692307692308
 40
0.2307692307692308
 40
0.2307692307692308
 40
0.2307692307692308
 40
0.3076923076923077
 40
0.3076923076923077
 40
0.3076923076923077
 40
0.3076923076923077
 40
0.3846153846153846
 40
0.3846153846153846
 40
0.3846153846153846
 40
0.3846153846153846
 40
0.4615384615384616
 40
0.4615384615384616
 40
0.4615384615384616
 40
0.4615384615384616
 40
0.5384615384615384
 40
0.5384615384615384
 40
0.5384615384615384
 40
0.5384615384615384
 40
0.6153846153846154
 40
0.6153846153846154
 40
0.6153846153846154
 40
0.6153846153846154
 40
0.6923076923076923
 40
0.6923076923076923
 40
0.6923076923076923
 40
0.6923076923076923
 40
0.7692307692307693
 40
0.7692307692307693
 40
0.7692307692307693
 40
0.7692307692307693
 40
0.8461538461538461
 40
0.8461538461538461
 40
0.8461538461538461
 40
0.8461538461538461
 40
1.0
 40
1.0
 40
1.0
 40
1.0
 10
39.706
 20
-7.5934
 30
0.0
 10
39.467
 20
-7.5927
 30
0.0
 10
39.2747
 20
-7.5676
 30
0.0
 10
39.1295
 20
-7.5178
 30
0.0
 10
39.1295
 20
-7.5178
 30
0.0
 10
38.9838
 20
-7.4685
 30
0.0
 10
38.8717
 20
-7.3947
 30
0.0
 10
38.7929
 20
-7.2976
 30
0.0
 10
38.7929
 20
-7.2976
 30
0.0
 10
38.7142
 20
-7.2004
 30
0.0
 10
38.675
 20
-7.0785
 30
0.0
 10
38.6755
 20
-6.9318
 30
0.0
 10
38.6755
 20
-6.9318
 30
0.0
 10
38.6758
 20
-6.8231
 30
0.0
 10
38.6982
 20
-6.7282
 30
0.0
 10
38.7422
 20
-6.6465
 30
0.0
 10
38.7422
 20
-6.6465
 30
0.0
 10
38.7857
 20
-6.5648
 30
0.0
 10
38.849
 20
-6.4976
 30
0.0
 10
38.9314
 20
-6.4443
 30
0.0
 10
38.9314
 20
-6.4443
 30
0.0
 10
39.0139
 20
-6.3914
 30
0.0
 10
39.1142
 20
-6.3498
 30
0.0
 10
39.2323
 20
-6.3201
 30
0.0
 10
39.2323
 20
-6.3201
 30
0.0
 10
39.3505
 20
-6.2898
 30
0.0
 10
39.5095
 20
-6.2753
 30
0.0
 10
39.7099
 20
-6.2759
 30
0.0
 10
39.7099
 20
-6.2759
 30
0.0
 10
39.9469
 20
-6.2766
 30
0.0
 10
40.1379
 20
-6.3016
 30
0.0
 10
40.2835
 20
-6.3506
 30
0.0
 10
40.2835
 20
-6.3506
 30
0.0
 10
40.4292
 20
-6.3999
 30
0.0
 10
40.5413
 20
-6.4731
 30
0.0
 10
40.6206
 20
-6.5703
 30
0.0
 10
40.6206
 20
-6.5703
 30
0.0
 10
40.6998
 20
-6.6674
 30
0.0
 10
40.7389
 20
-6.7898
 30
0.0
 10
40.7385
 20
-6.938
 30
0.0
 10
40.7385
 20
-6.938
 30
0.0
 10
40.7379
 20
-7.1327
 30
0.0
 10
40.6678
 20
-7.2854
 30
0.0
 10
40.5278
 20
-7.396
 30
0.0
 10
40.5278
 20
-7.396
 30
0.0
 10
40.3595
 20
-7.5286
 30
0.0
 10
40.0851
 20
-7.5946
 30
0.0
 10
39.706
 20
-7.5934
 30
0.0
  0
SPLINE
  5
84
330
1F
100
AcDbEntity
  8
VRSTVA_1
 62
   250
100
AcDbSpline
210
0.0
220
0.0
230
1.0
 70
    11
 71
     3
 72
    36
 73
    32
 74
     0
 42
0.0000000001
 43
0.0000000001
 40
0.0
 40
0.0
 40
0.0
 40
0.0
 40
0.1111111111111111
 40
0.1111111111111111
 40
0.1111111111111111
 40
0.1111111111111111
 40
0.2222222222222222
 40
0.2222222222222222
 40
0.2222222222222222
 40
0.2222222222222222
 40
0.3333333333333333
 40
0.3333333333333333
 40
0.3333333333333333
 40
0.3333333333333333
 40
0.4444444444444444
 40
0.4444444444444444
 40
0.4444444444444444
 40
0.4444444444444444
 40
0.5555555555555556
 40
0.5555555555555556
 40
0.5555555555555556
 40
0.5555555555555556
 40
0.6666666666666666
 40
0.6666666666666666
 40
0.6666666666666666
 40
0.6666666666666666
 40
0.7777777777777778
 40
0.7777777777777778
 40
0.7777777777777778
 40
0.7777777777777778
 40
1.0
 40
1.0
 40
1.0
 40
1.0
 10
39.7067
 20
-7.3384
 30
0.0
 10
40.0383
 20
-7.3394
 30
0.0
 10
40.2591
 20
-7.3011
 30
0.0
 10
40.3693
 20
-7.2238
 30
0.0
 10
40.3693
 20
-7.2238
 30
0.0
 10
40.4791
 20
-7.1465
 30
0.0
 10
40.5345
 20
-7.0512
 30
0.0
 10
40.5349
 20
-6.9374
 30
0.0
 10
40.5349
 20
-6.9374
 30
0.0
 10
40.5352
 20
-6.8231
 30
0.0
 10
40.48
 20
-6.7274
 30
0.0
 10
40.3701
 20
-6.6495
 30
0.0
 10
40.3701
 20
-6.6495
 30
0.0
 10
40.2603
 20
-6.5716
 30
0.0
 10
40.0398
 20
-6.5318
 30
0.0
 10
39.7092
 20
-6.5308
 30
0.0
 10
39.7092
 20
-6.5308
 30
0.0
 10
39.3766
 20
-6.5298
 30
0.0
 10
39.1554
 20
-6.5683
 30
0.0
 10
39.046
 20
-6.6455
 30
0.0
 10
39.046
 20
-6.6455
 30
0.0
 10
38.9362
 20
-6.7228
 30
0.0
 10
38.8814
 20
-6.819
 30
0.0
 10
38.8811
 20
-6.9347
 30
0.0
 10
38.8811
 20
-6.9347
 30
0.0
 10
38.8807
 20
-7.049
 30
0.0
 10
38.9288
 20
-7.14
 30
0.0
 10
39.025
 20
-7.2085
 30
0.0
 10
39.025
 20
-7.2085
 30
0.0
 10
39.1476
 20
-7.2939
 30
0.0
 10
39.3751
 20
-7.3374
 30
0.0
 10
39.7067
 20
-7.3384
 30
0.0
  0
SPLINE
  5
85
330
1F
100
AcDbEntity
  8
VRSTVA_1
 62
   250
100
AcDbSpline
210
0.0
220
0.0
230
1.0
 70
    11
 71
     3
 72
    20
 73
    16
 74
     0
 42
0.0000000001
 43
0.0000000001
 40
0.0
 40
0.0
 40
0.0
 40
0.0
 40
0.2
 40
0.2
 40
0.2
 40
0.2
 40
0.4
 40
0.4
 40
0.4
 40
0.4
 40
0.6
 40
0.6
 40
0.6
 40
0.6
 40
1.0
 40
1.0
 40
1.0
 40
1.0
 10
41.9794
 20
15.1316
 30
0.0
 10
41.9794
 20
15.1316
 30
0.0
 10
41.5561
 20
12.1316
 30
0.0
 10
41.5561
 20
12.1316
 30
0.0
 10
41.5561
 20
12.1316
 30
0.0
 10
41.5561
 20
12.1316
 30
0.0
 10
41.462
 20
12.1316
 30
0.0
 10
41.462
 20
12.1316
 30
0.0
 10
41.462
 20
12.1316
 30
0.0
 10
41.462
 20
12.1316
 30
0.0
 10
41.0106
 20
15.1316
 30
0.0
 10
41.0106
 20
15.1316
 30
0.0
 10
41.0106
 20
15.1316
 30
0.0
 10
41.0106
 20
15.1316
 30
0.0
 10
41.9794
 20
15.1316
 30
0.0
 10
41.9794
 20
15.1316
 30
0.0
  0
SPLINE
  5
86
330
1F
100
AcDbEntity
  8
VRSTVA_1
 62
   250
100
AcDbSpline
210
0.0
220
0.0
230
1.0
 70
    27
 71
     3
 72
    12
 73
     8
 74
     0
 42
0.0000000001
 43
0.0000000001
 40
0.0
 40
0.0
 40
0.0
 40
0.0
 40
0.3333333333333333
 40
0.3333333333333333
 40
0.3333333333333333
 40
0.3333333333333333
 40
1.0
 40
1.0
 40
1.0
 40
1.0
 10
-44.7476
 20
-3.9278
 30
0.0
 10
-44.7476
 20
-3.9278
 30
0.0
 10
-48.4304
 20
-3.9278
 30
0.0
 10
-48.4304
 20
-3.9278
 30
0.0
 10
-48.4304
 20
-3.9278
 30
0.0
 10
-48.4304
 20
-3.9278
 30
0.0
 10
-44.7476
 20
-3.9278
 30
0.0
 10
-44.7476
 20
-3.9278
 30
0.0
  0
SPLINE
  5
87
330
1F
100
AcDbEntity
  8
VRSTVA_1
 62
   250
100
AcDbSpline
210
0.0
220
0.0
230
1.0
 70
    27
 71
     3
 72
    12
 73
     8
 74
     0
 42
0.0000000001
 43
0.0000000001
 40
0.0
 40
0.0
 40
0.0
 40
0.0
 40
0.3333333333333333
 40
0.3333333333333333
 40
0.3333333333333333
 40
0.3333333333333333
 40
1.0
 40
1.0
 40
1.0
 40
1.0
 10
-44.7476
 20
11.2158
 30
0.0
 10
-44.7476
 20
11.2158
 30
0.0
 10
-48.4304
 20
11.2158
 30
0.0
 10
-48.4304
 20
11.2158
 30
0.0
 10
-48.4304
 20
11.2158
 30
0.0
 10
-48.4304
 20
11.2158
 30
0.0
 10
-44.7476
 20
11.2158
 30
0.0
 10
-44.7476
 20
11.2158
 30
0.0
  0
SPLINE
  5
88
330
1F
100
AcDbEntity
  8
VRSTVA_1
100
AcDbSpline
210
0.0
220
0.0
230
1.0
 70
     8
 71
     3
 72
    12
 73
     8
 74
     0
 42
0.0000000001
 43
0.0000000001
 40
0.0
 40
0.0
 40
0.0
 40
0.0
 40
0.3333333333333333
 40
0.3333333333333333
 40
0.3333333333333333
 40
0.3333333333333333
 40
1.0
 40
1.0
 40
1.0
 40
1.0
 10
-40.061
 20
-4.7004
 30
0.0
 10
-39.8762
 20
-4.7004
 30
0.0
 10
-39.6989
 20
-4.6394
 30
0.0
 10
-39.5682
 20
-4.5312
 30
0.0
 10
-39.5682
 20
-4.5312
 30
0.0
 10
-39.4375
 20
-4.4226
 30
0.0
 10
-39.3642
 20
-4.2756
 30
0.0
 10
-39.3642
 20
-4.1223
 30
0.0
  0
SPLINE
  5
89
330
1F
100
AcDbEntity
  8
VRSTVA_1
100
AcDbSpline
210
0.0
220
0.0
230
1.0
 70
     8
 71
     3
 72
    12
 73
     8
 74
     0
 42
0.0000000001
 43
0.0000000001
 40
0.0
 40
0.0
 40
0.0
 40
0.0
 40
0.3333333333333333
 40
0.3333333333333333
 40
0.3333333333333333
 40
0.3333333333333333
 40
1.0
 40
1.0
 40
1.0
 40
1.0
 10
-39.3642
 20
11.2938
 30
0.0
 10
-39.3642
 20
11.4469
 30
0.0
 10
-39.4375
 20
11.5941
 30
0.0
 10
-39.5682
 20
11.7025
 30
0.0
 10
-39.5682
 20
11.7025
 30
0.0
 10
-39.6989
 20
11.811
 30
0.0
 10
-39.8762
 20
11.8718
 30
0.0
 10
-40.061
 20
11.8718
 30
0.0
  0
SPLINE
  5
8A
330
1F
100
AcDbEntity
  8
VRSTVA_1
100
AcDbSpline
210
0.0
220
0.0
230
1.0
 70
    11
 71
     3
 72
   708
 73
   704
 74
     0
 42
0.0000000001
 43
0.0000000001
 40
0.0
 40
0.0
 40
0.0
 40
0.0
 40
0.0056497175141243
 40
0.0056497175141243
 40
0.0056497175141243
 40
0.0056497175141243
 40
0.0112994350282486
 40
0.0112994350282486
 40
0.0112994350282486
 40
0.0112994350282486
 40
0.0169491525423729
 40
0.0169491525423729
 40
0.0169491525423729
 40
0.0169491525423729
 40
0.0225988700564972
 40
0.0225988700564972
 40
0.0225988700564972
 40
0.0225988700564972
 40
0.0282485875706215
 40
0.0282485875706215
 40
0.0282485875706215
 40
0.0282485875706215
 40
0.0338983050847458
 40
0.0338983050847458
 40
0.0338983050847458
 40
0.0338983050847458
 40
0.0395480225988701
 40
0.0395480225988701
 40
0.0395480225988701
 40
0.0395480225988701
 40
0.0451977401129944
 40
0.0451977401129944
 40
0.0451977401129944
 40
0.0451977401129944
 40
0.0508474576271186
 40
0.0508474576271186
 40
0.0508474576271186
 40
0.0508474576271186
 40
0.0564971751412429
 40
0.0564971751412429
 40
0.0564971751412429
 40
0.0564971751412429
 40
0.0621468926553672
 40
0.0621468926553672
 40
0.0621468926553672
 40
0.0621468926553672
 40
0.0677966101694915
 40
0.0677966101694915
 40
0.0677966101694915
 40
0.0677966101694915
 40
0.0734463276836158
 40
0.0734463276836158
 40
0.0734463276836158
 40
0.0734463276836158
 40
0.0790960451977401
 40
0.0790960451977401
 40
0.0790960451977401
 40
0.0790960451977401
 40
0.0847457627118644
 40
0.0847457627118644
 40
0.0847457627118644
 40
0.0847457627118644
 40
0.0903954802259887
 40
0.0903954802259887
 40
0.0903954802259887
 40
0.0903954802259887
 40
0.096045197740113
 40
0.096045197740113
 40
0.096045197740113
 40
0.096045197740113
 40
0.1016949152542373
 40
0.1016949152542373
 40
0.1016949152542373
 40
0.1016949152542373
 40
0.1073446327683616
 40
0.1073446327683616
 40
0.1073446327683616
 40
0.1073446327683616
 40
0.1129943502824859
 40
0.1129943502824859
 40
0.1129943502824859
 40
0.1129943502824859
 40
0.1186440677966102
 40
0.1186440677966102
 40
0.1186440677966102
 40
0.1186440677966102
 40
0.1242937853107345
 40
0.1242937853107345
 40
0.1242937853107345
 40
0.1242937853107345
 40
0.1299435028248588
 40
0.1299435028248588
 40
0.1299435028248588
 40
0.1299435028248588
 40
0.1355932203389831
 40
0.1355932203389831
 40
0.1355932203389831
 40
0.1355932203389831
 40
0.1412429378531073
 40
0.1412429378531073
 40
0.1412429378531073
 40
0.1412429378531073
 40
0.1468926553672316
 40
0.1468926553672316
 40
0.1468926553672316
 40
0.1468926553672316
 40
0.1525423728813559
 40
0.1525423728813559
 40
0.1525423728813559
 40
0.1525423728813559
 40
0.1581920903954802
 40
0.1581920903954802
 40
0.1581920903954802
 40
0.1581920903954802
 40
0.1638418079096045
 40
0.1638418079096045
 40
0.1638418079096045
 40
0.1638418079096045
 40
0.1694915254237288
 40
0.1694915254237288
 40
0.1694915254237288
 40
0.1694915254237288
 40
0.1751412429378531
 40
0.1751412429378531
 40
0.1751412429378531
 40
0.1751412429378531
 40
0.1807909604519774
 40
0.1807909604519774
 40
0.1807909604519774
 40
0.1807909604519774
 40
0.1864406779661017
 40
0.1864406779661017
 40
0.1864406779661017
 40
0.1864406779661017
 40
0.192090395480226
 40
0.192090395480226
 40
0.192090395480226
 40
0.192090395480226
 40
0.1977401129943503
 40
0.1977401129943503
 40
0.1977401129943503
 40
0.1977401129943503
 40
0.2033898305084746
 40
0.2033898305084746
 40
0.2033898305084746
 40
0.2033898305084746
 40
0.2090395480225989
 40
0.2090395480225989
 40
0.2090395480225989
 40
0.2090395480225989
 40
0.2146892655367232
 40
0.2146892655367232
 40
0.2146892655367232
 40
0.2146892655367232
 40
0.2203389830508475
 40
0.2203389830508475
 40
0.2203389830508475
 40
0.2203389830508475
 40
0.2259887005649718
 40
0.2259887005649718
 40
0.2259887005649718
 40
0.2259887005649718
 40
0.231638418079096
 40
0.231638418079096
 40
0.231638418079096
 40
0.231638418079096
 40
0.2372881355932203
 40
0.2372881355932203
 40
0.2372881355932203
 40
0.2372881355932203
 40
0.2429378531073446
 40
0.2429378531073446
 40
0.2429378531073446
 40
0.2429378531073446
 40
0.2485875706214689
 40
0.2485875706214689
 40
0.2485875706214689
 40
0.2485875706214689
 40
0.2542372881355932
 40
0.2542372881355932
 40
0.2542372881355932
 40
0.2542372881355932
 40
0.2598870056497175
 40
0.2598870056497175
 40
0.2598870056497175
 40
0.2598870056497175
 40
0.2655367231638418
 40
0.2655367231638418
 40
0.2655367231638418
 40
0.2655367231638418
 40
0.2711864406779661
 40
0.2711864406779661
 40
0.2711864406779661
 40
0.2711864406779661
 40
0.2768361581920904
 40
0.2768361581920904
 40
0.2768361581920904
 40
0.2768361581920904
 40
0.2824858757062147
 40
0.2824858757062147
 40
0.2824858757062147
 40
0.2824858757062147
 40
0.288135593220339
 40
0.288135593220339
 40
0.288135593220339
 40
0.288135593220339
 40
0.2937853107344633
 40
0.2937853107344633
 40
0.2937853107344633
 40
0.2937853107344633
 40
0.2994350282485876
 40
0.2994350282485876
 40
0.2994350282485876
 40
0.2994350282485876
 40
0.3050847457627119
 40
0.3050847457627119
 40
0.3050847457627119
 40
0.3050847457627119
 40
0.3107344632768362
 40
0.3107344632768362
 40
0.3107344632768362
 40
0.3107344632768362
 40
0.3163841807909605
 40
0.3163841807909605
 40
0.3163841807909605
 40
0.3163841807909605
 40
0.3220338983050847
 40
0.3220338983050847
 40
0.3220338983050847
 40
0.3220338983050847
 40
0.327683615819209
 40
0.327683615819209
 40
0.327683615819209
 40
0.327683615819209
 40
0.3333333333333333
 40
0.3333333333333333
 40
0.3333333333333333
 40
0.3333333333333333
 40
0.3389830508474576
 40
0.3389830508474576
 40
0.3389830508474576
 40
0.3389830508474576
 40
0.3446327683615819
 40
0.3446327683615819
 40
0.3446327683615819
 40
0.3446327683615819
 40
0.3502824858757062
 40
0.3502824858757062
 40
0.3502824858757062
 40
0.3502824858757062
 40
0.3559322033898305
 40
0.3559322033898305
 40
0.3559322033898305
 40
0.3559322033898305
 40
0.3615819209039548
 40
0.3615819209039548
 40
0.3615819209039548
 40
0.3615819209039548
 40
0.3672316384180791
 40
0.3672316384180791
 40
0.3672316384180791
 40
0.3672316384180791
 40
0.3728813559322034
 40
0.3728813559322034
 40
0.3728813559322034
 40
0.3728813559322034
 40
0.3785310734463277
 40
0.3785310734463277
 40
0.3785310734463277
 40
0.3785310734463277
 40
0.384180790960452
 40
0.384180790960452
 40
0.384180790960452
 40
0.384180790960452
 40
0.3898305084745763
 40
0.3898305084745763
 40
0.3898305084745763
 40
0.3898305084745763
 40
0.3954802259887006
 40
0.3954802259887006
 40
0.3954802259887006
 40
0.3954802259887006
 40
0.4011299435028249
 40
0.4011299435028249
 40
0.4011299435028249
 40
0.4011299435028249
 40
0.4067796610169492
 40
0.4067796610169492
 40
0.4067796610169492
 40
0.4067796610169492
 40
0.4124293785310734
 40
0.4124293785310734
 40
0.4124293785310734
 40
0.4124293785310734
 40
0.4180790960451977
 40
0.4180790960451977
 40
0.4180790960451977
 40
0.4180790960451977
 40
0.423728813559322
 40
0.423728813559322
 40
0.423728813559322
 40
0.423728813559322
 40
0.4293785310734463
 40
0.4293785310734463
 40
0.4293785310734463
 40
0.4293785310734463
 40
0.4350282485875706
 40
0.4350282485875706
 40
0.4350282485875706
 40
0.4350282485875706
 40
0.4406779661016949
 40
0.4406779661016949
 40
0.4406779661016949
 40
0.4406779661016949
 40
0.4463276836158192
 40
0.4463276836158192
 40
0.4463276836158192
 40
0.4463276836158192
 40
0.4519774011299435
 40
0.4519774011299435
 40
0.4519774011299435
 40
0.4519774011299435
 40
0.4576271186440678
 40
0.4576271186440678
 40
0.4576271186440678
 40
0.4576271186440678
 40
0.4632768361581921
 40
0.4632768361581921
 40
0.4632768361581921
 40
0.4632768361581921
 40
0.4689265536723164
 40
0.4689265536723164
 40
0.4689265536723164
 40
0.4689265536723164
 40
0.4745762711864407
 40
0.4745762711864407
 40
0.4745762711864407
 40
0.4745762711864407
 40
0.480225988700565
 40
0.480225988700565
 40
0.480225988700565
 40
0.480225988700565
 40
0.4858757062146893
 40
0.4858757062146893
 40
0.4858757062146893
 40
0.4858757062146893
 40
0.4915254237288136
 40
0.4915254237288136
 40
0.4915254237288136
 40
0.4915254237288136
 40
0.4971751412429379
 40
0.4971751412429379
 40
0.4971751412429379
 40
0.4971751412429379
 40
0.5028248587570622
 40
0.5028248587570622
 40
0.5028248587570622
 40
0.5028248587570622
 40
0.5084745762711864
 40
0.5084745762711864
 40
0.5084745762711864
 40
0.5084745762711864
 40
0.5141242937853108
 40
0.5141242937853108
 40
0.5141242937853108
 40
0.5141242937853108
 40
0.519774011299435
 40
0.519774011299435
 40
0.519774011299435
 40
0.519774011299435
 40
0.5254237288135594
 40
0.5254237288135594
 40
0.5254237288135594
 40
0.5254237288135594
 40
0.5310734463276836
 40
0.5310734463276836
 40
0.5310734463276836
 40
0.5310734463276836
 40
0.536723163841808
 40
0.536723163841808
 40
0.536723163841808
 40
0.536723163841808
 40
0.5423728813559322
 40
0.5423728813559322
 40
0.5423728813559322
 40
0.5423728813559322
 40
0.5480225988700564
 40
0.5480225988700564
 40
0.5480225988700564
 40
0.5480225988700564
 40
0.5536723163841808
 40
0.5536723163841808
 40
0.5536723163841808
 40
0.5536723163841808
 40
0.559322033898305
 40
0.559322033898305
 40
0.559322033898305
 40
0.559322033898305
 40
0.5649717514124294
 40
0.5649717514124294
 40
0.5649717514124294
 40
0.5649717514124294
 40
0.5706214689265536
 40
0.5706214689265536
 40
0.5706214689265536
 40
0.5706214689265536
 40
0.576271186440678
 40
0.576271186440678
 40
0.576271186440678
 40
0.576271186440678
 40
0.5819209039548022
 40
0.5819209039548022
 40
0.5819209039548022
 40
0.5819209039548022
 40
0.5875706214689266
 40
0.5875706214689266
 40
0.5875706214689266
 40
0.5875706214689266
 40
0.5932203389830508
 40
0.5932203389830508
 40
0.5932203389830508
 40
0.5932203389830508
 40
0.5988700564971752
 40
0.5988700564971752
 40
0.5988700564971752
 40
0.5988700564971752
 40
0.6045197740112994
 40
0.6045197740112994
 40
0.6045197740112994
 40
0.6045197740112994
 40
0.6101694915254238
 40
0.6101694915254238
 40
0.6101694915254238
 40
0.6101694915254238
 40
0.615819209039548
 40
0.615819209039548
 40
0.615819209039548
 40
0.615819209039548
 40
0.6214689265536724
 40
0.6214689265536724
 40
0.6214689265536724
 40
0.6214689265536724
 40
0.6271186440677966
 40
0.6271186440677966
 40
0.6271186440677966
 40
0.6271186440677966
 40
0.632768361581921
 40
0.632768361581921
 40
0.632768361581921
 40
0.632768361581921
 40
0.6384180790960452
 40
0.6384180790960452
 40
0.6384180790960452
 40
0.6384180790960452
 40
0.6440677966101694
 40
0.6440677966101694
 40
0.6440677966101694
 40
0.6440677966101694
 40
0.6497175141242938
 40
0.6497175141242938
 40
0.6497175141242938
 40
0.6497175141242938
 40
0.655367231638418
 40
0.655367231638418
 40
0.655367231638418
 40
0.655367231638418
 40
0.6610169491525424
 40
0.6610169491525424
 40
0.6610169491525424
 40
0.6610169491525424
 40
0.6666666666666666
 40
0.6666666666666666
 40
0.6666666666666666
 40
0.6666666666666666
 40
0.672316384180791
 40
0.672316384180791
 40
0.672316384180791
 40
0.672316384180791
 40
0.6779661016949152
 40
0.6779661016949152
 40
0.6779661016949152
 40
0.6779661016949152
 40
0.6836158192090396
 40
0.6836158192090396
 40
0.6836158192090396
 40
0.6836158192090396
 40
0.6892655367231638
 40
0.6892655367231638
 40
0.6892655367231638
 40
0.6892655367231638
 40
0.6949152542372882
 40
0.6949152542372882
 40
0.6949152542372882
 40
0.6949152542372882
 40
0.7005649717514124
 40
0.7005649717514124
 40
0.7005649717514124
 40
0.7005649717514124
 40
0.7062146892655368
 40
0.7062146892655368
 40
0.7062146892655368
 40
0.7062146892655368
 40
0.711864406779661
 40
0.711864406779661
 40
0.711864406779661
 40
0.711864406779661
 40
0.7175141242937854
 40
0.7175141242937854
 40
0.7175141242937854
 40
0.7175141242937854
 40
0.7231638418079096
 40
0.7231638418079096
 40
0.7231638418079096
 40
0.7231638418079096
 40
0.7288135593220338
 40
0.7288135593220338
 40
0.7288135593220338
 40
0.7288135593220338
 40
0.7344632768361582
 40
0.7344632768361582
 40
0.7344632768361582
 40
0.7344632768361582
 40
0.7401129943502824
 40
0.7401129943502824
 40
0.7401129943502824
 40
0.7401129943502824
 40
0.7457627118644068
 40
0.7457627118644068
 40
0.7457627118644068
 40
0.7457627118644068
 40
0.751412429378531
 40
0.751412429378531
 40
0.751412429378531
 40
0.751412429378531
 40
0.7570621468926554
 40
0.7570621468926554
 40
0.7570621468926554
 40
0.7570621468926554
 40
0.7627118644067796
 40
0.7627118644067796
 40
0.7627118644067796
 40
0.7627118644067796
 40
0.768361581920904
 40
0.768361581920904
 40
0.768361581920904
 40
0.768361581920904
 40
0.7740112994350282
 40
0.7740112994350282
 40
0.7740112994350282
 40
0.7740112994350282
 40
0.7796610169491526
 40
0.7796610169491526
 40
0.7796610169491526
 40
0.7796610169491526
 40
0.7853107344632768
 40
0.7853107344632768
 40
0.7853107344632768
 40
0.7853107344632768
 40
0.7909604519774012
 40
0.7909604519774012
 40
0.7909604519774012
 40
0.7909604519774012
 40
0.7966101694915254
 40
0.7966101694915254
 40
0.7966101694915254
 40
0.7966101694915254
 40
0.8022598870056498
 40
0.8022598870056498
 40
0.8022598870056498
 40
0.8022598870056498
 40
0.807909604519774
 40
0.807909604519774
 40
0.807909604519774
 40
0.807909604519774
 40
0.8135593220338984
 40
0.8135593220338984
 40
0.8135593220338984
 40
0.8135593220338984
 40
0.8192090395480226
 40
0.8192090395480226
 40
0.8192090395480226
 40
0.8192090395480226
 40
0.8248587570621468
 40
0.8248587570621468
 40
0.8248587570621468
 40
0.8248587570621468
 40
0.8305084745762712
 40
0.8305084745762712
 40
0.8305084745762712
 40
0.8305084745762712
 40
0.8361581920903954
 40
0.8361581920903954
 40
0.8361581920903954
 40
0.8361581920903954
 40
0.8418079096045198
 40
0.8418079096045198
 40
0.8418079096045198
 40
0.8418079096045198
 40
0.847457627118644
 40
0.847457627118644
 40
0.847457627118644
 40
0.847457627118644
 40
0.8531073446327684
 40
0.8531073446327684
 40
0.8531073446327684
 40
0.8531073446327684
 40
0.8587570621468926
 40
0.8587570621468926
 40
0.8587570621468926
 40
0.8587570621468926
 40
0.864406779661017
 40
0.864406779661017
 40
0.864406779661017
 40
0.864406779661017
 40
0.8700564971751412
 40
0.8700564971751412
 40
0.8700564971751412
 40
0.8700564971751412
 40
0.8757062146892656
 40
0.8757062146892656
 40
0.8757062146892656
 40
0.8757062146892656
 40
0.8813559322033898
 40
0.8813559322033898
 40
0.8813559322033898
 40
0.8813559322033898
 40
0.8870056497175142
 40
0.8870056497175142
 40
0.8870056497175142
 40
0.8870056497175142
 40
0.8926553672316384
 40
0.8926553672316384
 40
0.8926553672316384
 40
0.8926553672316384
 40
0.8983050847457628
 40
0.8983050847457628
 40
0.8983050847457628
 40
0.8983050847457628
 40
0.903954802259887
 40
0.903954802259887
 40
0.903954802259887
 40
0.903954802259887
 40
0.9096045197740112
 40
0.9096045197740112
 40
0.9096045197740112
 40
0.9096045197740112
 40
0.9152542372881356
 40
0.9152542372881356
 40
0.9152542372881356
 40
0.9152542372881356
 40
0.9209039548022598
 40
0.9209039548022598
 40
0.9209039548022598
 40
0.9209039548022598
 40
0.9265536723163842
 40
0.9265536723163842
 40
0.9265536723163842
 40
0.9265536723163842
 40
0.9322033898305084
 40
0.9322033898305084
 40
0.9322033898305084
 40
0.9322033898305084
 40
0.9378531073446328
 40
0.9378531073446328
 40
0.9378531073446328
 40
0.9378531073446328
 40
0.943502824858757
 40
0.943502824858757
 40
0.943502824858757
 40
0.943502824858757
 40
0.9491525423728814
 40
0.9491525423728814
 40
0.9491525423728814
 40
0.9491525423728814
 40
0.9548022598870056
 40
0.9548022598870056
 40
0.9548022598870056
 40
0.9548022598870056
 40
0.96045197740113
 40
0.96045197740113
 40
0.96045197740113
 40
0.96045197740113
 40
0.9661016949152542
 40
0.9661016949152542
 40
0.9661016949152542
 40
0.9661016949152542
 40
0.9717514124293786
 40
0.9717514124293786
 40
0.9717514124293786
 40
0.9717514124293786
 40
0.9774011299435028
 40
0.9774011299435028
 40
0.9774011299435028
 40
0.9774011299435028
 40
0.9830508474576272
 40
0.9830508474576272
 40
0.9830508474576272
 40
0.9830508474576272
 40
0.9887005649717514
 40
0.9887005649717514
 40
0.9887005649717514
 40
0.9887005649717514
 40
1.0
 40
1.0
 40
1.0
 40
1.0
 10
-44.9384
 20
-5.0819
 30
0.0
 10
-44.9384
 20
-5.0819
 30
0.0
 10
-42.1513
 20
-5.0819
 30
0.0
 10
-42.1513
 20
-5.0819
 30
0.0
 10
-42.1513
 20
-5.0819
 30
0.0
 10
-42.1513
 20
-5.0819
 30
0.0
 10
-42.1513
 20
-5.0618
 30
0.0
 10
-42.1513
 20
-5.0618
 30
0.0
 10
-42.1513
 20
-5.0618
 30
0.0
 10
-42.1513
 20
-5.0618
 30
0.0
 10
-44.9384
 20
-5.0618
 30
0.0
 10
-44.9384
 20
-5.0618
 30
0.0
 10
-44.9384
 20
-5.0618
 30
0.0
 10
-44.9384
 20
-5.0618
 30
0.0
 10
-44.9384
 20
-4.7384
 30
0.0
 10
-44.9384
 20
-4.7384
 30
0.0
 10
-44.9384
 20
-4.7384
 30
0.0
 10
-44.9384
 20
-4.7384
 30
0.0
 10
-42.1513
 20
-4.7384
 30
0.0
 10
-42.1513
 20
-4.7384
 30
0.0
 10
-42.1513
 20
-4.7384
 30
0.0
 10
-42.1513
 20
-4.7384
 30
0.0
 10
-42.1513
 20
-4.7004
 30
0.0
 10
-42.1513
 20
-4.7004
 30
0.0
 10
-42.1513
 20
-4.7004
 30
0.0
 10
-42.1513
 20
-4.7004
 30
0.0
 10
-40.061
 20
-4.7004
 30
0.0
 10
-40.061
 20
-4.7004
 30
0.0
 10
-40.061
 20
-4.7004
 30
0.0
 10
-40.061
 20
-4.7004
 30
0.0
 10
-42.1513
 20
-4.7004
 30
0.0
 10
-42.1513
 20
-4.7004
 30
0.0
 10
-42.1513
 20
-4.7004
 30
0.0
 10
-42.1513
 20
-4.7004
 30
0.0
 10
-42.1513
 20
-4.2263
 30
0.0
 10
-42.1513
 20
-4.2263
 30
0.0
 10
-42.1513
 20
-4.2263
 30
0.0
 10
-42.1513
 20
-4.2263
 30
0.0
 10
-44.9384
 20
-4.2263
 30
0.0
 10
-44.9384
 20
-4.2263
 30
0.0
 10
-44.9384
 20
-4.2263
 30
0.0
 10
-44.9384
 20
-4.2263
 30
0.0
 10
-44.9384
 20
-3.7899
 30
0.0
 10
-44.9384
 20
-3.7899
 30
0.0
 10
-44.9384
 20
-3.7899
 30
0.0
 10
-44.9384
 20
-3.7899
 30
0.0
 10
-42.1513
 20
-3.7899
 30
0.0
 10
-42.1513
 20
-3.7899
 30
0.0
 10
-42.1513
 20
-3.7899
 30
0.0
 10
-42.1513
 20
-3.7899
 30
0.0
 10
-42.1513
 20
-3.2729
 30
0.0
 10
-42.1513
 20
-3.2729
 30
0.0
 10
-42.1513
 20
-3.2729
 30
0.0
 10
-42.1513
 20
-3.2729
 30
0.0
 10
-44.9384
 20
-3.2729
 30
0.0
 10
-44.9384
 20
-3.2729
 30
0.0
 10
-44.9384
 20
-3.2729
 30
0.0
 10
-44.9384
 20
-3.2729
 30
0.0
 10
-44.9384
 20
-2.6807
 30
0.0
 10
-44.9384
 20
-2.6807
 30
0.0
 10
-44.9384
 20
-2.6807
 30
0.0
 10
-44.9384
 20
-2.6807
 30
0.0
 10
-42.1513
 20
-2.6807
 30
0.0
 10
-42.1513
 20
-2.6807
 30
0.0
 10
-42.1513
 20
-2.6807
 30
0.0
 10
-42.1513
 20
-2.6807
 30
0.0
 10
-42.1513
 20
-2.0198
 30
0.0
 10
-42.1513
 20
-2.0198
 30
0.0
 10
-42.1513
 20
-2.0198
 30
0.0
 10
-42.1513
 20
-2.0198
 30
0.0
 10
-44.9384
 20
-2.0198
 30
0.0
 10
-44.9384
 20
-2.0198
 30
0.0
 10
-44.9384
 20
-2.0198
 30
0.0
 10
-44.9384
 20
-2.0198
 30
0.0
 10
-44.9384
 20
-1.2975
 30
0.0
 10
-44.9384
 20
-1.2975
 30
0.0
 10
-44.9384
 20
-1.2975
 30
0.0
 10
-44.9384
 20
-1.2975
 30
0.0
 10
-42.1513
 20
-1.2975
 30
0.0
 10
-42.1513
 20
-1.2975
 30
0.0
 10
-42.1513
 20
-1.2975
 30
0.0
 10
-42.1513
 20
-1.2975
 30
0.0
 10
-42.1513
 20
-0.5219
 30
0.0
 10
-42.1513
 20
-0.5219
 30
0.0
 10
-42.1513
 20
-0.5219
 30
0.0
 10
-42.1513
 20
-0.5219
 30
0.0
 10
-44.9384
 20
-0.5219
 30
0.0
 10
-44.9384
 20
-0.5219
 30
0.0
 10
-44.9384
 20
-0.5219
 30
0.0
 10
-44.9384
 20
-0.5219
 30
0.0
 10
-44.9384
 20
0.2991
 30
0.0
 10
-44.9384
 20
0.2991
 30
0.0
 10
-44.9384
 20
0.2991
 30
0.0
 10
-44.9384
 20
0.2991
 30
0.0
 10
-42.1513
 20
0.2991
 30
0.0
 10
-42.1513
 20
0.2991
 30
0.0
 10
-42.1513
 20
0.2991
 30
0.0
 10
-42.1513
 20
0.2991
 30
0.0
 10
-42.1513
 20
1.1557
 30
0.0
 10
-42.1513
 20
1.1557
 30
0.0
 10
-42.1513
 20
1.1557
 30
0.0
 10
-42.1513
 20
1.1557
 30
0.0
 10
-44.9384
 20
1.1557
 30
0.0
 10
-44.9384
 20
1.1557
 30
0.0
 10
-44.9384
 20
1.1557
 30
0.0
 10
-44.9384
 20
1.1557
 30
0.0
 10
-44.9384
 20
2.0392
 30
0.0
 10
-44.9384
 20
2.0392
 30
0.0
 10
-44.9384
 20
2.0392
 30
0.0
 10
-44.9384
 20
2.0392
 30
0.0
 10
-42.1513
 20
2.0392
 30
0.0
 10
-42.1513
 20
2.0392
 30
0.0
 10
-42.1513
 20
2.0392
 30
0.0
 10
-42.1513
 20
2.0392
 30
0.0
 10
-42.1513
 20
2.9396
 30
0.0
 10
-42.1513
 20
2.9396
 30
0.0
 10
-42.1513
 20
2.9396
 30
0.0
 10
-42.1513
 20
2.9396
 30
0.0
 10
-44.9384
 20
2.9396
 30
0.0
 10
-44.9384
 20
2.9396
 30
0.0
 10
-44.9384
 20
2.9396
 30
0.0
 10
-44.9384
 20
2.9396
 30
0.0
 10
-44.9384
 20
3.847
 30
0.0
 10
-44.9384
 20
3.847
 30
0.0
 10
-44.9384
 20
3.847
 30
0.0
 10
-44.9384
 20
3.847
 30
0.0
 10
-42.1513
 20
3.847
 30
0.0
 10
-42.1513
 20
3.847
 30
0.0
 10
-42.1513
 20
3.847
 30
0.0
 10
-42.1513
 20
3.847
 30
0.0
 10
-42.1513
 20
4.7516
 30
0.0
 10
-42.1513
 20
4.7516
 30
0.0
 10
-42.1513
 20
4.7516
 30
0.0
 10
-42.1513
 20
4.7516
 30
0.0
 10
-44.9384
 20
4.7516
 30
0.0
 10
-44.9384
 20
4.7516
 30
0.0
 10
-44.9384
 20
4.7516
 30
0.0
 10
-44.9384
 20
4.7516
 30
0.0
 10
-44.9384
 20
5.6434
 30
0.0
 10
-44.9384
 20
5.6434
 30
0.0
 10
-44.9384
 20
5.6434
 30
0.0
 10
-44.9384
 20
5.6434
 30
0.0
 10
-42.1513
 20
5.6434
 30
0.0
 10
-42.1513
 20
5.6434
 30
0.0
 10
-42.1513
 20
5.6434
 30
0.0
 10
-42.1513
 20
5.6434
 30
0.0
 10
-42.1513
 20
6.5127
 30
0.0
 10
-42.1513
 20
6.5127
 30
0.0
 10
-42.1513
 20
6.5127
 30
0.0
 10
-42.1513
 20
6.5127
 30
0.0
 10
-44.9384
 20
6.5127
 30
0.0
 10
-44.9384
 20
6.5127
 30
0.0
 10
-44.9384
 20
6.5127
 30
0.0
 10
-44.9384
 20
6.5127
 30
0.0
 10
-44.9384
 20
7.3497
 30
0.0
 10
-44.9384
 20
7.3497
 30
0.0
 10
-44.9384
 20
7.3497
 30
0.0
 10
-44.9384
 20
7.3497
 30
0.0
 10
-42.1513
 20
7.3497
 30
0.0
 10
-42.1513
 20
7.3497
 30
0.0
 10
-42.1513
 20
7.3497
 30
0.0
 10
-42.1513
 20
7.3497
 30
0.0
 10
-42.1513
 20
8.1457
 30
0.0
 10
-42.1513
 20
8.1457
 30
0.0
 10
-42.1513
 20
8.1457
 30
0.0
 10
-42.1513
 20
8.1457
 30
0.0
 10
-44.9384
 20
8.1457
 30
0.0
 10
-44.9384
 20
8.1457
 30
0.0
 10
-44.9384
 20
8.1457
 30
0.0
 10
-44.9384
 20
8.1457
 30
0.0
 10
-44.9384
 20
8.8916
 30
0.0
 10
-44.9384
 20
8.8916
 30
0.0
 10
-44.9384
 20
8.8916
 30
0.0
 10
-44.9384
 20
8.8916
 30
0.0
 10
-42.1513
 20
8.8916
 30
0.0
 10
-42.1513
 20
8.8916
 30
0.0
 10
-42.1513
 20
8.8916
 30
0.0
 10
-42.1513
 20
8.8916
 30
0.0
 10
-42.1513
 20
9.5796
 30
0.0
 10
-42.1513
 20
9.5796
 30
0.0
 10
-42.1513
 20
9.5796
 30
0.0
 10
-42.1513
 20
9.5796
 30
0.0
 10
-44.9384
 20
9.5796
 30
0.0
 10
-44.9384
 20
9.5796
 30
0.0
 10
-44.9384
 20
9.5796
 30
0.0
 10
-44.9384
 20
9.5796
 30
0.0
 10
-44.9384
 20
10.2017
 30
0.0
 10
-44.9384
 20
10.2017
 30
0.0
 10
-44.9384
 20
10.2017
 30
0.0
 10
-44.9384
 20
10.2017
 30
0.0
 10
-42.1513
 20
10.2017
 30
0.0
 10
-42.1513
 20
10.2017
 30
0.0
 10
-42.1513
 20
10.2017
 30
0.0
 10
-42.1513
 20
10.2017
 30
0.0
 10
-42.1513
 20
10.9422
 30
0.0
 10
-42.1513
 20
10.9422
 30
0.0
 10
-42.1513
 20
10.9422
 30
0.0
 10
-42.1513
 20
10.9422
 30
0.0
 10
-42.1258
 20
10.9422
 30
0.0
 10
-42.1258
 20
10.9422
 30
0.0
 10
-42.1258
 20
10.9422
 30
0.0
 10
-42.1258
 20
10.9422
 30
0.0
 10
-42.1513
 20
10.9422
 30
0.0
 10
-42.1513
 20
10.9422
 30
0.0
 10
-42.1513
 20
10.9422
 30
0.0
 10
-42.1513
 20
10.9422
 30
0.0
 10
-42.1513
 20
11.7482
 30
0.0
 10
-42.1513
 20
11.7482
 30
0.0
 10
-42.1513
 20
11.7482
 30
0.0
 10
-42.1513
 20
11.7482
 30
0.0
 10
-44.9384
 20
11.7482
 30
0.0
 10
-44.9384
 20
11.7482
 30
0.0
 10
-44.9384
 20
11.7482
 30
0.0
 10
-44.9384
 20
11.7482
 30
0.0
 10
-44.9384
 20
12.1784
 30
0.0
 10
-44.9384
 20
12.1784
 30
0.0
 10
-44.9384
 20
12.1784
 30
0.0
 10
-44.9384
 20
12.1784
 30
0.0
 10
-42.1513
 20
12.1784
 30
0.0
 10
-42.1513
 20
12.1784
 30
0.0
 10
-42.1513
 20
12.1784
 30
0.0
 10
-42.1513
 20
12.1784
 30
0.0
 10
-42.1513
 20
12.2331
 30
0.0
 10
-42.1513
 20
12.2331
 30
0.0
 10
-42.1513
 20
12.2331
 30
0.0
 10
-42.1513
 20
12.2331
 30
0.0
 10
-44.9384
 20
12.2331
 30
0.0
 10
-44.9384
 20
12.2331
 30
0.0
 10
-44.9384
 20
12.2331
 30
0.0
 10
-44.9384
 20
12.2331
 30
0.0
 10
-44.9384
 20
12.2533
 30
0.0
 10
-44.9384
 20
12.2533
 30
0.0
 10
-44.9384
 20
12.2533
 30
0.0
 10
-44.9384
 20
12.2533
 30
0.0
 10
-42.1513
 20
12.2533
 30
0.0
 10
-42.1513
 20
12.2533
 30
0.0
 10
-42.1513
 20
12.2533
 30
0.0
 10
-42.1513
 20
12.2533
 30
0.0
 10
-42.1513
 20
12.2331
 30
0.0
 10
-42.1513
 20
12.2331
 30
0.0
 10
-42.1513
 20
12.2331
 30
0.0
 10
-42.1513
 20
12.2331
 30
0.0
 10
-42.1513
 20
12.1784
 30
0.0
 10
-42.1513
 20
12.1784
 30
0.0
 10
-42.1513
 20
12.1784
 30
0.0
 10
-42.1513
 20
12.1784
 30
0.0
 10
-42.1513
 20
11.8718
 30
0.0
 10
-42.1513
 20
11.8718
 30
0.0
 10
-42.1513
 20
11.8718
 30
0.0
 10
-42.1513
 20
11.8718
 30
0.0
 10
-40.061
 20
11.8718
 30
0.0
 10
-40.061
 20
11.8718
 30
0.0
 10
-40.061
 20
11.8718
 30
0.0
 10
-40.061
 20
11.8718
 30
0.0
 10
-42.1513
 20
11.8718
 30
0.0
 10
-42.1513
 20
11.8718
 30
0.0
 10
-42.1513
 20
11.8718
 30
0.0
 10
-42.1513
 20
11.8718
 30
0.0
 10
-42.1513
 20
11.7482
 30
0.0
 10
-42.1513
 20
11.7482
 30
0.0
 10
-42.1513
 20
11.7482
 30
0.0
 10
-42.1513
 20
11.7482
 30
0.0
 10
-42.1513
 20
10.9422
 30
0.0
 10
-42.1513
 20
10.9422
 30
0.0
 10
-42.1513
 20
10.9422
 30
0.0
 10
-42.1513
 20
10.9422
 30
0.0
 10
-44.9131
 20
10.9422
 30
0.0
 10
-44.9131
 20
10.9422
 30
0.0
 10
-44.9131
 20
10.9422
 30
0.0
 10
-44.9131
 20
10.9422
 30
0.0
 10
-42.1513
 20
10.9422
 30
0.0
 10
-42.1513
 20
10.9422
 30
0.0
 10
-42.1513
 20
10.9422
 30
0.0
 10
-42.1513
 20
10.9422
 30
0.0
 10
-42.1513
 20
10.2017
 30
0.0
 10
-42.1513
 20
10.2017
 30
0.0
 10
-42.1513
 20
10.2017
 30
0.0
 10
-42.1513
 20
10.2017
 30
0.0
 10
-42.1513
 20
9.5796
 30
0.0
 10
-42.1513
 20
9.5796
 30
0.0
 10
-42.1513
 20
9.5796
 30
0.0
 10
-42.1513
 20
9.5796
 30
0.0
 10
-42.1513
 20
8.8916
 30
0.0
 10
-42.1513
 20
8.8916
 30
0.0
 10
-42.1513
 20
8.8916
 30
0.0
 10
-42.1513
 20
8.8916
 30
0.0
 10
-42.1513
 20
8.1457
 30
0.0
 10
-42.1513
 20
8.1457
 30
0.0
 10
-42.1513
 20
8.1457
 30
0.0
 10
-42.1513
 20
8.1457
 30
0.0
 10
-42.1513
 20
7.3497
 30
0.0
 10
-42.1513
 20
7.3497
 30
0.0
 10
-42.1513
 20
7.3497
 30
0.0
 10
-42.1513
 20
7.3497
 30
0.0
 10
-42.1513
 20
6.5127
 30
0.0
 10
-42.1513
 20
6.5127
 30
0.0
 10
-42.1513
 20
6.5127
 30
0.0
 10
-42.1513
 20
6.5127
 30
0.0
 10
-42.1513
 20
5.6434
 30
0.0
 10
-42.1513
 20
5.6434
 30
0.0
 10
-42.1513
 20
5.6434
 30
0.0
 10
-42.1513
 20
5.6434
 30
0.0
 10
-42.1513
 20
4.7516
 30
0.0
 10
-42.1513
 20
4.7516
 30
0.0
 10
-42.1513
 20
4.7516
 30
0.0
 10
-42.1513
 20
4.7516
 30
0.0
 10
-42.1513
 20
3.847
 30
0.0
 10
-42.1513
 20
3.847
 30
0.0
 10
-42.1513
 20
3.847
 30
0.0
 10
-42.1513
 20
3.847
 30
0.0
 10
-42.1513
 20
2.9396
 30
0.0
 10
-42.1513
 20
2.9396
 30
0.0
 10
-42.1513
 20
2.9396
 30
0.0
 10
-42.1513
 20
2.9396
 30
0.0
 10
-42.1513
 20
2.0392
 30
0.0
 10
-42.1513
 20
2.0392
 30
0.0
 10
-42.1513
 20
2.0392
 30
0.0
 10
-42.1513
 20
2.0392
 30
0.0
 10
-42.1513
 20
1.1557
 30
0.0
 10
-42.1513
 20
1.1557
 30
0.0
 10
-42.1513
 20
1.1557
 30
0.0
 10
-42.1513
 20
1.1557
 30
0.0
 10
-42.1513
 20
0.2991
 30
0.0
 10
-42.1513
 20
0.2991
 30
0.0
 10
-42.1513
 20
0.2991
 30
0.0
 10
-42.1513
 20
0.2991
 30
0.0
 10
-42.1513
 20
-0.5219
 30
0.0
 10
-42.1513
 20
-0.5219
 30
0.0
 10
-42.1513
 20
-0.5219
 30
0.0
 10
-42.1513
 20
-0.5219
 30
0.0
 10
-42.1513
 20
-1.2975
 30
0.0
 10
-42.1513
 20
-1.2975
 30
0.0
 10
-42.1513
 20
-1.2975
 30
0.0
 10
-42.1513
 20
-1.2975
 30
0.0
 10
-42.1513
 20
-2.0198
 30
0.0
 10
-42.1513
 20
-2.0198
 30
0.0
 10
-42.1513
 20
-2.0198
 30
0.0
 10
-42.1513
 20
-2.0198
 30
0.0
 10
-42.1513
 20
-2.6807
 30
0.0
 10
-42.1513
 20
-2.6807
 30
0.0
 10
-42.1513
 20
-2.6807
 30
0.0
 10
-42.1513
 20
-2.6807
 30
0.0
 10
-42.1513
 20
-3.2729
 30
0.0
 10
-42.1513
 20
-3.2729
 30
0.0
 10
-42.1513
 20
-3.2729
 30
0.0
 10
-42.1513
 20
-3.2729
 30
0.0
 10
-42.1513
 20
-3.7899
 30
0.0
 10
-42.1513
 20
-3.7899
 30
0.0
 10
-42.1513
 20
-3.7899
 30
0.0
 10
-42.1513
 20
-3.7899
 30
0.0
 10
-42.1513
 20
-4.2263
 30
0.0
 10
-42.1513
 20
-4.2263
 30
0.0
 10
-42.1513
 20
-4.2263
 30
0.0
 10
-42.1513
 20
-4.2263
 30
0.0
 10
-42.1513
 20
-4.7004
 30
0.0
 10
-42.1513
 20
-4.7004
 30
0.0
 10
-42.1513
 20
-4.7004
 30
0.0
 10
-42.1513
 20
-4.7004
 30
0.0
 10
-42.1513
 20
-4.7384
 30
0.0
 10
-42.1513
 20
-4.7384
 30
0.0
 10
-42.1513
 20
-4.7384
 30
0.0
 10
-42.1513
 20
-4.7384
 30
0.0
 10
-42.1513
 20
-5.0618
 30
0.0
 10
-42.1513
 20
-5.0618
 30
0.0
 10
-42.1513
 20
-5.0618
 30
0.0
 10
-42.1513
 20
-5.0618
 30
0.0
 10
-42.1513
 20
-5.0819
 30
0.0
 10
-42.1513
 20
-5.0819
 30
0.0
 10
-42.1513
 20
-5.0819
 30
0.0
 10
-42.1513
 20
-5.0819
 30
0.0
 10
-44.9384
 20
-5.0819
 30
0.0
 10
-44.9384
 20
-5.0819
 30
0.0
 10
-44.9384
 20
-5.0819
 30
0.0
 10
-44.9384
 20
-5.0819
 30
0.0
 10
-44.9384
 20
-5.0618
 30
0.0
 10
-44.9384
 20
-5.0618
 30
0.0
 10
-44.9384
 20
-5.0618
 30
0.0
 10
-44.9384
 20
-5.0618
 30
0.0
 10
-42.1513
 20
-5.0618
 30
0.0
 10
-42.1513
 20
-5.0618
 30
0.0
 10
-42.1513
 20
-5.0618
 30
0.0
 10
-42.1513
 20
-5.0618
 30
0.0
 10
-42.1513
 20
-4.7384
 30
0.0
 10
-42.1513
 20
-4.7384
 30
0.0
 10
-42.1513
 20
-4.7384
 30
0.0
 10
-42.1513
 20
-4.7384
 30
0.0
 10
-44.9384
 20
-4.7384
 30
0.0
 10
-44.9384
 20
-4.7384
 30
0.0
 10
-44.9384
 20
-4.7384
 30
0.0
 10
-44.9384
 20
-4.7384
 30
0.0
 10
-44.9384
 20
-4.2263
 30
0.0
 10
-44.9384
 20
-4.2263
 30
0.0
 10
-44.9384
 20
-4.2263
 30
0.0
 10
-44.9384
 20
-4.2263
 30
0.0
 10
-42.1513
 20
-4.2263
 30
0.0
 10
-42.1513
 20
-4.2263
 30
0.0
 10
-42.1513
 20
-4.2263
 30
0.0
 10
-42.1513
 20
-4.2263
 30
0.0
 10
-42.1513
 20
-3.7899
 30
0.0
 10
-42.1513
 20
-3.7899
 30
0.0
 10
-42.1513
 20
-3.7899
 30
0.0
 10
-42.1513
 20
-3.7899
 30
0.0
 10
-44.9384
 20
-3.7899
 30
0.0
 10
-44.9384
 20
-3.7899
 30
0.0
 10
-44.9384
 20
-3.7899
 30
0.0
 10
-44.9384
 20
-3.7899
 30
0.0
 10
-44.9384
 20
-3.2729
 30
0.0
 10
-44.9384
 20
-3.2729
 30
0.0
 10
-44.9384
 20
-3.2729
 30
0.0
 10
-44.9384
 20
-3.2729
 30
0.0
 10
-42.1513
 20
-3.2729
 30
0.0
 10
-42.1513
 20
-3.2729
 30
0.0
 10
-42.1513
 20
-3.2729
 30
0.0
 10
-42.1513
 20
-3.2729
 30
0.0
 10
-42.1513
 20
-2.6807
 30
0.0
 10
-42.1513
 20
-2.6807
 30
0.0
 10
-42.1513
 20
-2.6807
 30
0.0
 10
-42.1513
 20
-2.6807
 30
0.0
 10
-44.9384
 20
-2.6807
 30
0.0
 10
-44.9384
 20
-2.6807
 30
0.0
 10
-44.9384
 20
-2.6807
 30
0.0
 10
-44.9384
 20
-2.6807
 30
0.0
 10
-44.9384
 20
-2.0198
 30
0.0
 10
-44.9384
 20
-2.0198
 30
0.0
 10
-44.9384
 20
-2.0198
 30
0.0
 10
-44.9384
 20
-2.0198
 30
0.0
 10
-42.1513
 20
-2.0198
 30
0.0
 10
-42.1513
 20
-2.0198
 30
0.0
 10
-42.1513
 20
-2.0198
 30
0.0
 10
-42.1513
 20
-2.0198
 30
0.0
 10
-42.1513
 20
-1.2975
 30
0.0
 10
-42.1513
 20
-1.2975
 30
0.0
 10
-42.1513
 20
-1.2975
 30
0.0
 10
-42.1513
 20
-1.2975
 30
0.0
 10
-44.9384
 20
-1.2975
 30
0.0
 10
-44.9384
 20
-1.2975
 30
0.0
 10
-44.9384
 20
-1.2975
 30
0.0
 10
-44.9384
 20
-1.2975
 30
0.0
 10
-44.9384
 20
-0.5219
 30
0.0
 10
-44.9384
 20
-0.5219
 30
0.0
 10
-44.9384
 20
-0.5219
 30
0.0
 10
-44.9384
 20
-0.5219
 30
0.0
 10
-42.1513
 20
-0.5219
 30
0.0
 10
-42.1513
 20
-0.5219
 30
0.0
 10
-42.1513
 20
-0.5219
 30
0.0
 10
-42.1513
 20
-0.5219
 30
0.0
 10
-42.1513
 20
0.2991
 30
0.0
 10
-42.1513
 20
0.2991
 30
0.0
 10
-42.1513
 20
0.2991
 30
0.0
 10
-42.1513
 20
0.2991
 30
0.0
 10
-44.9384
 20
0.2991
 30
0.0
 10
-44.9384
 20
0.2991
 30
0.0
 10
-44.9384
 20
0.2991
 30
0.0
 10
-44.9384
 20
0.2991
 30
0.0
 10
-44.9384
 20
1.1557
 30
0.0
 10
-44.9384
 20
1.1557
 30
0.0
 10
-44.9384
 20
1.1557
 30
0.0
 10
-44.9384
 20
1.1557
 30
0.0
 10
-42.1513
 20
1.1557
 30
0.0
 10
-42.1513
 20
1.1557
 30
0.0
 10
-42.1513
 20
1.1557
 30
0.0
 10
-42.1513
 20
1.1557
 30
0.0
 10
-42.1513
 20
2.0392
 30
0.0
 10
-42.1513
 20
2.0392
 30
0.0
 10
-42.1513
 20
2.0392
 30
0.0
 10
-42.1513
 20
2.0392
 30
0.0
 10
-44.9384
 20
2.0392
 30
0.0
 10
-44.9384
 20
2.0392
 30
0.0
 10
-44.9384
 20
2.0392
 30
0.0
 10
-44.9384
 20
2.0392
 30
0.0
 10
-44.9384
 20
2.9396
 30
0.0
 10
-44.9384
 20
2.9396
 30
0.0
 10
-44.9384
 20
2.9396
 30
0.0
 10
-44.9384
 20
2.9396
 30
0.0
 10
-42.1513
 20
2.9396
 30
0.0
 10
-42.1513
 20
2.9396
 30
0.0
 10
-42.1513
 20
2.9396
 30
0.0
 10
-42.1513
 20
2.9396
 30
0.0
 10
-42.1513
 20
3.847
 30
0.0
 10
-42.1513
 20
3.847
 30
0.0
 10
-42.1513
 20
3.847
 30
0.0
 10
-42.1513
 20
3.847
 30
0.0
 10
-44.9384
 20
3.847
 30
0.0
 10
-44.9384
 20
3.847
 30
0.0
 10
-44.9384
 20
3.847
 30
0.0
 10
-44.9384
 20
3.847
 30
0.0
 10
-44.9384
 20
4.7516
 30
0.0
 10
-44.9384
 20
4.7516
 30
0.0
 10
-44.9384
 20
4.7516
 30
0.0
 10
-44.9384
 20
4.7516
 30
0.0
 10
-42.1513
 20
4.7516
 30
0.0
 10
-42.1513
 20
4.7516
 30
0.0
 10
-42.1513
 20
4.7516
 30
0.0
 10
-42.1513
 20
4.7516
 30
0.0
 10
-42.1513
 20
5.6434
 30
0.0
 10
-42.1513
 20
5.6434
 30
0.0
 10
-42.1513
 20
5.6434
 30
0.0
 10
-42.1513
 20
5.6434
 30
0.0
 10
-44.9384
 20
5.6434
 30
0.0
 10
-44.9384
 20
5.6434
 30
0.0
 10
-44.9384
 20
5.6434
 30
0.0
 10
-44.9384
 20
5.6434
 30
0.0
 10
-44.9384
 20
6.5127
 30
0.0
 10
-44.9384
 20
6.5127
 30
0.0
 10
-44.9384
 20
6.5127
 30
0.0
 10
-44.9384
 20
6.5127
 30
0.0
 10
-42.1513
 20
6.5127
 30
0.0
 10
-42.1513
 20
6.5127
 30
0.0
 10
-42.1513
 20
6.5127
 30
0.0
 10
-42.1513
 20
6.5127
 30
0.0
 10
-42.1513
 20
7.3497
 30
0.0
 10
-42.1513
 20
7.3497
 30
0.0
 10
-42.1513
 20
7.3497
 30
0.0
 10
-42.1513
 20
7.3497
 30
0.0
 10
-44.9384
 20
7.3497
 30
0.0
 10
-44.9384
 20
7.3497
 30
0.0
 10
-44.9384
 20
7.3497
 30
0.0
 10
-44.9384
 20
7.3497
 30
0.0
 10
-44.9384
 20
8.1457
 30
0.0
 10
-44.9384
 20
8.1457
 30
0.0
 10
-44.9384
 20
8.1457
 30
0.0
 10
-44.9384
 20
8.1457
 30
0.0
 10
-42.1513
 20
8.1457
 30
0.0
 10
-42.1513
 20
8.1457
 30
0.0
 10
-42.1513
 20
8.1457
 30
0.0
 10
-42.1513
 20
8.1457
 30
0.0
 10
-42.1513
 20
8.8916
 30
0.0
 10
-42.1513
 20
8.8916
 30
0.0
 10
-42.1513
 20
8.8916
 30
0.0
 10
-42.1513
 20
8.8916
 30
0.0
 10
-44.9384
 20
8.8916
 30
0.0
 10
-44.9384
 20
8.8916
 30
0.0
 10
-44.9384
 20
8.8916
 30
0.0
 10
-44.9384
 20
8.8916
 30
0.0
 10
-44.9384
 20
9.5796
 30
0.0
 10
-44.9384
 20
9.5796
 30
0.0
 10
-44.9384
 20
9.5796
 30
0.0
 10
-44.9384
 20
9.5796
 30
0.0
 10
-42.1513
 20
9.5796
 30
0.0
 10
-42.1513
 20
9.5796
 30
0.0
 10
-42.1513
 20
9.5796
 30
0.0
 10
-42.1513
 20
9.5796
 30
0.0
 10
-42.1513
 20
10.2017
 30
0.0
 10
-42.1513
 20
10.2017
 30
0.0
 10
-42.1513
 20
10.2017
 30
0.0
 10
-42.1513
 20
10.2017
 30
0.0
 10
-44.9384
 20
10.2017
 30
0.0
 10
-44.9384
 20
10.2017
 30
0.0
 10
-44.9384
 20
10.2017
 30
0.0
 10
-44.9384
 20
10.2017
 30
0.0
 10
-44.9384
 20
11.7482
 30
0.0
 10
-44.9384
 20
11.7482
 30
0.0
 10
-44.9384
 20
11.7482
 30
0.0
 10
-44.9384
 20
11.7482
 30
0.0
 10
-42.1513
 20
11.7482
 30
0.0
 10
-42.1513
 20
11.7482
 30
0.0
 10
-42.1513
 20
11.7482
 30
0.0
 10
-42.1513
 20
11.7482
 30
0.0
 10
-42.1513
 20
11.8718
 30
0.0
 10
-42.1513
 20
11.8718
 30
0.0
 10
-42.1513
 20
11.8718
 30
0.0
 10
-42.1513
 20
11.8718
 30
0.0
 10
-42.1513
 20
12.1784
 30
0.0
 10
-42.1513
 20
12.1784
 30
0.0
 10
-42.1513
 20
12.1784
 30
0.0
 10
-42.1513
 20
12.1784
 30
0.0
 10
-44.9384
 20
12.1784
 30
0.0
 10
-44.9384
 20
12.1784
 30
0.0
 10
-44.9384
 20
12.1784
 30
0.0
 10
-44.9384
 20
12.1784
 30
0.0
 10
-44.9384
 20
12.2331
 30
0.0
 10
-44.9384
 20
12.2331
 30
0.0
 10
-44.9384
 20
12.2331
 30
0.0
 10
-44.9384
 20
12.2331
 30
0.0
 10
-42.1513
 20
12.2331
 30
0.0
 10
-42.1513
 20
12.2331
 30
0.0
 10
-42.1513
 20
12.2331
 30
0.0
 10
-42.1513
 20
12.2331
 30
0.0
 10
-42.1513
 20
12.2533
 30
0.0
 10
-42.1513
 20
12.2533
 30
0.0
 10
-42.1513
 20
12.2533
 30
0.0
 10
-42.1513
 20
12.2533
 30
0.0
 10
-44.9384
 20
12.2533
 30
0.0
 10
-44.9384
 20
12.2533
 30
0.0
 10
-44.9384
 20
12.2533
 30
0.0
 10
-44.9384
 20
12.2533
 30
0.0
 10
-44.9384
 20
12.2571
 30
0.0
 10
-44.9384
 20
12.2571
 30
0.0
 10
-44.9384
 20
12.2571
 30
0.0
 10
-44.9384
 20
12.2571
 30
0.0
 10
-42.1513
 20
12.2571
 30
0.0
 10
-42.1513
 20
12.2571
 30
0.0
 10
-42.1513
 20
12.2571
 30
0.0
 10
-42.1513
 20
12.2571
 30
0.0
 10
-44.9384
 20
12.2571
 30
0.0
 10
-44.9384
 20
12.2571
 30
0.0
 10
-44.9384
 20
12.2571
 30
0.0
 10
-44.9384
 20
12.2571
 30
0.0
 10
-44.9384
 20
12.2533
 30
0.0
 10
-44.9384
 20
12.2533
 30
0.0
 10
-44.9384
 20
12.2533
 30
0.0
 10
-44.9384
 20
12.2533
 30
0.0
 10
-44.9384
 20
12.2331
 30
0.0
 10
-44.9384
 20
12.2331
 30
0.0
 10
-44.9384
 20
12.2331
 30
0.0
 10
-44.9384
 20
12.2331
 30
0.0
 10
-44.9384
 20
12.1784
 30
0.0
 10
-44.9384
 20
12.1784
 30
0.0
 10
-44.9384
 20
12.1784
 30
0.0
 10
-44.9384
 20
12.1784
 30
0.0
 10
-44.9384
 20
11.7482
 30
0.0
 10
-44.9384
 20
11.7482
 30
0.0
 10
-44.9384
 20
11.7482
 30
0.0
 10
-44.9384
 20
11.7482
 30
0.0
 10
-44.9384
 20
10.2017
 30
0.0
 10
-44.9384
 20
10.2017
 30
0.0
 10
-44.9384
 20
10.2017
 30
0.0
 10
-44.9384
 20
10.2017
 30
0.0
 10
-44.9384
 20
9.5796
 30
0.0
 10
-44.9384
 20
9.5796
 30
0.0
 10
-44.9384
 20
9.5796
 30
0.0
 10
-44.9384
 20
9.5796
 30
0.0
 10
-44.9384
 20
8.8916
 30
0.0
 10
-44.9384
 20
8.8916
 30
0.0
 10
-44.9384
 20
8.8916
 30
0.0
 10
-44.9384
 20
8.8916
 30
0.0
 10
-44.9384
 20
8.1457
 30
0.0
 10
-44.9384
 20
8.1457
 30
0.0
 10
-44.9384
 20
8.1457
 30
0.0
 10
-44.9384
 20
8.1457
 30
0.0
 10
-44.9384
 20
7.3497
 30
0.0
 10
-44.9384
 20
7.3497
 30
0.0
 10
-44.9384
 20
7.3497
 30
0.0
 10
-44.9384
 20
7.3497
 30
0.0
 10
-44.9384
 20
6.5127
 30
0.0
 10
-44.9384
 20
6.5127
 30
0.0
 10
-44.9384
 20
6.5127
 30
0.0
 10
-44.9384
 20
6.5127
 30
0.0
 10
-44.9384
 20
5.6434
 30
0.0
 10
-44.9384
 20
5.6434
 30
0.0
 10
-44.9384
 20
5.6434
 30
0.0
 10
-44.9384
 20
5.6434
 30
0.0
 10
-44.9384
 20
4.7516
 30
0.0
 10
-44.9384
 20
4.7516
 30
0.0
 10
-44.9384
 20
4.7516
 30
0.0
 10
-44.9384
 20
4.7516
 30
0.0
 10
-44.9384
 20
3.847
 30
0.0
 10
-44.9384
 20
3.847
 30
0.0
 10
-44.9384
 20
3.847
 30
0.0
 10
-44.9384
 20
3.847
 30
0.0
 10
-44.9384
 20
2.9396
 30
0.0
 10
-44.9384
 20
2.9396
 30
0.0
 10
-44.9384
 20
2.9396
 30
0.0
 10
-44.9384
 20
2.9396
 30
0.0
 10
-44.9384
 20
2.0392
 30
0.0
 10
-44.9384
 20
2.0392
 30
0.0
 10
-44.9384
 20
2.0392
 30
0.0
 10
-44.9384
 20
2.0392
 30
0.0
 10
-44.9384
 20
1.1557
 30
0.0
 10
-44.9384
 20
1.1557
 30
0.0
 10
-44.9384
 20
1.1557
 30
0.0
 10
-44.9384
 20
1.1557
 30
0.0
 10
-44.9384
 20
0.2991
 30
0.0
 10
-44.9384
 20
0.2991
 30
0.0
 10
-44.9384
 20
0.2991
 30
0.0
 10
-44.9384
 20
0.2991
 30
0.0
 10
-44.9384
 20
-0.5219
 30
0.0
 10
-44.9384
 20
-0.5219
 30
0.0
 10
-44.9384
 20
-0.5219
 30
0.0
 10
-44.9384
 20
-0.5219
 30
0.0
 10
-44.9384
 20
-1.2975
 30
0.0
 10
-44.9384
 20
-1.2975
 30
0.0
 10
-44.9384
 20
-1.2975
 30
0.0
 10
-44.9384
 20
-1.2975
 30
0.0
 10
-44.9384
 20
-2.0198
 30
0.0
 10
-44.9384
 20
-2.0198
 30
0.0
 10
-44.9384
 20
-2.0198
 30
0.0
 10
-44.9384
 20
-2.0198
 30
0.0
 10
-44.9384
 20
-2.6807
 30
0.0
 10
-44.9384
 20
-2.6807
 30
0.0
 10
-44.9384
 20
-2.6807
 30
0.0
 10
-44.9384
 20
-2.6807
 30
0.0
 10
-44.9384
 20
-3.2729
 30
0.0
 10
-44.9384
 20
-3.2729
 30
0.0
 10
-44.9384
 20
-3.2729
 30
0.0
 10
-44.9384
 20
-3.2729
 30
0.0
 10
-44.9384
 20
-3.7899
 30
0.0
 10
-44.9384
 20
-3.7899
 30
0.0
 10
-44.9384
 20
-3.7899
 30
0.0
 10
-44.9384
 20
-3.7899
 30
0.0
 10
-44.9384
 20
-4.2263
 30
0.0
 10
-44.9384
 20
-4.2263
 30
0.0
 10
-44.9384
 20
-4.2263
 30
0.0
 10
-44.9384
 20
-4.2263
 30
0.0
 10
-44.9384
 20
-4.7384
 30
0.0
 10
-44.9384
 20
-4.7384
 30
0.0
 10
-44.9384
 20
-4.7384
 30
0.0
 10
-44.9384
 20
-4.7384
 30
0.0
 10
-44.9384
 20
-5.0618
 30
0.0
 10
-44.9384
 20
-5.0618
 30
0.0
 10
-44.9384
 20
-5.0618
 30
0.0
 10
-44.9384
 20
-5.0618
 30
0.0
 10
-44.9384
 20
-5.0819
 30
0.0
 10
-44.9384
 20
-5.0819
 30
0.0
  0
SPLINE
  5
8B
330
1F
100
AcDbEntity
  8
VRSTVA_1
100
AcDbSpline
210
0.0
220
0.0
230
1.0
 70
    27
 71
     3
 72
    12
 73
     8
 74
     0
 42
0.0000000001
 43
0.0000000001
 40
0.0
 40
0.0
 40
0.0
 40
0.0
 40
0.3333333333333333
 40
0.3333333333333333
 40
0.3333333333333333
 40
0.3333333333333333
 40
1.0
 40
1.0
 40
1.0
 40
1.0
 10
-39.3642
 20
11.2938
 30
0.0
 10
-39.3642
 20
11.2938
 30
0.0
 10
-39.3642
 20
-4.1223
 30
0.0
 10
-39.3642
 20
-4.1223
 30
0.0
 10
-39.3642
 20
-4.1223
 30
0.0
 10
-39.3642
 20
-4.1223
 30
0.0
 10
-39.3642
 20
11.2938
 30
0.0
 10
-39.3642
 20
11.2938
 30
0.0
  0
SPLINE
  5
8C
330
1F
100
AcDbEntity
  8
VRSTVA_1
100
AcDbSpline
210
0.0
220
0.0
230
1.0
 70
    11
 71
     3
 72
    20
 73
    16
 74
     0
 42
0.0000000001
 43
0.0000000001
 40
0.0
 40
0.0
 40
0.0
 40
0.0
 40
0.2
 40
0.2
 40
0.2
 40
0.2
 40
0.4
 40
0.4
 40
0.4
 40
0.4
 40
0.6
 40
0.6
 40
0.6
 40
0.6
 40
1.0
 40
1.0
 40
1.0
 40
1.0
 10
-44.9384
 20
-5.0858
 30
0.0
 10
-44.9384
 20
-5.0858
 30
0.0
 10
-42.1513
 20
-5.0858
 30
0.0
 10
-42.1513
 20
-5.0858
 30
0.0
 10
-42.1513
 20
-5.0858
 30
0.0
 10
-42.1513
 20
-5.0858
 30
0.0
 10
-42.1513
 20
-5.0819
 30
0.0
 10
-42.1513
 20
-5.0819
 30
0.0
 10
-42.1513
 20
-5.0819
 30
0.0
 10
-42.1513
 20
-5.0819
 30
0.0
 10
-42.1513
 20
-5.0858
 30
0.0
 10
-42.1513
 20
-5.0858
 30
0.0
 10
-42.1513
 20
-5.0858
 30
0.0
 10
-42.1513
 20
-5.0858
 30
0.0
 10
-44.9384
 20
-5.0858
 30
0.0
 10
-44.9384
 20
-5.0858
 30
0.0
  0
SPLINE
  5
8D
330
1F
100
AcDbEntity
  8
VRSTVA_1
 62
   250
100
AcDbSpline
210
0.0
220
0.0
230
1.0
 70
    11
 71
     3
 72
    68
 73
    64
 74
     0
 42
0.0000000001
 43
0.0000000001
 40
0.0
 40
0.0
 40
0.0
 40
0.0
 40
0.0588235294117647
 40
0.0588235294117647
 40
0.0588235294117647
 40
0.0588235294117647
 40
0.1176470588235294
 40
0.1176470588235294
 40
0.1176470588235294
 40
0.1176470588235294
 40
0.1764705882352941
 40
0.1764705882352941
 40
0.1764705882352941
 40
0.1764705882352941
 40
0.2352941176470588
 40
0.2352941176470588
 40
0.2352941176470588
 40
0.2352941176470588
 40
0.2941176470588235
 40
0.2941176470588235
 40
0.2941176470588235
 40
0.2941176470588235
 40
0.3529411764705883
 40
0.3529411764705883
 40
0.3529411764705883
 40
0.3529411764705883
 40
0.4117647058823529
 40
0.4117647058823529
 40
0.4117647058823529
 40
0.4117647058823529
 40
0.4705882352941176
 40
0.4705882352941176
 40
0.4705882352941176
 40
0.4705882352941176
 40
0.5294117647058824
 40
0.5294117647058824
 40
0.5294117647058824
 40
0.5294117647058824
 40
0.5882352941176471
 40
0.5882352941176471
 40
0.5882352941176471
 40
0.5882352941176471
 40
0.6470588235294118
 40
0.6470588235294118
 40
0.6470588235294118
 40
0.6470588235294118
 40
0.7058823529411765
 40
0.7058823529411765
 40
0.7058823529411765
 40
0.7058823529411765
 40
0.7647058823529411
 40
0.7647058823529411
 40
0.7647058823529411
 40
0.7647058823529411
 40
0.8235294117647058
 40
0.8235294117647058
 40
0.8235294117647058
 40
0.8235294117647058
 40
0.8823529411764706
 40
0.8823529411764706
 40
0.8823529411764706
 40
0.8823529411764706
 40
1.0
 40
1.0
 40
1.0
 40
1.0
 10
-39.3984
 20
-2.0494
 30
0.0
 10
-39.3984
 20
-2.0494
 30
0.0
 10
-26.0904
 20
-2.0494
 30
0.0
 10
-26.0904
 20
-2.0494
 30
0.0
 10
-26.0904
 20
-2.0494
 30
0.0
 10
-26.0904
 20
-2.0494
 30
0.0
 10
-26.0904
 20
-1.6201
 30
0.0
 10
-26.0904
 20
-1.6201
 30
0.0
 10
-26.0904
 20
-1.6201
 30
0.0
 10
-26.0904
 20
-1.6201
 30
0.0
 10
-24.6594
 20
-1.6201
 30
0.0
 10
-24.6594
 20
-1.6201
 30
0.0
 10
-24.6594
 20
-1.6201
 30
0.0
 10
-24.6594
 20
-1.6201
 30
0.0
 10
-24.6594
 20
8.9691
 30
0.0
 10
-24.6594
 20
8.9691
 30
0.0
 10
-24.6594
 20
8.9691
 30
0.0
 10
-24.6594
 20
8.9691
 30
0.0
 10
-26.0904
 20
8.9691
 30
0.0
 10
-26.0904
 20
8.9691
 30
0.0
 10
-26.0904
 20
8.9691
 30
0.0
 10
-26.0904
 20
8.9691
 30
0.0
 10
-26.0904
 20
9.3984
 30
0.0
 10
-26.0904
 20
9.3984
 30
0.0
 10
-26.0904
 20
9.3984
 30
0.0
 10
-26.0904
 20
9.3984
 30
0.0
 10
-39.3984
 20
9.3984
 30
0.0
 10
-39.3984
 20
9.3984
 30
0.0
 10
-39.3984
 20
9.3984
 30
0.0
 10
-39.3984
 20
9.3984
 30
0.0
 10
-26.0904
 20
9.3984
 30
0.0
 10
-26.0904
 20
9.3984
 30
0.0
 10
-26.0904
 20
9.3984
 30
0.0
 10
-26.0904
 20
9.3984
 30
0.0
 10
-26.0904
 20
8.9691
 30
0.0
 10
-26.0904
 20
8.9691
 30
0.0
 10
-26.0904
 20
8.9691
 30
0.0
 10
-26.0904
 20
8.9691
 30
0.0
 10
-24.6594
 20
8.9691
 30
0.0
 10
-24.6594
 20
8.9691
 30
0.0
 10
-24.6594
 20
8.9691
 30
0.0
 10
-24.6594
 20
8.9691
 30
0.0
 10
-24.6594
 20
-1.6201
 30
0.0
 10
-24.6594
 20
-1.6201
 30
0.0
 10
-24.6594
 20
-1.6201
 30
0.0
 10
-24.6594
 20
-1.6201
 30
0.0
 10
-26.0904
 20
-1.6201
 30
0.0
 10
-26.0904
 20
-1.6201
 30
0.0
 10
-26.0904
 20
-1.6201
 30
0.0
 10
-26.0904
 20
-1.6201
 30
0.0
 10
-26.0904
 20
8.9691
 30
0.0
 10
-26.0904
 20
8.9691
 30
0.0
 10
-26.0904
 20
8.9691
 30
0.0
 10
-26.0904
 20
8.9691
 30
0.0
 10
-26.0904
 20
-1.6201
 30
0.0
 10
-26.0904
 20
-1.6201
 30
0.0
 10
-26.0904
 20
-1.6201
 30
0.0
 10
-26.0904
 20
-1.6201
 30
0.0
 10
-26.0904
 20
-2.0494
 30
0.0
 10
-26.0904
 20
-2.0494
 30
0.0
 10
-26.0904
 20
-2.0494
 30
0.0
 10
-26.0904
 20
-2.0494
 30
0.0
 10
-39.3984
 20
-2.0494
 30
0.0
 10
-39.3984
 20
-2.0494
 30
0.0
  0
ENDSEC
  0
SECTION
  2
OBJECTS
  0
DICTIONARY
  5
C
330
0
100
AcDbDictionary
  3
ACAD_GROUP
350
D
  3
ACAD_LAYOUT
350
1A
  3
ACAD_MATERIAL
350
3B
  3
ACAD_MLEADERSTYLE
350
B0
  3
ACAD_MLINESTYLE
350
17
  3
ACAD_PLOTSETTINGS
350
19
  3
ACAD_VISUALSTYLE
350
2A
  3
ACDBHEADERROUNDTRIPXREC
350
8E
  3
ACDBVARIABLEDICTIONARY
350
AE
  0
DICTIONARY
  5
D
102
{ACAD_REACTORS
330
C
102
}
330
C
100
AcDbDictionary
  0
DICTIONARY
  5
1A
102
{ACAD_REACTORS
330
C
102
}
330
C
100
AcDbDictionary
  0
DICTIONARY
  5
3B
102
{ACAD_REACTORS
330
C
102
}
330
C
100
AcDbDictionary
  3
BYBLOCK
350
3D
  3
BYLAYER
350
3C
  3
GLOBAL
350
3E
  0
DICTIONARY
  5
B0
102
{ACAD_REACTORS
330
C
102
}
330
C
100
AcDbDictionary
  0
DICTIONARY
  5
17
102
{ACAD_REACTORS
330
C
102
}
330
C
100
AcDbDictionary
  3
STANDARD
350
18
  0
DICTIONARY
  5
19
102
{ACAD_REACTORS
330
C
102
}
330
C
100
AcDbDictionary
  0
DICTIONARY
  5
2A
102
{ACAD_REACTORS
330
C
102
}
330
C
100
AcDbDictionary
  3
2DWIREFRAME
350
2F
  3
3D_HIDDEN
350
31
  3
3DWIREFRAME
350
30
  3
BASIC
350
32
  3
BRIGHTEN
350
36
  3
COLORCHANGE
350
3A
  3
CONCEPTUAL
350
34
  3
DIM
350
35
  3
FACEPATTERN
350
39
  3
FLAT
350
2B
  3
FLATWITHEDGES
350
2C
  3
GOURAUD
350
2D
  3
GOURAUDWITHEDGES
350
2E
  3
LINEPATTERN
350
38
  3
REALISTIC
350
33
  3
THICKEN
350
37
  0
DICTIONARY
  5
8E
102
{ACAD_REACTORS
330
C
102
}
330
C
100
AcDbDictionary
  3
CEPSNTYPE
350
97
  3
DIMSTYLEDATA
350
AD
  3
FINGERPRINTGUID
350
98
  3
HYPERLINKBASE
350
91
  3
INSUNITS
350
96
  3
LAYOUTDICT
350
93
  3
LWETCUNION
350
95
  3
PLOTSETDICT
350
94
  3
PSVPSCALE
350
9A
  3
PUCSBASE
350
9D
  3
PUCSORGBACK
350
A3
  3
PUCSORGBOTTOM
350
9F
  3
PUCSORGFRONT
350
A2
  3
PUCSORGLEFT
350
A0
  3
PUCSORGRIGHT
350
A1
  3
PUCSORGTOP
350
9E
  3
PUCSORTHOREF
350
9B
  3
PUCSORTHOVIEW
350
9C
  3
STYLESHEET
350
92
  3
TSTACKALIGN
350
8F
  3
TSTACKSIZE
350
90
  3
UCSBASE
350
A6
  3
UCSORGBACK
350
AC
  3
UCSORGBOTTOM
350
A8
  3
UCSORGFRONT
350
AB
  3
UCSORGLEFT
350
A9
  3
UCSORGRIGHT
350
AA
  3
UCSORGTOP
350
A7
  3
UCSORTHOREF
350
A4
  3
UCSORTHOVIEW
350
A5
  3
VERSIONGUID
350
99
  0
DICTIONARY
  5
AE
102
{ACAD_REACTORS
330
C
102
}
330
C
100
AcDbDictionary
  3
DIMASSOC
350
B1
  3
HIDETEXT
350
B2
  0
MATERIAL
  5
3D
102
{ACAD_REACTORS
330
3B
102
}
102
{ACAD_XDICTIONARY
360
B5
102
}
330
3B
100
AcDbMaterial
  1
ByBlock
  0
MATERIAL
  5
3C
102
{ACAD_REACTORS
330
3B
102
}
102
{ACAD_XDICTIONARY
360
B3
102
}
330
3B
100
AcDbMaterial
  1
ByLayer
  0
MATERIAL
  5
3E
102
{ACAD_REACTORS
330
3B
102
}
102
{ACAD_XDICTIONARY
360
B7
102
}
330
3B
100
AcDbMaterial
  1
Global
  0
MLINESTYLE
  5
18
102
{ACAD_REACTORS
330
17
102
}
330
17
100
AcDbMlineStyle
  2
Standard
 70
     0
  3

 62
   256
 51
90.0
 52
90.0
 71
     2
 49
0.5
 62
   256
  6
BYLAYER
 49
-0.5
 62
   256
  6
BYLAYER
  0
ACAD_PROXY_OBJECT
  5
2F
102
{ACAD_REACTORS
330
2A
102
}
330
2A
100
AcDbProxyObject
 90
      499
 91
      501
 93
      436
310
42CC9915DA5C99599C985B595049028333333333333E3BF0000000000000FB0107901411070040501600405405064090741402480A0340
1001
ACAD
1000
AcDbSavedByObjectVersion
1070
     0
  0
ACAD_PROXY_OBJECT
  5
31
102
{ACAD_REACTORS
330
2A
102
}
330
2A
100
AcDbProxyObject
 90
      499
 91
      501
 93
      500
310
424CD108121A5919195B90640502408333333333333E3BF0000000000000FB01079024090700405020000000000001110200405405064090740C02480A0340
1001
ACAD
1000
AcDbSavedByObjectVersion
1070
     0
  0
ACAD_PROXY_OBJECT
  5
30
102
{ACAD_REACTORS
330
2A
102
}
330
2A
100
AcDbProxyObject
 90
      499
 91
      501
 93
      436
310
42CCD915DA5C99599C985B595059028333333333333E3BF0000000000000FB0107901411070040501600405405064090741402480A0340
1001
ACAD
1000
AcDbSavedByObjectVersion
1070
     0
  0
ACAD_PROXY_OBJECT
  5
32
102
{ACAD_REACTORS
330
2A
102
}
330
2A
100
AcDbProxyObject
 90
      499
 91
      501
 93
      388
310
4150985CDA58D07406404333333333333E3BF0000000000000FB0107A41107004050150841D405064090741402480A0350
1001
ACAD
1000
AcDbSavedByObjectVersion
1070
     0
  0
ACAD_PROXY_OBJECT
  5
36
102
{ACAD_REACTORS
330
2A
102
}
330
2A
100
AcDbProxyObject
 90
      499
 91
      501
 93
      428
310
42109C9A59DA1D195B90C409028333333333333E3BF0000000000000FB010790141107004050150841D405064090741402480A029950
1001
ACAD
1000
AcDbSavedByObjectVersion
1070
     0
  0
ACAD_PROXY_OBJECT
  5
3A
102
{ACAD_REACTORS
330
2A
102
}
330
2A
100
AcDbProxyObject
 90
      499
 91
      501
 93
      452
310
42D0DBDB1BDC90DA185B99D95104090240C333333333333E3BF0000000000000FB0108901411070040501508421405064090741402480A0350
1001
ACAD
1000
AcDbSavedByObjectVersion
1070
     0
  0
ACAD_PROXY_OBJECT
  5
34
102
{ACAD_REACTORS
330
2A
102
}
330
2A
100
AcDbProxyObject
 90
      499
 91
      501
 93
      500
310
4290DBDB98D95C1D1D585B10940D028333333333333E3BF0000000000000FB0107902409070040501000000000000111010841D405064090740C02480A0340
1001
ACAD
1000
AcDbSavedByObjectVersion
1070
     0
  0
ACAD_PROXY_OBJECT
  5
35
102
{ACAD_REACTORS
330
2A
102
}
330
2A
100
AcDbProxyObject
 90
      499
 91
      501
 93
      412
310
40D11A5B50B409028333333333333E3BF0000000000000FB010790141107004050150841D405064090741402480A02677FFFFFD0
1001
ACAD
1000
AcDbSavedByObjectVersion
1070
     0
  0
ACAD_PROXY_OBJECT
  5
39
102
{ACAD_REACTORS
330
2A
102
}
330
2A
100
AcDbProxyObject
 90
      499
 91
      501
 93
      444
310
42D19858D95C185D1D195C9B90F409028333333333333E3BF0000000000000FB010790141107004050150841D405064090741402480A0350
1001
ACAD
1000
AcDbSavedByObjectVersion
1070
     0
  0
ACAD_PROXY_OBJECT
  5
2B
102
{ACAD_REACTORS
330
2A
102
}
330
2A
100
AcDbProxyObject
 90
      499
 91
      501
 93
      388
310
41119B185D240901404333333333333E3BF0000000000000F9010740A41107004050150841D405064090741402480A1B50
1001
ACAD
1000
AcDbSavedByObjectVersion
1070
     0
  0
ACAD_PROXY_OBJECT
  5
2C
102
{ACAD_REACTORS
330
2A
102
}
330
2A
100
AcDbProxyObject
 90
      499
 91
      501
 93
      476
310
43519B185D15DA5D1A115919D95CD0140901404333333333333E3BF0000000000000F9010740901411070040501600405405064090741402480A1B50
1001
ACAD
1000
AcDbSavedByObjectVersion
1070
     0
  0
ACAD_PROXY_OBJECT
  5
2D
102
{ACAD_REACTORS
330
2A
102
}
330
2A
100
AcDbProxyObject
 90
      499
 91
      501
 93
      412
310
41D1DBDD5C985D5910240902404333333333333E3BF0000000000000F9010740A411070040501641D405064090741402480A1B50
1001
ACAD
1000
AcDbSavedByObjectVersion
1070
     0
  0
ACAD_PROXY_OBJECT
  5
2E
102
{ACAD_REACTORS
330
2A
102
}
330
2A
100
AcDbProxyObject
 90
      499
 91
      501
 93
      500
310
4411DBDD5C985D5915DA5D1A115919D95CD0340902404333333333333E3BF0000000000000F9010740901411070040501600405405064090741402480A1B50
1001
ACAD
1000
AcDbSavedByObjectVersion
1070
     0
  0
ACAD_PROXY_OBJECT
  5
38
102
{ACAD_REACTORS
330
2A
102
}
330
2A
100
AcDbProxyObject
 90
      499
 91
      501
 93
      444
310
42D31A5B995C185D1D195C9B90E409028333333333333E3BF0000000000000FB010790141107004050750841D405064090741402483A0350
1001
ACAD
1000
AcDbSavedByObjectVersion
1070
     0
  0
ACAD_PROXY_OBJECT
  5
33
102
{ACAD_REACTORS
330
2A
102
}
330
2A
100
AcDbProxyObject
 90
      499
 91
      501
 93
      420
310
425499585B1A5CDD1A58D08409028333333333333E3BF0000000000000FB01079019070040501508421405064090741402480A1B40
1001
ACAD
1000
AcDbSavedByObjectVersion
1070
     0
  0
ACAD_PROXY_OBJECT
  5
37
102
{ACAD_REACTORS
330
2A
102
}
330
2A
100
AcDbProxyObject
 90
      499
 91
      501
 93
      412
310
41D51A1A58DAD95B90D409028333333333333E3BF0000000000000FB010790141107004050150C41D405064090741402480A0350
1001
ACAD
1000
AcDbSavedByObjectVersion
1070
     0
  0
XRECORD
  5
97
102
{ACAD_REACTORS
330
8E
102
}
330
8E
100
AcDbXrecord
 90
        0
  0
XRECORD
  5
AD
102
{ACAD_REACTORS
330
8E
102
}
330
8E
100
AcDbXrecord
1000
DSTYLE
1002
{
1070
   340
340
11
1002
}
  0
XRECORD
  5
98
102
{ACAD_REACTORS
330
8E
102
}
330
8E
100
AcDbXrecord
  1
{B654403E-FA5E-44E9-BC32-E782A74D8E0C}
  0
XRECORD
  5
91
102
{ACAD_REACTORS
330
8E
102
}
330
8E
100
AcDbXrecord
  1

  0
XRECORD
  5
96
102
{ACAD_REACTORS
330
8E
102
}
330
8E
100
AcDbXrecord
 90
        4
  0
XRECORD
  5
93
102
{ACAD_REACTORS
330
8E
102
}
330
8E
100
AcDbXrecord
340
1A
  0
XRECORD
  5
95
102
{ACAD_REACTORS
330
8E
102
}
330
8E
100
AcDbXrecord
 90
    10781
  0
XRECORD
  5
94
102
{ACAD_REACTORS
330
8E
102
}
330
8E
100
AcDbXrecord
340
19
  0
XRECORD
  5
9A
102
{ACAD_REACTORS
330
8E
102
}
330
8E
100
AcDbXrecord
 40
0.0
  0
XRECORD
  5
9D
102
{ACAD_REACTORS
330
8E
102
}
330
8E
100
AcDbXrecord
340
0
  0
XRECORD
  5
A3
102
{ACAD_REACTORS
330
8E
102
}
330
8E
100
AcDbXrecord
 10
0.0
 20
0.0
 30
0.0
  0
XRECORD
  5
9F
102
{ACAD_REACTORS
330
8E
102
}
330
8E
100
AcDbXrecord
 10
0.0
 20
0.0
 30
0.0
  0
XRECORD
  5
A2
102
{ACAD_REACTORS
330
8E
102
}
330
8E
100
AcDbXrecord
 10
0.0
 20
0.0
 30
0.0
  0
XRECORD
  5
A0
102
{ACAD_REACTORS
330
8E
102
}
330
8E
100
AcDbXrecord
 10
0.0
 20
0.0
 30
0.0
  0
XRECORD
  5
A1
102
{ACAD_REACTORS
330
8E
102
}
330
8E
100
AcDbXrecord
 10
0.0
 20
0.0
 30
0.0
  0
XRECORD
  5
9E
102
{ACAD_REACTORS
330
8E
102
}
330
8E
100
AcDbXrecord
 10
0.0
 20
0.0
 30
0.0
  0
XRECORD
  5
9B
102
{ACAD_REACTORS
330
8E
102
}
330
8E
100
AcDbXrecord
340
0
  0
XRECORD
  5
9C
102
{ACAD_REACTORS
330
8E
102
}
330
8E
100
AcDbXrecord
 70
     0
  0
XRECORD
  5
92
102
{ACAD_REACTORS
330
8E
102
}
330
8E
100
AcDbXrecord
  1

  0
XRECORD
  5
8F
102
{ACAD_REACTORS
330
8E
102
}
330
8E
100
AcDbXrecord
 90
        1
  0
XRECORD
  5
90
102
{ACAD_REACTORS
330
8E
102
}
330
8E
100
AcDbXrecord
 90
       70
  0
XRECORD
  5
A6
102
{ACAD_REACTORS
330
8E
102
}
330
8E
100
AcDbXrecord
340
0
  0
XRECORD
  5
AC
102
{ACAD_REACTORS
330
8E
102
}
330
8E
100
AcDbXrecord
 10
0.0
 20
0.0
 30
0.0
  0
XRECORD
  5
A8
102
{ACAD_REACTORS
330
8E
102
}
330
8E
100
AcDbXrecord
 10
0.0
 20
0.0
 30
0.0
  0
XRECORD
  5
AB
102
{ACAD_REACTORS
330
8E
102
}
330
8E
100
AcDbXrecord
 10
0.0
 20
0.0
 30
0.0
  0
XRECORD
  5
A9
102
{ACAD_REACTORS
330
8E
102
}
330
8E
100
AcDbXrecord
 10
0.0
 20
0.0
 30
0.0
  0
XRECORD
  5
AA
102
{ACAD_REACTORS
330
8E
102
}
330
8E
100
AcDbXrecord
 10
0.0
 20
0.0
 30
0.0
  0
XRECORD
  5
A7
102
{ACAD_REACTORS
330
8E
102
}
330
8E
100
AcDbXrecord
 10
0.0
 20
0.0
 30
0.0
  0
XRECORD
  5
A4
102
{ACAD_REACTORS
330
8E
102
}
330
8E
100
AcDbXrecord
340
0
  0
XRECORD
  5
A5
102
{ACAD_REACTORS
330
8E
102
}
330
8E
100
AcDbXrecord
 70
     0
  0
XRECORD
  5
99
102
{ACAD_REACTORS
330
8E
102
}
330
8E
100
AcDbXrecord
  1
{FAEB1C32-E019-11D5-929B-00C0DF256EC4}
  0
DICTIONARYVAR
  5
B1
102
{ACAD_REACTORS
330
AE
102
}
330
AE
100
DictionaryVariables
280
     0
  1
2
  0
DICTIONARYVAR
  5
B2
102
{ACAD_REACTORS
330
AE
102
}
330
AE
100
DictionaryVariables
280
     0
  1
1
  0
DICTIONARY
  5
B5
330
3D
100
AcDbDictionary
280
     1
  3
ACAD_XREC_ROUNDTRIP
360
B6
  0
DICTIONARY
  5
B3
330
3C
100
AcDbDictionary
280
     1
  3
ACAD_XREC_ROUNDTRIP
360
B4
  0
DICTIONARY
  5
B7
330
3E
100
AcDbDictionary
280
     1
  3
ACAD_XREC_ROUNDTRIP
360
B8
  0
XRECORD
  5
B6
102
{ACAD_REACTORS
330
B5
102
}
330
B5
100
AcDbXrecord
102
MATERIAL
148
0.0
149
0.0
149
0.0
 93
        0
 94
      127
282
     0
 72
     1
 77
     1
171
     1
175
     1
179
     1
273
     0
  0
XRECORD
  5
B4
102
{ACAD_REACTORS
330
B3
102
}
330
B3
100
AcDbXrecord
102
MATERIAL
148
0.0
149
0.0
149
0.0
 93
        0
 94
      127
282
     0
 72
     1
 77
     1
171
     1
175
     1
179
     1
273
     0
  0
XRECORD
  5
B8
102
{ACAD_REACTORS
330
B7
102
}
330
B7
100
AcDbXrecord
102
MATERIAL
148
0.0
149
0.0
149
0.0
 93
        0
 94
      127
282
     0
 72
     1
 77
     1
171
     1
175
     1
179
     1
273
     0
  0
ENDSEC
  0
EOF
