  0
SECTION
  2
HEADER
  9
$ACADVER
  1
AC1014
  9
$ACADMAINTVER
 70
     9
  9
$DWGCODEPAGE
  3
ANSI_1250
  9
$INSBASE
 10
0.0
 20
0.0
 30
0.0
  9
$EXTMIN
 10
-46.9238
 20
-36.746
 30
0.0
  9
$EXTMAX
 10
46.9235
 20
36.6055
 30
0.0
  9
$LIMMIN
 10
0.0
 20
0.0
  9
$LIMMAX
 10
12.0
 20
9.0
  9
$ORTHOMODE
 70
     0
  9
$REGENMODE
 70
     1
  9
$FILLMODE
 70
     1
  9
$QTEXTMODE
 70
     0
  9
$MIRRTEXT
 70
     1
  9
$DRAGMODE
 70
     2
  9
$LTSCALE
 40
1.0
  9
$OSMODE
 70
    37
  9
$ATTMODE
 70
     1
  9
$TEXTSIZE
 40
0.2
  9
$TRACEWID
 40
0.05
  9
$TEXTSTYLE
  7
STANDARD
  9
$CLAYER
  8
0
  9
$CELTYPE
  6
BYLAYER
  9
$CECOLOR
 62
   256
  9
$CELTSCALE
 40
1.0
  9
$DELOBJ
 70
     1
  9
$DISPSILH
 70
     0
  9
$DIMSCALE
 40
1.0
  9
$DIMASZ
 40
0.18
  9
$DIMEXO
 40
0.0625
  9
$DIMDLI
 40
0.38
  9
$DIMRND
 40
0.0
  9
$DIMDLE
 40
0.0
  9
$DIMEXE
 40
0.18
  9
$DIMTP
 40
0.0
  9
$DIMTM
 40
0.0
  9
$DIMTXT
 40
0.18
  9
$DIMCEN
 40
0.09
  9
$DIMTSZ
 40
0.0
  9
$DIMTOL
 70
     0
  9
$DIMLIM
 70
     0
  9
$DIMTIH
 70
     1
  9
$DIMTOH
 70
     1
  9
$DIMSE1
 70
     0
  9
$DIMSE2
 70
     0
  9
$DIMTAD
 70
     0
  9
$DIMZIN
 70
     0
  9
$DIMBLK
  1

  9
$DIMASO
 70
     1
  9
$DIMSHO
 70
     1
  9
$DIMPOST
  1

  9
$DIMAPOST
  1

  9
$DIMALT
 70
     0
  9
$DIMALTD
 70
     2
  9
$DIMALTF
 40
25.4
  9
$DIMLFAC
 40
1.0
  9
$DIMTOFL
 70
     0
  9
$DIMTVP
 40
0.0
  9
$DIMTIX
 70
     0
  9
$DIMSOXD
 70
     0
  9
$DIMSAH
 70
     0
  9
$DIMBLK1
  1

  9
$DIMBLK2
  1

  9
$DIMSTYLE
  2
STANDARD
  9
$DIMCLRD
 70
     0
  9
$DIMCLRE
 70
     0
  9
$DIMCLRT
 70
     0
  9
$DIMTFAC
 40
1.0
  9
$DIMGAP
 40
0.09
  9
$DIMJUST
 70
     0
  9
$DIMSD1
 70
     0
  9
$DIMSD2
 70
     0
  9
$DIMTOLJ
 70
     1
  9
$DIMTZIN
 70
     0
  9
$DIMALTZ
 70
     0
  9
$DIMALTTZ
 70
     0
  9
$DIMFIT
 70
     3
  9
$DIMUPT
 70
     0
  9
$DIMUNIT
 70
     2
  9
$DIMDEC
 70
     4
  9
$DIMTDEC
 70
     4
  9
$DIMALTU
 70
     2
  9
$DIMALTTD
 70
     2
  9
$DIMTXSTY
  7
STANDARD
  9
$DIMAUNIT
 70
     0
  9
$LUNITS
 70
     2
  9
$LUPREC
 70
     4
  9
$SKETCHINC
 40
0.1
  9
$FILLETRAD
 40
0.5
  9
$AUNITS
 70
     0
  9
$AUPREC
 70
     0
  9
$MENU
  1
.
  9
$ELEVATION
 40
0.0
  9
$PELEVATION
 40
0.0
  9
$THICKNESS
 40
0.0
  9
$LIMCHECK
 70
     0
  9
$CHAMFERA
 40
0.5
  9
$CHAMFERB
 40
0.5
  9
$CHAMFERC
 40
1.0
  9
$CHAMFERD
 40
0.0
  9
$SKPOLY
 70
     0
  9
$TDCREATE
 40
2456266.378981146
  9
$TDUPDATE
 40
2456266.378981157
  9
$TDINDWG
 40
0.0000000116
  9
$TDUSRTIMER
 40
0.0000000116
  9
$USRTIMER
 70
     1
  9
$ANGBASE
 50
0.0
  9
$ANGDIR
 70
     0
  9
$PDMODE
 70
     0
  9
$PDSIZE
 40
0.0
  9
$PLINEWID
 40
0.0
  9
$COORDS
 70
     1
  9
$SPLFRAME
 70
     0
  9
$SPLINETYPE
 70
     6
  9
$SPLINESEGS
 70
     8
  9
$ATTDIA
 70
     0
  9
$ATTREQ
 70
     1
  9
$HANDLING
 70
     1
  9
$HANDSEED
  5
D2
  9
$SURFTAB1
 70
     6
  9
$SURFTAB2
 70
     6
  9
$SURFTYPE
 70
     6
  9
$SURFU
 70
     6
  9
$SURFV
 70
     6
  9
$UCSNAME
  2

  9
$UCSORG
 10
0.0
 20
0.0
 30
0.0
  9
$UCSXDIR
 10
1.0
 20
0.0
 30
0.0
  9
$UCSYDIR
 10
0.0
 20
1.0
 30
0.0
  9
$PUCSNAME
  2

  9
$PUCSORG
 10
0.0
 20
0.0
 30
0.0
  9
$PUCSXDIR
 10
1.0
 20
0.0
 30
0.0
  9
$PUCSYDIR
 10
0.0
 20
1.0
 30
0.0
  9
$USERI1
 70
     0
  9
$USERI2
 70
     0
  9
$USERI3
 70
     0
  9
$USERI4
 70
     0
  9
$USERI5
 70
     0
  9
$USERR1
 40
0.0
  9
$USERR2
 40
0.0
  9
$USERR3
 40
0.0
  9
$USERR4
 40
0.0
  9
$USERR5
 40
0.0
  9
$WORLDVIEW
 70
     1
  9
$SHADEDGE
 70
     3
  9
$SHADEDIF
 70
    70
  9
$TILEMODE
 70
     1
  9
$MAXACTVP
 70
    64
  9
$PINSBASE
 10
0.0
 20
0.0
 30
0.0
  9
$PLIMCHECK
 70
     0
  9
$PEXTMIN
 10
1.000000000000000E+20
 20
1.000000000000000E+20
 30
1.000000000000000E+20
  9
$PEXTMAX
 10
-1.000000000000000E+20
 20
-1.000000000000000E+20
 30
-1.000000000000000E+20
  9
$PLIMMIN
 10
0.0
 20
0.0
  9
$PLIMMAX
 10
12.0
 20
9.0
  9
$UNITMODE
 70
     0
  9
$VISRETAIN
 70
     1
  9
$PLINEGEN
 70
     0
  9
$PSLTSCALE
 70
     1
  9
$TREEDEPTH
 70
  3020
  9
$PICKSTYLE
 70
     1
  9
$CMLSTYLE
  2
STANDARD
  9
$CMLJUST
 70
     0
  9
$CMLSCALE
 40
1.0
  9
$PROXYGRAPHICS
 70
     1
  9
$MEASUREMENT
 70
     0
  0
ENDSEC
  0
SECTION
  2
CLASSES
  0
CLASS
  1
ACDBDICTIONARYWDFLT
  2
AcDbDictionaryWithDefault
  3
ObjectDBX Classes
 90
        0
280
     0
281
     0
  0
CLASS
  1
VISUALSTYLE
  2
AcDbVisualStyle
  3
ObjectDBX Classes
 90
     4095
280
     0
281
     0
  0
CLASS
  1
MATERIAL
  2
AcDbMaterial
  3
ObjectDBX Classes
 90
     1153
280
     0
281
     0
  0
CLASS
  1
DICTIONARYVAR
  2
AcDbDictionaryVar
  3
ObjectDBX Classes
 90
        0
280
     0
281
     0
  0
CLASS
  1
XRECORD
  2
AcDbXrecord
  3
AutoCAD 2000
 90
        0
280
     0
281
     0
  0
CLASS
  1
LWPOLYLINE
  2
AcDbPolyline
  3
AutoCAD 2000
 90
        0
280
     0
281
     1
  0
CLASS
  1
HATCH
  2
AcDbHatch
  3
AutoCAD 2000
 90
        0
280
     0
281
     1
  0
CLASS
  1
ACDBPLACEHOLDER
  2
AcDbPlaceHolder
  3
ObjectDBX Classes
 90
        0
280
     0
281
     0
  0
CLASS
  1
LAYOUT
  2
AcDbLayout
  3
ObjectDBX Classes
 90
        0
280
     0
281
     0
  0
ENDSEC
  0
SECTION
  2
TABLES
  0
TABLE
  2
VPORT
  5
8
330
0
100
AcDbSymbolTable
 70
     1
  0
VPORT
  5
29
330
8
100
AcDbSymbolTableRecord
100
AcDbViewportTableRecord
  2
*ACTIVE
 70
     0
 10
0.0
 20
0.0
 11
1.0
 21
1.0
 12
10.42990654205607
 22
4.5
 13
0.0
 23
0.0
 14
0.5
 24
0.5
 15
0.5
 25
0.5
 16
0.0
 26
0.0
 36
1.0
 17
0.0
 27
0.0
 37
0.0
 40
9.0
 41
1.972972972850329
 42
50.0
 43
0.0
 44
0.0
 50
0.0
 51
0.0
 71
     0
 72
   100
 73
     1
 74
     3
 75
     0
 76
     0
 77
     0
 78
     0
  0
ENDTAB
  0
TABLE
  2
LTYPE
  5
5
330
0
100
AcDbSymbolTable
 70
     4
  0
LTYPE
  5
14
330
5
100
AcDbSymbolTableRecord
100
AcDbLinetypeTableRecord
  2
BYBLOCK
 70
     0
  3

 72
    65
 73
     0
 40
0.0
  0
LTYPE
  5
15
330
5
100
AcDbSymbolTableRecord
100
AcDbLinetypeTableRecord
  2
BYLAYER
 70
     0
  3

 72
    65
 73
     0
 40
0.0
  0
LTYPE
  5
16
330
5
100
AcDbSymbolTableRecord
100
AcDbLinetypeTableRecord
  2
CONTINUOUS
 70
     0
  3
Solid line
 72
    65
 73
     0
 40
0.0
  0
LTYPE
  5
72
330
5
100
AcDbSymbolTableRecord
100
AcDbLinetypeTableRecord
  2
NEW_LINE1
 70
     0
  3

 72
    65
 73
     4
 40
1.2
 49
0.5
 74
     4
 75
     0
340
0
 46
1.0
 50
0.0
 44
0.0
 45
0.0
 49
-0.3
 74
     4
 75
     0
340
0
 46
1.0
 50
0.0
 44
0.0
 45
0.0
 49
0.1
 74
     4
 75
     0
340
0
 46
1.0
 50
0.0
 44
0.0
 45
0.0
 49
-0.3
 74
     4
 75
     0
340
0
 46
1.0
 50
0.0
 44
0.0
 45
0.0
  0
LTYPE
  5
74
330
5
100
AcDbSymbolTableRecord
100
AcDbLinetypeTableRecord
  2
NEW_LINE2
 70
     0
  3

 72
    65
 73
     4
 40
1.2
 49
0.5
 74
     4
 75
     0
340
0
 46
1.0
 50
0.0
 44
0.0
 45
0.0
 49
-0.3
 74
     4
 75
     0
340
0
 46
1.0
 50
0.0
 44
0.0
 45
0.0
 49
0.1
 74
     4
 75
     0
340
0
 46
1.0
 50
0.0
 44
0.0
 45
0.0
 49
-0.3
 74
     4
 75
     0
340
0
 46
1.0
 50
0.0
 44
0.0
 45
0.0
  0
LTYPE
  5
76
330
5
100
AcDbSymbolTableRecord
100
AcDbLinetypeTableRecord
  2
NEW_LINE3
 70
     0
  3

 72
    65
 73
     4
 40
1.2
 49
0.5
 74
     4
 75
     0
340
0
 46
1.0
 50
0.0
 44
0.0
 45
0.0
 49
-0.3
 74
     4
 75
     0
340
0
 46
1.0
 50
0.0
 44
0.0
 45
0.0
 49
0.1
 74
     4
 75
     0
340
0
 46
1.0
 50
0.0
 44
0.0
 45
0.0
 49
-0.3
 74
     4
 75
     0
340
0
 46
1.0
 50
0.0
 44
0.0
 45
0.0
  0
ENDTAB
  0
TABLE
  2
LAYER
  5
2
330
0
100
AcDbSymbolTable
 70
     2
  0
LAYER
  5
10
330
2
100
AcDbSymbolTableRecord
100
AcDbLayerTableRecord
  2
0
 70
     0
 62
     7
  6
CONTINUOUS
  0
LAYER
  5
40
330
2
100
AcDbSymbolTableRecord
100
AcDbLayerTableRecord
  2
DEFAULT_1
 70
     0
 62
     7
  6
CONTINUOUS
  0
ENDTAB
  0
TABLE
  2
STYLE
  5
3
330
0
100
AcDbSymbolTable
 70
     1
  0
STYLE
  5
11
330
3
100
AcDbSymbolTableRecord
100
AcDbTextStyleTableRecord
  2
STANDARD
 70
     0
 40
0.0
 41
1.0
 50
0.0
 71
     0
 42
0.2
  3
txt
  4

  0
ENDTAB
  0
TABLE
  2
VIEW
  5
6
330
0
100
AcDbSymbolTable
 70
     0
  0
ENDTAB
  0
TABLE
  2
UCS
  5
7
330
0
100
AcDbSymbolTable
 70
     0
  0
ENDTAB
  0
TABLE
  2
APPID
  5
9
330
0
100
AcDbSymbolTable
 70
     2
  0
APPID
  5
12
330
9
100
AcDbSymbolTableRecord
100
AcDbRegAppTableRecord
  2
ACAD
 70
     0
  0
APPID
  5
3F
330
9
100
AcDbSymbolTableRecord
100
AcDbRegAppTableRecord
  2
ODA
 70
     0
  0
ENDTAB
  0
TABLE
  2
DIMSTYLE
  5
A
330
0
100
AcDbSymbolTable
 70
     1
  0
DIMSTYLE
105
27
330
A
100
AcDbSymbolTableRecord
100
AcDbDimStyleTableRecord
  2
STANDARD
 70
     0
  3

  4

  5

  6

  7

 40
1.0
 41
0.18
 42
0.0625
 43
0.38
 44
0.18
 45
0.0
 46
0.0
 47
0.0
 48
0.0
140
0.18
141
0.09
142
0.0
143
25.4
144
1.0
145
0.0
146
1.0
147
0.09
 71
     0
 72
     0
 73
     1
 74
     1
 75
     0
 76
     0
 77
     0
 78
     0
170
     0
171
     2
172
     0
173
     0
174
     0
175
     0
176
     0
177
     0
178
     0
270
     2
271
     4
272
     4
273
     2
274
     2
340
11
275
     0
280
     0
281
     0
282
     0
283
     1
284
     0
285
     0
286
     0
287
     3
288
     0
  0
ENDTAB
  0
TABLE
  2
BLOCK_RECORD
  5
1
330
0
100
AcDbSymbolTable
 70
     1
  0
BLOCK_RECORD
  5
1F
330
1
100
AcDbSymbolTableRecord
100
AcDbBlockTableRecord
  2
*MODEL_SPACE
  0
BLOCK_RECORD
  5
1B
330
1
100
AcDbSymbolTableRecord
100
AcDbBlockTableRecord
  2
*PAPER_SPACE
  0
ENDTAB
  0
ENDSEC
  0
SECTION
  2
BLOCKS
  0
BLOCK
  5
20
330
1F
100
AcDbEntity
  8
0
100
AcDbBlockBegin
  2
*MODEL_SPACE
 70
     0
 10
0.0
 20
0.0
 30
0.0
  3
*MODEL_SPACE
  1

  0
ENDBLK
  5
21
330
1F
100
AcDbEntity
  8
0
100
AcDbBlockEnd
  0
BLOCK
  5
1C
330
1B
100
AcDbEntity
 67
     1
  8
0
100
AcDbBlockBegin
  2
*PAPER_SPACE
 70
     0
 10
0.0
 20
0.0
 30
0.0
  3
*PAPER_SPACE
  1

  0
ENDBLK
  5
1D
330
1B
100
AcDbEntity
 67
     1
  8
0
100
AcDbBlockEnd
  0
ENDSEC
  0
SECTION
  2
ENTITIES
  0
SPLINE
  5
41
330
1F
100
AcDbEntity
  8
DEFAULT_1
 62
   250
100
AcDbSpline
210
0.0
220
0.0
230
1.0
 70
    11
 71
     3
 72
   120
 73
   116
 74
     0
 42
0.0000000001
 43
0.0000000001
 40
0.0
 40
0.0
 40
0.0
 40
0.0
 40
0.0333333333333333
 40
0.0333333333333333
 40
0.0333333333333333
 40
0.0333333333333333
 40
0.0666666666666667
 40
0.0666666666666667
 40
0.0666666666666667
 40
0.0666666666666667
 40
0.1
 40
0.1
 40
0.1
 40
0.1
 40
0.1333333333333333
 40
0.1333333333333333
 40
0.1333333333333333
 40
0.1333333333333333
 40
0.1666666666666667
 40
0.1666666666666667
 40
0.1666666666666667
 40
0.1666666666666667
 40
0.2
 40
0.2
 40
0.2
 40
0.2
 40
0.2333333333333333
 40
0.2333333333333333
 40
0.2333333333333333
 40
0.2333333333333333
 40
0.2666666666666667
 40
0.2666666666666667
 40
0.2666666666666667
 40
0.2666666666666667
 40
0.3
 40
0.3
 40
0.3
 40
0.3
 40
0.3333333333333333
 40
0.3333333333333333
 40
0.3333333333333333
 40
0.3333333333333333
 40
0.3666666666666666
 40
0.3666666666666666
 40
0.3666666666666666
 40
0.3666666666666666
 40
0.4
 40
0.4
 40
0.4
 40
0.4
 40
0.4333333333333333
 40
0.4333333333333333
 40
0.4333333333333333
 40
0.4333333333333333
 40
0.4666666666666667
 40
0.4666666666666667
 40
0.4666666666666667
 40
0.4666666666666667
 40
0.5
 40
0.5
 40
0.5
 40
0.5
 40
0.5333333333333333
 40
0.5333333333333333
 40
0.5333333333333333
 40
0.5333333333333333
 40
0.5666666666666667
 40
0.5666666666666667
 40
0.5666666666666667
 40
0.5666666666666667
 40
0.6
 40
0.6
 40
0.6
 40
0.6
 40
0.6333333333333333
 40
0.6333333333333333
 40
0.6333333333333333
 40
0.6333333333333333
 40
0.6666666666666666
 40
0.6666666666666666
 40
0.6666666666666666
 40
0.6666666666666666
 40
0.7
 40
0.7
 40
0.7
 40
0.7
 40
0.7333333333333333
 40
0.7333333333333333
 40
0.7333333333333333
 40
0.7333333333333333
 40
0.7666666666666667
 40
0.7666666666666667
 40
0.7666666666666667
 40
0.7666666666666667
 40
0.8
 40
0.8
 40
0.8
 40
0.8
 40
0.8333333333333334
 40
0.8333333333333334
 40
0.8333333333333334
 40
0.8333333333333334
 40
0.8666666666666667
 40
0.8666666666666667
 40
0.8666666666666667
 40
0.8666666666666667
 40
0.9
 40
0.9
 40
0.9
 40
0.9
 40
0.9333333333333333
 40
0.9333333333333333
 40
0.9333333333333333
 40
0.9333333333333333
 40
1.0
 40
1.0
 40
1.0
 40
1.0
 10
-32.0346
 20
35.3435
 30
0.0
 10
-32.0346
 20
35.3435
 30
0.0
 10
-32.0346
 20
35.5801
 30
0.0
 10
-32.0346
 20
35.5801
 30
0.0
 10
-32.0346
 20
35.5801
 30
0.0
 10
-32.0346
 20
35.5801
 30
0.0
 10
-31.179
 20
35.5815
 30
0.0
 10
-31.179
 20
35.5815
 30
0.0
 10
-31.179
 20
35.5815
 30
0.0
 10
-31.179
 20
35.5815
 30
0.0
 10
-31.179
 20
34.8322
 30
0.0
 10
-31.179
 20
34.8322
 30
0.0
 10
-31.179
 20
34.8322
 30
0.0
 10
-31.3102
 20
34.7273
 30
0.0
 10
-31.4457
 20
34.6487
 30
0.0
 10
-31.5854
 20
34.5956
 30
0.0
 10
-31.5854
 20
34.5956
 30
0.0
 10
-31.7251
 20
34.5429
 30
0.0
 10
-31.8685
 20
34.5166
 30
0.0
 10
-32.0153
 20
34.5166
 30
0.0
 10
-32.0153
 20
34.5166
 30
0.0
 10
-32.2138
 20
34.5166
 30
0.0
 10
-32.3944
 20
34.5589
 30
0.0
 10
-32.5562
 20
34.644
 30
0.0
 10
-32.5562
 20
34.644
 30
0.0
 10
-32.7185
 20
34.7287
 30
0.0
 10
-32.8408
 20
34.8519
 30
0.0
 10
-32.9236
 20
35.0123
 30
0.0
 10
-32.9236
 20
35.0123
 30
0.0
 10
-33.0064
 20
35.1732
 30
0.0
 10
-33.0478
 20
35.3529
 30
0.0
 10
-33.0478
 20
35.5514
 30
0.0
 10
-33.0478
 20
35.5514
 30
0.0
 10
-33.0478
 20
35.748
 30
0.0
 10
-33.0064
 20
35.9314
 30
0.0
 10
-32.924
 20
36.1017
 30
0.0
 10
-32.924
 20
36.1017
 30
0.0
 10
-32.8422
 20
36.2724
 30
0.0
 10
-32.7237
 20
36.399
 30
0.0
 10
-32.5694
 20
36.4818
 30
0.0
 10
-32.5694
 20
36.4818
 30
0.0
 10
-32.4151
 20
36.5641
 30
0.0
 10
-32.2373
 20
36.6055
 30
0.0
 10
-32.036
 20
36.6055
 30
0.0
 10
-32.036
 20
36.6055
 30
0.0
 10
-31.8902
 20
36.6055
 30
0.0
 10
-31.758
 20
36.5819
 30
0.0
 10
-31.6399
 20
36.5344
 30
0.0
 10
-31.6399
 20
36.5344
 30
0.0
 10
-31.5219
 20
36.4874
 30
0.0
 10
-31.4292
 20
36.4215
 30
0.0
 10
-31.3624
 20
36.3369
 30
0.0
 10
-31.3624
 20
36.3369
 30
0.0
 10
-31.2952
 20
36.2522
 30
0.0
 10
-31.2444
 20
36.1422
 30
0.0
 10
-31.2091
 20
36.0062
 30
0.0
 10
-31.2091
 20
36.0062
 30
0.0
 10
-31.2091
 20
36.0062
 30
0.0
 10
-31.4504
 20
35.9399
 30
0.0
 10
-31.4504
 20
35.9399
 30
0.0
 10
-31.4504
 20
35.9399
 30
0.0
 10
-31.481
 20
36.0429
 30
0.0
 10
-31.5186
 20
36.1238
 30
0.0
 10
-31.5633
 20
36.1826
 30
0.0
 10
-31.5633
 20
36.1826
 30
0.0
 10
-31.6084
 20
36.2414
 30
0.0
 10
-31.6729
 20
36.2884
 30
0.0
 10
-31.7566
 20
36.3237
 30
0.0
 10
-31.7566
 20
36.3237
 30
0.0
 10
-31.8399
 20
36.359
 30
0.0
 10
-31.933
 20
36.3769
 30
0.0
 10
-32.0346
 20
36.3769
 30
0.0
 10
-32.0346
 20
36.3769
 30
0.0
 10
-32.1569
 20
36.3769
 30
0.0
 10
-32.2627
 20
36.358
 30
0.0
 10
-32.3516
 20
36.3209
 30
0.0
 10
-32.3516
 20
36.3209
 30
0.0
 10
-32.441
 20
36.2837
 30
0.0
 10
-32.5125
 20
36.2348
 30
0.0
 10
-32.5675
 20
36.1741
 30
0.0
 10
-32.5675
 20
36.1741
 30
0.0
 10
-32.6221
 20
36.1135
 30
0.0
 10
-32.6644
 20
36.0471
 30
0.0
 10
-32.695
 20
35.9742
 30
0.0
 10
-32.695
 20
35.9742
 30
0.0
 10
-32.7462
 20
35.8496
 30
0.0
 10
-32.7721
 20
35.7141
 30
0.0
 10
-32.7721
 20
35.5678
 30
0.0
 10
-32.7721
 20
35.5678
 30
0.0
 10
-32.7721
 20
35.3877
 30
0.0
 10
-32.7411
 20
35.2372
 30
0.0
 10
-32.679
 20
35.1158
 30
0.0
 10
-32.679
 20
35.1158
 30
0.0
 10
-32.6169
 20
34.9945
 30
0.0
 10
-32.5266
 20
34.9046
 30
0.0
 10
-32.4081
 20
34.8458
 30
0.0
 10
-32.4081
 20
34.8458
 30
0.0
 10
-32.2895
 20
34.787
 30
0.0
 10
-32.1639
 20
34.7574
 30
0.0
 10
-32.0308
 20
34.7574
 30
0.0
 10
-32.0308
 20
34.7574
 30
0.0
 10
-31.9146
 20
34.7574
 30
0.0
 10
-31.8018
 20
34.78
 30
0.0
 10
-31.6917
 20
34.8247
 30
0.0
 10
-31.6917
 20
34.8247
 30
0.0
 10
-31.5811
 20
34.8689
 30
0.0
 10
-31.4979
 20
34.9164
 30
0.0
 10
-31.441
 20
34.9672
 30
0.0
 10
-31.441
 20
34.9672
 30
0.0
 10
-31.441
 20
34.9672
 30
0.0
 10
-31.441
 20
35.3435
 30
0.0
 10
-31.441
 20
35.3435
 30
0.0
 10
-31.441
 20
35.3435
 30
0.0
 10
-31.441
 20
35.3435
 30
0.0
 10
-32.0346
 20
35.3435
 30
0.0
 10
-32.0346
 20
35.3435
 30
0.0
  0
SPLINE
  5
42
330
1F
100
AcDbEntity
  8
DEFAULT_1
 62
   250
100
AcDbSpline
210
0.0
220
0.0
230
1.0
 70
    11
 71
     3
 72
    80
 73
    76
 74
     0
 42
0.0000000001
 43
0.0000000001
 40
0.0
 40
0.0
 40
0.0
 40
0.0
 40
0.05
 40
0.05
 40
0.05
 40
0.05
 40
0.1
 40
0.1
 40
0.1
 40
0.1
 40
0.15
 40
0.15
 40
0.15
 40
0.15
 40
0.2
 40
0.2
 40
0.2
 40
0.2
 40
0.25
 40
0.25
 40
0.25
 40
0.25
 40
0.3
 40
0.3
 40
0.3
 40
0.3
 40
0.35
 40
0.35
 40
0.35
 40
0.35
 40
0.4
 40
0.4
 40
0.4
 40
0.4
 40
0.45
 40
0.45
 40
0.45
 40
0.45
 40
0.5
 40
0.5
 40
0.5
 40
0.5
 40
0.55
 40
0.55
 40
0.55
 40
0.55
 40
0.6
 40
0.6
 40
0.6
 40
0.6
 40
0.65
 40
0.65
 40
0.65
 40
0.65
 40
0.7
 40
0.7
 40
0.7
 40
0.7
 40
0.75
 40
0.75
 40
0.75
 40
0.75
 40
0.8
 40
0.8
 40
0.8
 40
0.8
 40
0.85
 40
0.85
 40
0.85
 40
0.85
 40
0.9
 40
0.9
 40
0.9
 40
0.9
 40
1.0
 40
1.0
 40
1.0
 40
1.0
 10
-28.8145
 20
36.0763
 30
0.0
 10
-28.8145
 20
36.0763
 30
0.0
 10
-29.0609
 20
36.057
 30
0.0
 10
-29.0609
 20
36.057
 30
0.0
 10
-29.0609
 20
36.057
 30
0.0
 10
-29.083
 20
36.1544
 30
0.0
 10
-29.1141
 20
36.2254
 30
0.0
 10
-29.1545
 20
36.2691
 30
0.0
 10
-29.1545
 20
36.2691
 30
0.0
 10
-29.2218
 20
36.3402
 30
0.0
 10
-29.3046
 20
36.3755
 30
0.0
 10
-29.4029
 20
36.3755
 30
0.0
 10
-29.4029
 20
36.3755
 30
0.0
 10
-29.4819
 20
36.3755
 30
0.0
 10
-29.551
 20
36.3533
 30
0.0
 10
-29.6108
 20
36.3091
 30
0.0
 10
-29.6108
 20
36.3091
 30
0.0
 10
-29.6889
 20
36.2522
 30
0.0
 10
-29.7505
 20
36.169
 30
0.0
 10
-29.7956
 20
36.0598
 30
0.0
 10
-29.7956
 20
36.0598
 30
0.0
 10
-29.8403
 20
35.9507
 30
0.0
 10
-29.8638
 20
35.795
 30
0.0
 10
-29.8657
 20
35.5928
 30
0.0
 10
-29.8657
 20
35.5928
 30
0.0
 10
-29.806
 20
35.6835
 30
0.0
 10
-29.7331
 20
35.7513
 30
0.0
 10
-29.6465
 20
35.7955
 30
0.0
 10
-29.6465
 20
35.7955
 30
0.0
 10
-29.5605
 20
35.8392
 30
0.0
 10
-29.4697
 20
35.8613
 30
0.0
 10
-29.3751
 20
35.8613
 30
0.0
 10
-29.3751
 20
35.8613
 30
0.0
 10
-29.2096
 20
35.8613
 30
0.0
 10
-29.0689
 20
35.8007
 30
0.0
 10
-28.9527
 20
35.6788
 30
0.0
 10
-28.9527
 20
35.6788
 30
0.0
 10
-28.8366
 20
35.557
 30
0.0
 10
-28.7782
 20
35.3999
 30
0.0
 10
-28.7782
 20
35.2071
 30
0.0
 10
-28.7782
 20
35.2071
 30
0.0
 10
-28.7782
 20
35.0801
 30
0.0
 10
-28.806
 20
34.9625
 30
0.0
 10
-28.8606
 20
34.8533
 30
0.0
 10
-28.8606
 20
34.8533
 30
0.0
 10
-28.9151
 20
34.7447
 30
0.0
 10
-28.9904
 20
34.661
 30
0.0
 10
-29.0859
 20
34.6031
 30
0.0
 10
-29.0859
 20
34.6031
 30
0.0
 10
-29.1813
 20
34.5453
 30
0.0
 10
-29.2895
 20
34.5166
 30
0.0
 10
-29.4109
 20
34.5166
 30
0.0
 10
-29.4109
 20
34.5166
 30
0.0
 10
-29.6178
 20
34.5166
 30
0.0
 10
-29.7862
 20
34.5923
 30
0.0
 10
-29.9165
 20
34.7447
 30
0.0
 10
-29.9165
 20
34.7447
 30
0.0
 10
-30.0473
 20
34.8966
 30
0.0
 10
-30.1122
 20
35.1473
 30
0.0
 10
-30.1122
 20
35.4963
 30
0.0
 10
-30.1122
 20
35.4963
 30
0.0
 10
-30.1122
 20
35.8867
 30
0.0
 10
-30.0402
 20
36.1704
 30
0.0
 10
-29.8958
 20
36.3477
 30
0.0
 10
-29.8958
 20
36.3477
 30
0.0
 10
-29.7702
 20
36.502
 30
0.0
 10
-29.6009
 20
36.5796
 30
0.0
 10
-29.3874
 20
36.5796
 30
0.0
 10
-29.3874
 20
36.5796
 30
0.0
 10
-29.2288
 20
36.5796
 30
0.0
 10
-29.0986
 20
36.5349
 30
0.0
 10
-28.997
 20
36.4455
 30
0.0
 10
-28.997
 20
36.4455
 30
0.0
 10
-28.8954
 20
36.3566
 30
0.0
 10
-28.8347
 20
36.2334
 30
0.0
 10
-28.8145
 20
36.0763
 30
0.0
  0
SPLINE
  5
43
330
1F
100
AcDbEntity
  8
DEFAULT_1
 62
   250
100
AcDbSpline
210
0.0
220
0.0
230
1.0
 70
    11
 71
     3
 72
    40
 73
    36
 74
     0
 42
0.0000000001
 43
0.0000000001
 40
0.0
 40
0.0
 40
0.0
 40
0.0
 40
0.1
 40
0.1
 40
0.1
 40
0.1
 40
0.2
 40
0.2
 40
0.2
 40
0.2
 40
0.3
 40
0.3
 40
0.3
 40
0.3
 40
0.4
 40
0.4
 40
0.4
 40
0.4
 40
0.5
 40
0.5
 40
0.5
 40
0.5
 40
0.6
 40
0.6
 40
0.6
 40
0.6
 40
0.7
 40
0.7
 40
0.7
 40
0.7
 40
0.8
 40
0.8
 40
0.8
 40
0.8
 40
1.0
 40
1.0
 40
1.0
 40
1.0
 10
-29.8272
 20
35.2057
 30
0.0
 10
-29.8272
 20
35.12
 30
0.0
 10
-29.8088
 20
35.0382
 30
0.0
 10
-29.7726
 20
34.9601
 30
0.0
 10
-29.7726
 20
34.9601
 30
0.0
 10
-29.7364
 20
34.882
 30
0.0
 10
-29.6856
 20
34.8228
 30
0.0
 10
-29.6207
 20
34.7819
 30
0.0
 10
-29.6207
 20
34.7819
 30
0.0
 10
-29.5553
 20
34.7409
 30
0.0
 10
-29.4866
 20
34.7202
 30
0.0
 10
-29.4151
 20
34.7202
 30
0.0
 10
-29.4151
 20
34.7202
 30
0.0
 10
-29.3102
 20
34.7202
 30
0.0
 10
-29.2204
 20
34.7626
 30
0.0
 10
-29.1451
 20
34.8472
 30
0.0
 10
-29.1451
 20
34.8472
 30
0.0
 10
-29.0699
 20
34.9319
 30
0.0
 10
-29.0322
 20
35.0467
 30
0.0
 10
-29.0322
 20
35.1915
 30
0.0
 10
-29.0322
 20
35.1915
 30
0.0
 10
-29.0322
 20
35.3312
 30
0.0
 10
-29.0694
 20
35.4413
 30
0.0
 10
-29.1437
 20
35.5217
 30
0.0
 10
-29.1437
 20
35.5217
 30
0.0
 10
-29.218
 20
35.6022
 30
0.0
 10
-29.3116
 20
35.6422
 30
0.0
 10
-29.4245
 20
35.6422
 30
0.0
 10
-29.4245
 20
35.6422
 30
0.0
 10
-29.5369
 20
35.6422
 30
0.0
 10
-29.632
 20
35.6022
 30
0.0
 10
-29.71
 20
35.5217
 30
0.0
 10
-29.71
 20
35.5217
 30
0.0
 10
-29.7881
 20
35.4413
 30
0.0
 10
-29.8272
 20
35.3359
 30
0.0
 10
-29.8272
 20
35.2057
 30
0.0
  0
SPLINE
  5
44
330
1F
100
AcDbEntity
  8
DEFAULT_1
 62
   250
100
AcDbSpline
210
0.0
220
0.0
230
1.0
 70
    11
 71
     3
 72
    20
 73
    16
 74
     0
 42
0.0000000001
 43
0.0000000001
 40
0.0
 40
0.0
 40
0.0
 40
0.0
 40
0.2
 40
0.2
 40
0.2
 40
0.2
 40
0.4
 40
0.4
 40
0.4
 40
0.4
 40
0.6
 40
0.6
 40
0.6
 40
0.6
 40
1.0
 40
1.0
 40
1.0
 40
1.0
 10
-28.6489
 20
34.5166
 30
0.0
 10
-28.6489
 20
34.5166
 30
0.0
 10
-28.0633
 20
36.6055
 30
0.0
 10
-28.0633
 20
36.6055
 30
0.0
 10
-28.0633
 20
36.6055
 30
0.0
 10
-28.0633
 20
36.6055
 30
0.0
 10
-27.8648
 20
36.6055
 30
0.0
 10
-27.8648
 20
36.6055
 30
0.0
 10
-27.8648
 20
36.6055
 30
0.0
 10
-27.8648
 20
36.6055
 30
0.0
 10
-28.449
 20
34.5166
 30
0.0
 10
-28.449
 20
34.5166
 30
0.0
 10
-28.449
 20
34.5166
 30
0.0
 10
-28.449
 20
34.5166
 30
0.0
 10
-28.6489
 20
34.5166
 30
0.0
 10
-28.6489
 20
34.5166
 30
0.0
  0
SPLINE
  5
45
330
1F
100
AcDbEntity
  8
DEFAULT_1
 62
   250
100
AcDbSpline
210
0.0
220
0.0
230
1.0
 70
    11
 71
     3
 72
    48
 73
    44
 74
     0
 42
0.0000000001
 43
0.0000000001
 40
0.0
 40
0.0
 40
0.0
 40
0.0
 40
0.0833333333333333
 40
0.0833333333333333
 40
0.0833333333333333
 40
0.0833333333333333
 40
0.1666666666666667
 40
0.1666666666666667
 40
0.1666666666666667
 40
0.1666666666666667
 40
0.25
 40
0.25
 40
0.25
 40
0.25
 40
0.3333333333333333
 40
0.3333333333333333
 40
0.3333333333333333
 40
0.3333333333333333
 40
0.4166666666666667
 40
0.4166666666666667
 40
0.4166666666666667
 40
0.4166666666666667
 40
0.5
 40
0.5
 40
0.5
 40
0.5
 40
0.5833333333333334
 40
0.5833333333333334
 40
0.5833333333333334
 40
0.5833333333333334
 40
0.6666666666666666
 40
0.6666666666666666
 40
0.6666666666666666
 40
0.6666666666666666
 40
0.75
 40
0.75
 40
0.75
 40
0.75
 40
0.8333333333333334
 40
0.8333333333333334
 40
0.8333333333333334
 40
0.8333333333333334
 40
1.0
 40
1.0
 40
1.0
 40
1.0
 10
-26.9528
 20
34.5509
 30
0.0
 10
-26.9528
 20
34.5509
 30
0.0
 10
-26.9528
 20
35.0344
 30
0.0
 10
-26.9528
 20
35.0344
 30
0.0
 10
-26.9528
 20
35.0344
 30
0.0
 10
-26.9528
 20
35.0344
 30
0.0
 10
-27.8291
 20
35.0344
 30
0.0
 10
-27.8291
 20
35.0344
 30
0.0
 10
-27.8291
 20
35.0344
 30
0.0
 10
-27.8291
 20
35.0344
 30
0.0
 10
-27.8291
 20
35.2621
 30
0.0
 10
-27.8291
 20
35.2621
 30
0.0
 10
-27.8291
 20
35.2621
 30
0.0
 10
-27.8291
 20
35.2621
 30
0.0
 10
-26.9071
 20
36.5711
 30
0.0
 10
-26.9071
 20
36.5711
 30
0.0
 10
-26.9071
 20
36.5711
 30
0.0
 10
-26.9071
 20
36.5711
 30
0.0
 10
-26.7044
 20
36.5711
 30
0.0
 10
-26.7044
 20
36.5711
 30
0.0
 10
-26.7044
 20
36.5711
 30
0.0
 10
-26.7044
 20
36.5711
 30
0.0
 10
-26.7044
 20
35.2621
 30
0.0
 10
-26.7044
 20
35.2621
 30
0.0
 10
-26.7044
 20
35.2621
 30
0.0
 10
-26.7044
 20
35.2621
 30
0.0
 10
-26.4316
 20
35.2621
 30
0.0
 10
-26.4316
 20
35.2621
 30
0.0
 10
-26.4316
 20
35.2621
 30
0.0
 10
-26.4316
 20
35.2621
 30
0.0
 10
-26.4316
 20
35.0344
 30
0.0
 10
-26.4316
 20
35.0344
 30
0.0
 10
-26.4316
 20
35.0344
 30
0.0
 10
-26.4316
 20
35.0344
 30
0.0
 10
-26.7044
 20
35.0344
 30
0.0
 10
-26.7044
 20
35.0344
 30
0.0
 10
-26.7044
 20
35.0344
 30
0.0
 10
-26.7044
 20
35.0344
 30
0.0
 10
-26.7044
 20
34.5509
 30
0.0
 10
-26.7044
 20
34.5509
 30
0.0
 10
-26.7044
 20
34.5509
 30
0.0
 10
-26.7044
 20
34.5509
 30
0.0
 10
-26.9528
 20
34.5509
 30
0.0
 10
-26.9528
 20
34.5509
 30
0.0
  0
SPLINE
  5
46
330
1F
100
AcDbEntity
  8
DEFAULT_1
 62
   250
100
AcDbSpline
210
0.0
220
0.0
230
1.0
 70
    11
 71
     3
 72
    16
 73
    12
 74
     0
 42
0.0000000001
 43
0.0000000001
 40
0.0
 40
0.0
 40
0.0
 40
0.0
 40
0.25
 40
0.25
 40
0.25
 40
0.25
 40
0.5
 40
0.5
 40
0.5
 40
0.5
 40
1.0
 40
1.0
 40
1.0
 40
1.0
 10
-26.9528
 20
35.2621
 30
0.0
 10
-26.9528
 20
35.2621
 30
0.0
 10
-26.9528
 20
36.1727
 30
0.0
 10
-26.9528
 20
36.1727
 30
0.0
 10
-26.9528
 20
36.1727
 30
0.0
 10
-26.9528
 20
36.1727
 30
0.0
 10
-27.5849
 20
35.2621
 30
0.0
 10
-27.5849
 20
35.2621
 30
0.0
 10
-27.5849
 20
35.2621
 30
0.0
 10
-27.5849
 20
35.2621
 30
0.0
 10
-26.9528
 20
35.2621
 30
0.0
 10
-26.9528
 20
35.2621
 30
0.0
  0
SPLINE
  5
47
330
1F
100
AcDbEntity
  8
DEFAULT_1
 62
   250
100
AcDbSpline
210
0.0
220
0.0
230
1.0
 70
    11
 71
     3
 72
    28
 73
    24
 74
     0
 42
0.0000000001
 43
0.0000000001
 40
0.0
 40
0.0
 40
0.0
 40
0.0
 40
0.1428571428571428
 40
0.1428571428571428
 40
0.1428571428571428
 40
0.1428571428571428
 40
0.2857142857142857
 40
0.2857142857142857
 40
0.2857142857142857
 40
0.2857142857142857
 40
0.4285714285714285
 40
0.4285714285714285
 40
0.4285714285714285
 40
0.4285714285714285
 40
0.5714285714285714
 40
0.5714285714285714
 40
0.5714285714285714
 40
0.5714285714285714
 40
0.7142857142857143
 40
0.7142857142857143
 40
0.7142857142857143
 40
0.7142857142857143
 40
1.0
 40
1.0
 40
1.0
 40
1.0
 10
-26.0967
 20
35.8557
 30
0.0
 10
-26.0967
 20
35.8557
 30
0.0
 10
-26.1658
 20
36.2405
 30
0.0
 10
-26.1658
 20
36.2405
 30
0.0
 10
-26.1658
 20
36.2405
 30
0.0
 10
-26.1658
 20
36.2405
 30
0.0
 10
-26.1658
 20
36.5711
 30
0.0
 10
-26.1658
 20
36.5711
 30
0.0
 10
-26.1658
 20
36.5711
 30
0.0
 10
-26.1658
 20
36.5711
 30
0.0
 10
-25.8832
 20
36.5711
 30
0.0
 10
-25.8832
 20
36.5711
 30
0.0
 10
-25.8832
 20
36.5711
 30
0.0
 10
-25.8832
 20
36.5711
 30
0.0
 10
-25.8832
 20
36.2405
 30
0.0
 10
-25.8832
 20
36.2405
 30
0.0
 10
-25.8832
 20
36.2405
 30
0.0
 10
-25.8832
 20
36.2405
 30
0.0
 10
-25.9452
 20
35.8557
 30
0.0
 10
-25.9452
 20
35.8557
 30
0.0
 10
-25.9452
 20
35.8557
 30
0.0
 10
-25.9452
 20
35.8557
 30
0.0
 10
-26.0967
 20
35.8557
 30
0.0
 10
-26.0967
 20
35.8557
 30
0.0
  0
SPLINE
  5
48
330
1F
100
AcDbEntity
  8
DEFAULT_1
 62
   250
100
AcDbSpline
210
0.0
220
0.0
230
1.0
 70
    11
 71
     3
 72
    28
 73
    24
 74
     0
 42
0.0000000001
 43
0.0000000001
 40
0.0
 40
0.0
 40
0.0
 40
0.0
 40
0.1428571428571428
 40
0.1428571428571428
 40
0.1428571428571428
 40
0.1428571428571428
 40
0.2857142857142857
 40
0.2857142857142857
 40
0.2857142857142857
 40
0.2857142857142857
 40
0.4285714285714285
 40
0.4285714285714285
 40
0.4285714285714285
 40
0.4285714285714285
 40
0.5714285714285714
 40
0.5714285714285714
 40
0.5714285714285714
 40
0.5714285714285714
 40
0.7142857142857143
 40
0.7142857142857143
 40
0.7142857142857143
 40
0.7142857142857143
 40
1.0
 40
1.0
 40
1.0
 40
1.0
 10
-25.6404
 20
35.8557
 30
0.0
 10
-25.6404
 20
35.8557
 30
0.0
 10
-25.7082
 20
36.2405
 30
0.0
 10
-25.7082
 20
36.2405
 30
0.0
 10
-25.7082
 20
36.2405
 30
0.0
 10
-25.7082
 20
36.2405
 30
0.0
 10
-25.7082
 20
36.5711
 30
0.0
 10
-25.7082
 20
36.5711
 30
0.0
 10
-25.7082
 20
36.5711
 30
0.0
 10
-25.7082
 20
36.5711
 30
0.0
 10
-25.4255
 20
36.5711
 30
0.0
 10
-25.4255
 20
36.5711
 30
0.0
 10
-25.4255
 20
36.5711
 30
0.0
 10
-25.4255
 20
36.5711
 30
0.0
 10
-25.4255
 20
36.2405
 30
0.0
 10
-25.4255
 20
36.2405
 30
0.0
 10
-25.4255
 20
36.2405
 30
0.0
 10
-25.4255
 20
36.2405
 30
0.0
 10
-25.4918
 20
35.8557
 30
0.0
 10
-25.4918
 20
35.8557
 30
0.0
 10
-25.4918
 20
35.8557
 30
0.0
 10
-25.4918
 20
35.8557
 30
0.0
 10
-25.6404
 20
35.8557
 30
0.0
 10
-25.6404
 20
35.8557
 30
0.0
  0
SPLINE
  5
49
330
1F
100
AcDbEntity
  8
DEFAULT_1
 62
   250
100
AcDbSpline
210
0.0
220
0.0
230
1.0
 70
    24
 71
     3
 72
     8
 73
     4
 74
     0
 42
0.0000000001
 43
0.0000000001
 40
0.0
 40
0.0
 40
0.0
 40
0.0
 40
1.0
 40
1.0
 40
1.0
 40
1.0
 10
-35.0236
 20
28.9065
 30
0.0
 10
-35.0236
 20
28.9065
 30
0.0
 10
-35.0236
 20
34.3429
 30
0.0
 10
-35.0236
 20
34.3429
 30
0.0
  0
SPLINE
  5
4A
330
1F
100
AcDbEntity
  8
DEFAULT_1
 62
   250
100
AcDbSpline
210
0.0
220
0.0
230
1.0
 70
    24
 71
     3
 72
     8
 73
     4
 74
     0
 42
0.0000000001
 43
0.0000000001
 40
0.0
 40
0.0
 40
0.0
 40
0.0
 40
1.0
 40
1.0
 40
1.0
 40
1.0
 10
-23.5537
 20
28.9065
 30
0.0
 10
-23.5537
 20
28.9065
 30
0.0
 10
-23.5537
 20
34.5216
 30
0.0
 10
-23.5537
 20
34.5216
 30
0.0
  0
SPLINE
  5
4B
330
1F
100
AcDbEntity
  8
DEFAULT_1
 62
   250
100
AcDbSpline
210
0.0
220
0.0
230
1.0
 70
    24
 71
     3
 72
     8
 73
     4
 74
     0
 42
0.0000000001
 43
0.0000000001
 40
0.0
 40
0.0
 40
0.0
 40
0.0
 40
1.0
 40
1.0
 40
1.0
 40
1.0
 10
-19.5588
 20
33.9603
 30
0.0
 10
-19.5588
 20
33.9603
 30
0.0
 10
-39.0085
 20
33.9603
 30
0.0
 10
-39.0085
 20
33.9603
 30
0.0
  0
SPLINE
  5
4C
330
1F
100
AcDbEntity
  8
DEFAULT_1
 62
   250
100
AcDbSpline
210
0.0
220
0.0
230
1.0
 70
    11
 71
     3
 72
    40
 73
    36
 74
     0
 42
0.0000000001
 43
0.0000000001
 40
0.0
 40
0.0
 40
0.0
 40
0.0
 40
0.1
 40
0.1
 40
0.1
 40
0.1
 40
0.2
 40
0.2
 40
0.2
 40
0.2
 40
0.3
 40
0.3
 40
0.3
 40
0.3
 40
0.4
 40
0.4
 40
0.4
 40
0.4
 40
0.5
 40
0.5
 40
0.5
 40
0.5
 40
0.6
 40
0.6
 40
0.6
 40
0.6
 40
0.7
 40
0.7
 40
0.7
 40
0.7
 40
0.8
 40
0.8
 40
0.8
 40
0.8
 40
1.0
 40
1.0
 40
1.0
 40
1.0
 10
-44.7712
 20
-24.2626
 30
0.0
 10
-44.7712
 20
-24.2626
 30
0.0
 10
-44.7712
 20
-24.5105
 30
0.0
 10
-44.7712
 20
-24.5105
 30
0.0
 10
-44.7712
 20
-24.5105
 30
0.0
 10
-44.7712
 20
-24.5105
 30
0.0
 10
-46.3516
 20
-24.5105
 30
0.0
 10
-46.3516
 20
-24.5105
 30
0.0
 10
-46.3516
 20
-24.5105
 30
0.0
 10
-46.2947
 20
-24.5703
 30
0.0
 10
-46.2378
 20
-24.6483
 30
0.0
 10
-46.1809
 20
-24.7452
 30
0.0
 10
-46.1809
 20
-24.7452
 30
0.0
 10
-46.124
 20
-24.8426
 30
0.0
 10
-46.0812
 20
-24.9296
 30
0.0
 10
-46.0529
 20
-25.0068
 30
0.0
 10
-46.0529
 20
-25.0068
 30
0.0
 10
-46.0529
 20
-25.0068
 30
0.0
 10
-46.2924
 20
-25.0068
 30
0.0
 10
-46.2924
 20
-25.0068
 30
0.0
 10
-46.2924
 20
-25.0068
 30
0.0
 10
-46.3577
 20
-24.868
 30
0.0
 10
-46.4368
 20
-24.7466
 30
0.0
 10
-46.5294
 20
-24.6427
 30
0.0
 10
-46.5294
 20
-24.6427
 30
0.0
 10
-46.6226
 20
-24.5392
 30
0.0
 10
-46.7124
 20
-24.4654
 30
0.0
 10
-46.7999
 20
-24.4221
 30
0.0
 10
-46.7999
 20
-24.4221
 30
0.0
 10
-46.7999
 20
-24.4221
 30
0.0
 10
-46.7999
 20
-24.2626
 30
0.0
 10
-46.7999
 20
-24.2626
 30
0.0
 10
-46.7999
 20
-24.2626
 30
0.0
 10
-46.7999
 20
-24.2626
 30
0.0
 10
-44.7712
 20
-24.2626
 30
0.0
 10
-44.7712
 20
-24.2626
 30
0.0
  0
SPLINE
  5
4D
330
1F
100
AcDbEntity
  8
DEFAULT_1
 62
   250
100
AcDbSpline
210
0.0
220
0.0
230
1.0
 70
    11
 71
     3
 72
    40
 73
    36
 74
     0
 42
0.0000000001
 43
0.0000000001
 40
0.0
 40
0.0
 40
0.0
 40
0.0
 40
0.1
 40
0.1
 40
0.1
 40
0.1
 40
0.2
 40
0.2
 40
0.2
 40
0.2
 40
0.3
 40
0.3
 40
0.3
 40
0.3
 40
0.4
 40
0.4
 40
0.4
 40
0.4
 40
0.5
 40
0.5
 40
0.5
 40
0.5
 40
0.6
 40
0.6
 40
0.6
 40
0.6
 40
0.7
 40
0.7
 40
0.7
 40
0.7
 40
0.8
 40
0.8
 40
0.8
 40
0.8
 40
1.0
 40
1.0
 40
1.0
 40
1.0
 10
-44.7712
 20
-22.9023
 30
0.0
 10
-44.7712
 20
-22.9023
 30
0.0
 10
-44.7712
 20
-23.1502
 30
0.0
 10
-44.7712
 20
-23.1502
 30
0.0
 10
-44.7712
 20
-23.1502
 30
0.0
 10
-44.7712
 20
-23.1502
 30
0.0
 10
-46.3516
 20
-23.1502
 30
0.0
 10
-46.3516
 20
-23.1502
 30
0.0
 10
-46.3516
 20
-23.1502
 30
0.0
 10
-46.2947
 20
-23.21
 30
0.0
 10
-46.2378
 20
-23.288
 30
0.0
 10
-46.1809
 20
-23.3849
 30
0.0
 10
-46.1809
 20
-23.3849
 30
0.0
 10
-46.124
 20
-23.4823
 30
0.0
 10
-46.0812
 20
-23.5693
 30
0.0
 10
-46.0529
 20
-23.6465
 30
0.0
 10
-46.0529
 20
-23.6465
 30
0.0
 10
-46.0529
 20
-23.6465
 30
0.0
 10
-46.2924
 20
-23.6465
 30
0.0
 10
-46.2924
 20
-23.6465
 30
0.0
 10
-46.2924
 20
-23.6465
 30
0.0
 10
-46.3577
 20
-23.5077
 30
0.0
 10
-46.4368
 20
-23.3863
 30
0.0
 10
-46.5294
 20
-23.2824
 30
0.0
 10
-46.5294
 20
-23.2824
 30
0.0
 10
-46.6226
 20
-23.1789
 30
0.0
 10
-46.7124
 20
-23.1051
 30
0.0
 10
-46.7999
 20
-23.0618
 30
0.0
 10
-46.7999
 20
-23.0618
 30
0.0
 10
-46.7999
 20
-23.0618
 30
0.0
 10
-46.7999
 20
-22.9023
 30
0.0
 10
-46.7999
 20
-22.9023
 30
0.0
 10
-46.7999
 20
-22.9023
 30
0.0
 10
-46.7999
 20
-22.9023
 30
0.0
 10
-44.7712
 20
-22.9023
 30
0.0
 10
-44.7712
 20
-22.9023
 30
0.0
  0
SPLINE
  5
4E
330
1F
100
AcDbEntity
  8
DEFAULT_1
 62
   250
100
AcDbSpline
210
0.0
220
0.0
230
1.0
 70
    11
 71
     3
 72
    92
 73
    88
 74
     0
 42
0.0000000001
 43
0.0000000001
 40
0.0
 40
0.0
 40
0.0
 40
0.0
 40
0.0434782608695652
 40
0.0434782608695652
 40
0.0434782608695652
 40
0.0434782608695652
 40
0.0869565217391304
 40
0.0869565217391304
 40
0.0869565217391304
 40
0.0869565217391304
 40
0.1304347826086956
 40
0.1304347826086956
 40
0.1304347826086956
 40
0.1304347826086956
 40
0.1739130434782609
 40
0.1739130434782609
 40
0.1739130434782609
 40
0.1739130434782609
 40
0.2173913043478261
 40
0.2173913043478261
 40
0.2173913043478261
 40
0.2173913043478261
 40
0.2608695652173913
 40
0.2608695652173913
 40
0.2608695652173913
 40
0.2608695652173913
 40
0.3043478260869565
 40
0.3043478260869565
 40
0.3043478260869565
 40
0.3043478260869565
 40
0.3478260869565217
 40
0.3478260869565217
 40
0.3478260869565217
 40
0.3478260869565217
 40
0.391304347826087
 40
0.391304347826087
 40
0.391304347826087
 40
0.391304347826087
 40
0.4347826086956522
 40
0.4347826086956522
 40
0.4347826086956522
 40
0.4347826086956522
 40
0.4782608695652174
 40
0.4782608695652174
 40
0.4782608695652174
 40
0.4782608695652174
 40
0.5217391304347826
 40
0.5217391304347826
 40
0.5217391304347826
 40
0.5217391304347826
 40
0.5652173913043478
 40
0.5652173913043478
 40
0.5652173913043478
 40
0.5652173913043478
 40
0.6086956521739131
 40
0.6086956521739131
 40
0.6086956521739131
 40
0.6086956521739131
 40
0.6521739130434783
 40
0.6521739130434783
 40
0.6521739130434783
 40
0.6521739130434783
 40
0.6956521739130435
 40
0.6956521739130435
 40
0.6956521739130435
 40
0.6956521739130435
 40
0.7391304347826086
 40
0.7391304347826086
 40
0.7391304347826086
 40
0.7391304347826086
 40
0.782608695652174
 40
0.782608695652174
 40
0.782608695652174
 40
0.782608695652174
 40
0.8260869565217391
 40
0.8260869565217391
 40
0.8260869565217391
 40
0.8260869565217391
 40
0.8695652173913043
 40
0.8695652173913043
 40
0.8695652173913043
 40
0.8695652173913043
 40
0.9130434782608695
 40
0.9130434782608695
 40
0.9130434782608695
 40
0.9130434782608695
 40
1.0
 40
1.0
 40
1.0
 40
1.0
 10
-45.3004
 20
-22.2669
 30
0.0
 10
-45.3004
 20
-22.2669
 30
0.0
 10
-45.3225
 20
-22.0063
 30
0.0
 10
-45.3225
 20
-22.0063
 30
0.0
 10
-45.3225
 20
-22.0063
 30
0.0
 10
-45.1955
 20
-21.987
 30
0.0
 10
-45.1005
 20
-21.9423
 30
0.0
 10
-45.0365
 20
-21.8722
 30
0.0
 10
-45.0365
 20
-21.8722
 30
0.0
 10
-44.9725
 20
-21.8017
 30
0.0
 10
-44.9405
 20
-21.717
 30
0.0
 10
-44.9405
 20
-21.6178
 30
0.0
 10
-44.9405
 20
-21.6178
 30
0.0
 10
-44.9405
 20
-21.4983
 30
0.0
 10
-44.9857
 20
-21.3972
 30
0.0
 10
-45.0755
 20
-21.3149
 30
0.0
 10
-45.0755
 20
-21.3149
 30
0.0
 10
-45.1658
 20
-21.2321
 30
0.0
 10
-45.2853
 20
-21.1907
 30
0.0
 10
-45.4339
 20
-21.1907
 30
0.0
 10
-45.4339
 20
-21.1907
 30
0.0
 10
-45.5755
 20
-21.1907
 30
0.0
 10
-45.687
 20
-21.2302
 30
0.0
 10
-45.7688
 20
-21.3097
 30
0.0
 10
-45.7688
 20
-21.3097
 30
0.0
 10
-45.8507
 20
-21.3892
 30
0.0
 10
-45.8916
 20
-21.4931
 30
0.0
 10
-45.8916
 20
-21.622
 30
0.0
 10
-45.8916
 20
-21.622
 30
0.0
 10
-45.8916
 20
-21.702
 30
0.0
 10
-45.8733
 20
-21.7739
 30
0.0
 10
-45.8371
 20
-21.8384
 30
0.0
 10
-45.8371
 20
-21.8384
 30
0.0
 10
-45.8008
 20
-21.9028
 30
0.0
 10
-45.7538
 20
-21.9531
 30
0.0
 10
-45.6959
 20
-21.9898
 30
0.0
 10
-45.6959
 20
-21.9898
 30
0.0
 10
-45.6959
 20
-21.9898
 30
0.0
 10
-45.726
 20
-22.2227
 30
0.0
 10
-45.726
 20
-22.2227
 30
0.0
 10
-45.726
 20
-22.2227
 30
0.0
 10
-45.726
 20
-22.2227
 30
0.0
 10
-46.7637
 20
-22.027
 30
0.0
 10
-46.7637
 20
-22.027
 30
0.0
 10
-46.7637
 20
-22.027
 30
0.0
 10
-46.7637
 20
-22.027
 30
0.0
 10
-46.7637
 20
-21.0223
 30
0.0
 10
-46.7637
 20
-21.0223
 30
0.0
 10
-46.7637
 20
-21.0223
 30
0.0
 10
-46.7637
 20
-21.0223
 30
0.0
 10
-46.5266
 20
-21.0223
 30
0.0
 10
-46.5266
 20
-21.0223
 30
0.0
 10
-46.5266
 20
-21.0223
 30
0.0
 10
-46.5266
 20
-21.0223
 30
0.0
 10
-46.5266
 20
-21.8285
 30
0.0
 10
-46.5266
 20
-21.8285
 30
0.0
 10
-46.5266
 20
-21.8285
 30
0.0
 10
-46.5266
 20
-21.8285
 30
0.0
 10
-45.9838
 20
-21.9376
 30
0.0
 10
-45.9838
 20
-21.9376
 30
0.0
 10
-45.9838
 20
-21.9376
 30
0.0
 10
-46.0685
 20
-21.8163
 30
0.0
 10
-46.1108
 20
-21.6888
 30
0.0
 10
-46.1108
 20
-21.5557
 30
0.0
 10
-46.1108
 20
-21.5557
 30
0.0
 10
-46.1108
 20
-21.3793
 30
0.0
 10
-46.0497
 20
-21.2307
 30
0.0
 10
-45.9274
 20
-21.1093
 30
0.0
 10
-45.9274
 20
-21.1093
 30
0.0
 10
-45.8051
 20
-20.988
 30
0.0
 10
-45.648
 20
-20.9273
 30
0.0
 10
-45.4561
 20
-20.9273
 30
0.0
 10
-45.4561
 20
-20.9273
 30
0.0
 10
-45.2731
 20
-20.9273
 30
0.0
 10
-45.115
 20
-20.9809
 30
0.0
 10
-44.9819
 20
-21.0872
 30
0.0
 10
-44.9819
 20
-21.0872
 30
0.0
 10
-44.8187
 20
-21.217
 30
0.0
 10
-44.7369
 20
-21.3939
 30
0.0
 10
-44.7369
 20
-21.6178
 30
0.0
 10
-44.7369
 20
-21.6178
 30
0.0
 10
-44.7369
 20
-21.8017
 30
0.0
 10
-44.7881
 20
-21.9517
 30
0.0
 10
-44.8911
 20
-22.0679
 30
0.0
 10
-44.8911
 20
-22.0679
 30
0.0
 10
-44.9942
 20
-22.1841
 30
0.0
 10
-45.1306
 20
-22.2504
 30
0.0
 10
-45.3004
 20
-22.2669
 30
0.0
  0
SPLINE
  5
4F
330
1F
100
AcDbEntity
  8
DEFAULT_1
 62
   250
100
AcDbSpline
210
0.0
220
0.0
230
1.0
 70
    24
 71
     3
 72
     8
 73
     4
 74
     0
 42
0.0000000001
 43
0.0000000001
 40
0.0
 40
0.0
 40
0.0
 40
0.0
 40
1.0
 40
1.0
 40
1.0
 40
1.0
 10
-27.3278
 20
-36.5332
 30
0.0
 10
-27.3278
 20
-36.5332
 30
0.0
 10
-44.9368
 20
-36.5332
 30
0.0
 10
-44.9368
 20
-36.5332
 30
0.0
  0
SPLINE
  5
50
330
1F
100
AcDbEntity
  8
DEFAULT_1
 62
   250
100
AcDbSpline
210
0.0
220
0.0
230
1.0
 70
    24
 71
     3
 72
     8
 73
     4
 74
     0
 42
0.0000000001
 43
0.0000000001
 40
0.0
 40
0.0
 40
0.0
 40
0.0
 40
1.0
 40
1.0
 40
1.0
 40
1.0
 10
-21.0112
 20
-9.4342
 30
0.0
 10
-21.0112
 20
-9.4342
 30
0.0
 10
-45.0475
 20
-9.4342
 30
0.0
 10
-45.0475
 20
-9.4342
 30
0.0
  0
SPLINE
  5
51
330
1F
100
AcDbEntity
  8
DEFAULT_1
 62
   250
100
AcDbSpline
210
0.0
220
0.0
230
1.0
 70
    24
 71
     3
 72
     8
 73
     4
 74
     0
 42
0.0000000001
 43
0.0000000001
 40
0.0
 40
0.0
 40
0.0
 40
0.0
 40
1.0
 40
1.0
 40
1.0
 40
1.0
 10
-44.3482
 20
-9.4342
 30
0.0
 10
-44.3482
 20
-9.4342
 30
0.0
 10
-44.3482
 20
-35.7649
 30
0.0
 10
-44.3482
 20
-35.7649
 30
0.0
  0
SPLINE
  5
52
330
1F
100
AcDbEntity
  8
DEFAULT_1
 62
   250
100
AcDbSpline
210
0.0
220
0.0
230
1.0
 70
    11
 71
     3
 72
    92
 73
    88
 74
     0
 42
0.0000000001
 43
0.0000000001
 40
0.0
 40
0.0
 40
0.0
 40
0.0
 40
0.0434782608695652
 40
0.0434782608695652
 40
0.0434782608695652
 40
0.0434782608695652
 40
0.0869565217391304
 40
0.0869565217391304
 40
0.0869565217391304
 40
0.0869565217391304
 40
0.1304347826086956
 40
0.1304347826086956
 40
0.1304347826086956
 40
0.1304347826086956
 40
0.1739130434782609
 40
0.1739130434782609
 40
0.1739130434782609
 40
0.1739130434782609
 40
0.2173913043478261
 40
0.2173913043478261
 40
0.2173913043478261
 40
0.2173913043478261
 40
0.2608695652173913
 40
0.2608695652173913
 40
0.2608695652173913
 40
0.2608695652173913
 40
0.3043478260869565
 40
0.3043478260869565
 40
0.3043478260869565
 40
0.3043478260869565
 40
0.3478260869565217
 40
0.3478260869565217
 40
0.3478260869565217
 40
0.3478260869565217
 40
0.391304347826087
 40
0.391304347826087
 40
0.391304347826087
 40
0.391304347826087
 40
0.4347826086956522
 40
0.4347826086956522
 40
0.4347826086956522
 40
0.4347826086956522
 40
0.4782608695652174
 40
0.4782608695652174
 40
0.4782608695652174
 40
0.4782608695652174
 40
0.5217391304347826
 40
0.5217391304347826
 40
0.5217391304347826
 40
0.5217391304347826
 40
0.5652173913043478
 40
0.5652173913043478
 40
0.5652173913043478
 40
0.5652173913043478
 40
0.6086956521739131
 40
0.6086956521739131
 40
0.6086956521739131
 40
0.6086956521739131
 40
0.6521739130434783
 40
0.6521739130434783
 40
0.6521739130434783
 40
0.6521739130434783
 40
0.6956521739130435
 40
0.6956521739130435
 40
0.6956521739130435
 40
0.6956521739130435
 40
0.7391304347826086
 40
0.7391304347826086
 40
0.7391304347826086
 40
0.7391304347826086
 40
0.782608695652174
 40
0.782608695652174
 40
0.782608695652174
 40
0.782608695652174
 40
0.8260869565217391
 40
0.8260869565217391
 40
0.8260869565217391
 40
0.8260869565217391
 40
0.8695652173913043
 40
0.8695652173913043
 40
0.8695652173913043
 40
0.8695652173913043
 40
0.9130434782608695
 40
0.9130434782608695
 40
0.9130434782608695
 40
0.9130434782608695
 40
1.0
 40
1.0
 40
1.0
 40
1.0
 10
-45.1336
 20
3.3572
 30
0.0
 10
-45.1336
 20
3.3572
 30
0.0
 10
-44.8951
 20
3.3572
 30
0.0
 10
-44.8951
 20
3.3572
 30
0.0
 10
-44.8951
 20
3.3572
 30
0.0
 10
-44.8951
 20
3.3572
 30
0.0
 10
-44.8951
 20
2.0218
 30
0.0
 10
-44.8951
 20
2.0218
 30
0.0
 10
-44.8951
 20
2.0218
 30
0.0
 10
-44.9548
 20
2.0199
 30
0.0
 10
-45.0122
 20
2.0293
 30
0.0
 10
-45.0673
 20
2.0505
 30
0.0
 10
-45.0673
 20
2.0505
 30
0.0
 10
-45.1585
 20
2.0844
 30
0.0
 10
-45.2479
 20
2.1389
 30
0.0
 10
-45.3363
 20
2.2137
 30
0.0
 10
-45.3363
 20
2.2137
 30
0.0
 10
-45.4243
 20
2.289
 30
0.0
 10
-45.5263
 20
2.3972
 30
0.0
 10
-45.642
 20
2.5383
 30
0.0
 10
-45.642
 20
2.5383
 30
0.0
 10
-45.8222
 20
2.7579
 30
0.0
 10
-45.9647
 20
2.9066
 30
0.0
 10
-46.0701
 20
2.9837
 30
0.0
 10
-46.0701
 20
2.9837
 30
0.0
 10
-46.175
 20
3.0608
 30
0.0
 10
-46.2747
 20
3.0994
 30
0.0
 10
-46.3683
 20
3.0994
 30
0.0
 10
-46.3683
 20
3.0994
 30
0.0
 10
-46.4666
 20
3.0994
 30
0.0
 10
-46.5494
 20
3.0641
 30
0.0
 10
-46.6171
 20
2.9941
 30
0.0
 10
-46.6171
 20
2.9941
 30
0.0
 10
-46.6844
 20
2.9235
 30
0.0
 10
-46.7182
 20
2.8318
 30
0.0
 10
-46.7182
 20
2.7189
 30
0.0
 10
-46.7182
 20
2.7189
 30
0.0
 10
-46.7182
 20
2.5994
 30
0.0
 10
-46.6825
 20
2.5039
 30
0.0
 10
-46.6105
 20
2.4324
 30
0.0
 10
-46.6105
 20
2.4324
 30
0.0
 10
-46.539
 20
2.3605
 30
0.0
 10
-46.4398
 20
2.3243
 30
0.0
 10
-46.3133
 20
2.3233
 30
0.0
 10
-46.3133
 20
2.3233
 30
0.0
 10
-46.3133
 20
2.3233
 30
0.0
 10
-46.3391
 20
2.0684
 30
0.0
 10
-46.3391
 20
2.0684
 30
0.0
 10
-46.3391
 20
2.0684
 30
0.0
 10
-46.5296
 20
2.0858
 30
0.0
 10
-46.6745
 20
2.1516
 30
0.0
 10
-46.7742
 20
2.2655
 30
0.0
 10
-46.7742
 20
2.2655
 30
0.0
 10
-46.8739
 20
2.3793
 30
0.0
 10
-46.9238
 20
2.5326
 30
0.0
 10
-46.9238
 20
2.7245
 30
0.0
 10
-46.9238
 20
2.7245
 30
0.0
 10
-46.9238
 20
2.9183
 30
0.0
 10
-46.8697
 20
3.0717
 30
0.0
 10
-46.7625
 20
3.1846
 30
0.0
 10
-46.7625
 20
3.1846
 30
0.0
 10
-46.6547
 20
3.2979
 30
0.0
 10
-46.5216
 20
3.3544
 30
0.0
 10
-46.3626
 20
3.3544
 30
0.0
 10
-46.3626
 20
3.3544
 30
0.0
 10
-46.2817
 20
3.3544
 30
0.0
 10
-46.2022
 20
3.3379
 30
0.0
 10
-46.1242
 20
3.3045
 30
0.0
 10
-46.1242
 20
3.3045
 30
0.0
 10
-46.0461
 20
3.2716
 30
0.0
 10
-45.9638
 20
3.2165
 30
0.0
 10
-45.8777
 20
3.1399
 30
0.0
 10
-45.8777
 20
3.1399
 30
0.0
 10
-45.7911
 20
3.0632
 30
0.0
 10
-45.6726
 20
2.9357
 30
0.0
 10
-45.5221
 20
2.7575
 30
0.0
 10
-45.5221
 20
2.7575
 30
0.0
 10
-45.397
 20
2.6088
 30
0.0
 10
-45.3123
 20
2.5133
 30
0.0
 10
-45.2676
 20
2.471
 30
0.0
 10
-45.2676
 20
2.471
 30
0.0
 10
-45.2234
 20
2.4287
 30
0.0
 10
-45.1787
 20
2.3939
 30
0.0
 10
-45.1336
 20
2.3661
 30
0.0
 10
-45.1336
 20
2.3661
 30
0.0
 10
-45.1336
 20
2.3661
 30
0.0
 10
-45.1336
 20
3.3572
 30
0.0
 10
-45.1336
 20
3.3572
 30
0.0
  0
SPLINE
  5
53
330
1F
100
AcDbEntity
  8
DEFAULT_1
 62
   250
100
AcDbSpline
210
0.0
220
0.0
230
1.0
 70
    11
 71
     3
 72
    52
 73
    48
 74
     0
 42
0.0000000001
 43
0.0000000001
 40
0.0
 40
0.0
 40
0.0
 40
0.0
 40
0.0769230769230769
 40
0.0769230769230769
 40
0.0769230769230769
 40
0.0769230769230769
 40
0.1538461538461539
 40
0.1538461538461539
 40
0.1538461538461539
 40
0.1538461538461539
 40
0.2307692307692308
 40
0.2307692307692308
 40
0.2307692307692308
 40
0.2307692307692308
 40
0.3076923076923077
 40
0.3076923076923077
 40
0.3076923076923077
 40
0.3076923076923077
 40
0.3846153846153846
 40
0.3846153846153846
 40
0.3846153846153846
 40
0.3846153846153846
 40
0.4615384615384616
 40
0.4615384615384616
 40
0.4615384615384616
 40
0.4615384615384616
 40
0.5384615384615384
 40
0.5384615384615384
 40
0.5384615384615384
 40
0.5384615384615384
 40
0.6153846153846154
 40
0.6153846153846154
 40
0.6153846153846154
 40
0.6153846153846154
 40
0.6923076923076923
 40
0.6923076923076923
 40
0.6923076923076923
 40
0.6923076923076923
 40
0.7692307692307693
 40
0.7692307692307693
 40
0.7692307692307693
 40
0.7692307692307693
 40
0.8461538461538461
 40
0.8461538461538461
 40
0.8461538461538461
 40
0.8461538461538461
 40
1.0
 40
1.0
 40
1.0
 40
1.0
 10
-45.8913
 20
3.6229
 30
0.0
 10
-46.1303
 20
3.6229
 30
0.0
 10
-46.3227
 20
3.6474
 30
0.0
 10
-46.468
 20
3.6968
 30
0.0
 10
-46.468
 20
3.6968
 30
0.0
 10
-46.6138
 20
3.7457
 30
0.0
 10
-46.7262
 20
3.8191
 30
0.0
 10
-46.8053
 20
3.916
 30
0.0
 10
-46.8053
 20
3.916
 30
0.0
 10
-46.8843
 20
4.0129
 30
0.0
 10
-46.9238
 20
4.1347
 30
0.0
 10
-46.9238
 20
4.2814
 30
0.0
 10
-46.9238
 20
4.2814
 30
0.0
 10
-46.9238
 20
4.3901
 30
0.0
 10
-46.9017
 20
4.4851
 30
0.0
 10
-46.8579
 20
4.5669
 30
0.0
 10
-46.8579
 20
4.5669
 30
0.0
 10
-46.8147
 20
4.6488
 30
0.0
 10
-46.7516
 20
4.7161
 30
0.0
 10
-46.6693
 20
4.7697
 30
0.0
 10
-46.6693
 20
4.7697
 30
0.0
 10
-46.587
 20
4.8228
 30
0.0
 10
-46.4868
 20
4.8647
 30
0.0
 10
-46.3688
 20
4.8948
 30
0.0
 10
-46.3688
 20
4.8948
 30
0.0
 10
-46.2507
 20
4.9254
 30
0.0
 10
-46.0917
 20
4.9404
 30
0.0
 10
-45.8913
 20
4.9404
 30
0.0
 10
-45.8913
 20
4.9404
 30
0.0
 10
-45.6543
 20
4.9404
 30
0.0
 10
-45.4633
 20
4.916
 30
0.0
 10
-45.3175
 20
4.8675
 30
0.0
 10
-45.3175
 20
4.8675
 30
0.0
 10
-45.1717
 20
4.8186
 30
0.0
 10
-45.0593
 20
4.7457
 30
0.0
 10
-44.9798
 20
4.6488
 30
0.0
 10
-44.9798
 20
4.6488
 30
0.0
 10
-44.9003
 20
4.5519
 30
0.0
 10
-44.8608
 20
4.4296
 30
0.0
 10
-44.8608
 20
4.2814
 30
0.0
 10
-44.8608
 20
4.2814
 30
0.0
 10
-44.8608
 20
4.0867
 30
0.0
 10
-44.9304
 20
3.9338
 30
0.0
 10
-45.0701
 20
3.8228
 30
0.0
 10
-45.0701
 20
3.8228
 30
0.0
 10
-45.238
 20
3.6897
 30
0.0
 10
-45.5122
 20
3.6229
 30
0.0
 10
-45.8913
 20
3.6229
 30
0.0
  0
SPLINE
  5
54
330
1F
100
AcDbEntity
  8
DEFAULT_1
 62
   250
100
AcDbSpline
210
0.0
220
0.0
230
1.0
 70
    11
 71
     3
 72
    36
 73
    32
 74
     0
 42
0.0000000001
 43
0.0000000001
 40
0.0
 40
0.0
 40
0.0
 40
0.0
 40
0.1111111111111111
 40
0.1111111111111111
 40
0.1111111111111111
 40
0.1111111111111111
 40
0.2222222222222222
 40
0.2222222222222222
 40
0.2222222222222222
 40
0.2222222222222222
 40
0.3333333333333333
 40
0.3333333333333333
 40
0.3333333333333333
 40
0.3333333333333333
 40
0.4444444444444444
 40
0.4444444444444444
 40
0.4444444444444444
 40
0.4444444444444444
 40
0.5555555555555556
 40
0.5555555555555556
 40
0.5555555555555556
 40
0.5555555555555556
 40
0.6666666666666666
 40
0.6666666666666666
 40
0.6666666666666666
 40
0.6666666666666666
 40
0.7777777777777778
 40
0.7777777777777778
 40
0.7777777777777778
 40
0.7777777777777778
 40
1.0
 40
1.0
 40
1.0
 40
1.0
 10
-45.8913
 20
3.8779
 30
0.0
 10
-45.5597
 20
3.8779
 30
0.0
 10
-45.3391
 20
3.9169
 30
0.0
 10
-45.2291
 20
3.9945
 30
0.0
 10
-45.2291
 20
3.9945
 30
0.0
 10
-45.1195
 20
4.0721
 30
0.0
 10
-45.0644
 20
4.1676
 30
0.0
 10
-45.0644
 20
4.2814
 30
0.0
 10
-45.0644
 20
4.2814
 30
0.0
 10
-45.0644
 20
4.3957
 30
0.0
 10
-45.1199
 20
4.4912
 30
0.0
 10
-45.23
 20
4.5688
 30
0.0
 10
-45.23
 20
4.5688
 30
0.0
 10
-45.3401
 20
4.6464
 30
0.0
 10
-45.5607
 20
4.6855
 30
0.0
 10
-45.8913
 20
4.6855
 30
0.0
 10
-45.8913
 20
4.6855
 30
0.0
 10
-46.2239
 20
4.6855
 30
0.0
 10
-46.445
 20
4.6464
 30
0.0
 10
-46.5541
 20
4.5688
 30
0.0
 10
-46.5541
 20
4.5688
 30
0.0
 10
-46.6637
 20
4.4912
 30
0.0
 10
-46.7182
 20
4.3948
 30
0.0
 10
-46.7182
 20
4.2791
 30
0.0
 10
-46.7182
 20
4.2791
 30
0.0
 10
-46.7182
 20
4.1648
 30
0.0
 10
-46.6698
 20
4.074
 30
0.0
 10
-46.5734
 20
4.0058
 30
0.0
 10
-46.5734
 20
4.0058
 30
0.0
 10
-46.4506
 20
3.9207
 30
0.0
 10
-46.2229
 20
3.8779
 30
0.0
 10
-45.8913
 20
3.8779
 30
0.0
  0
SPLINE
  5
55
330
1F
100
AcDbEntity
  8
DEFAULT_1
 62
   250
100
AcDbSpline
210
0.0
220
0.0
230
1.0
 70
    11
 71
     3
 72
    52
 73
    48
 74
     0
 42
0.0000000001
 43
0.0000000001
 40
0.0
 40
0.0
 40
0.0
 40
0.0
 40
0.0769230769230769
 40
0.0769230769230769
 40
0.0769230769230769
 40
0.0769230769230769
 40
0.1538461538461539
 40
0.1538461538461539
 40
0.1538461538461539
 40
0.1538461538461539
 40
0.2307692307692308
 40
0.2307692307692308
 40
0.2307692307692308
 40
0.2307692307692308
 40
0.3076923076923077
 40
0.3076923076923077
 40
0.3076923076923077
 40
0.3076923076923077
 40
0.3846153846153846
 40
0.3846153846153846
 40
0.3846153846153846
 40
0.3846153846153846
 40
0.4615384615384616
 40
0.4615384615384616
 40
0.4615384615384616
 40
0.4615384615384616
 40
0.5384615384615384
 40
0.5384615384615384
 40
0.5384615384615384
 40
0.5384615384615384
 40
0.6153846153846154
 40
0.6153846153846154
 40
0.6153846153846154
 40
0.6153846153846154
 40
0.6923076923076923
 40
0.6923076923076923
 40
0.6923076923076923
 40
0.6923076923076923
 40
0.7692307692307693
 40
0.7692307692307693
 40
0.7692307692307693
 40
0.7692307692307693
 40
0.8461538461538461
 40
0.8461538461538461
 40
0.8461538461538461
 40
0.8461538461538461
 40
1.0
 40
1.0
 40
1.0
 40
1.0
 10
-45.8913
 20
5.1925
 30
0.0
 10
-46.1303
 20
5.1925
 30
0.0
 10
-46.3227
 20
5.217
 30
0.0
 10
-46.468
 20
5.2664
 30
0.0
 10
-46.468
 20
5.2664
 30
0.0
 10
-46.6138
 20
5.3153
 30
0.0
 10
-46.7262
 20
5.3887
 30
0.0
 10
-46.8053
 20
5.4856
 30
0.0
 10
-46.8053
 20
5.4856
 30
0.0
 10
-46.8843
 20
5.5825
 30
0.0
 10
-46.9238
 20
5.7043
 30
0.0
 10
-46.9238
 20
5.851
 30
0.0
 10
-46.9238
 20
5.851
 30
0.0
 10
-46.9238
 20
5.9597
 30
0.0
 10
-46.9017
 20
6.0547
 30
0.0
 10
-46.8579
 20
6.1365
 30
0.0
 10
-46.8579
 20
6.1365
 30
0.0
 10
-46.8147
 20
6.2184
 30
0.0
 10
-46.7516
 20
6.2857
 30
0.0
 10
-46.6693
 20
6.3393
 30
0.0
 10
-46.6693
 20
6.3393
 30
0.0
 10
-46.587
 20
6.3924
 30
0.0
 10
-46.4868
 20
6.4343
 30
0.0
 10
-46.3688
 20
6.4644
 30
0.0
 10
-46.3688
 20
6.4644
 30
0.0
 10
-46.2507
 20
6.495
 30
0.0
 10
-46.0917
 20
6.51
 30
0.0
 10
-45.8913
 20
6.51
 30
0.0
 10
-45.8913
 20
6.51
 30
0.0
 10
-45.6543
 20
6.51
 30
0.0
 10
-45.4633
 20
6.4856
 30
0.0
 10
-45.3175
 20
6.4371
 30
0.0
 10
-45.3175
 20
6.4371
 30
0.0
 10
-45.1717
 20
6.3882
 30
0.0
 10
-45.0593
 20
6.3153
 30
0.0
 10
-44.9798
 20
6.2184
 30
0.0
 10
-44.9798
 20
6.2184
 30
0.0
 10
-44.9003
 20
6.1215
 30
0.0
 10
-44.8608
 20
5.9992
 30
0.0
 10
-44.8608
 20
5.851
 30
0.0
 10
-44.8608
 20
5.851
 30
0.0
 10
-44.8608
 20
5.6563
 30
0.0
 10
-44.9304
 20
5.5034
 30
0.0
 10
-45.0701
 20
5.3924
 30
0.0
 10
-45.0701
 20
5.3924
 30
0.0
 10
-45.238
 20
5.2593
 30
0.0
 10
-45.5122
 20
5.1925
 30
0.0
 10
-45.8913
 20
5.1925
 30
0.0
  0
SPLINE
  5
56
330
1F
100
AcDbEntity
  8
DEFAULT_1
 62
   250
100
AcDbSpline
210
0.0
220
0.0
230
1.0
 70
    11
 71
     3
 72
    36
 73
    32
 74
     0
 42
0.0000000001
 43
0.0000000001
 40
0.0
 40
0.0
 40
0.0
 40
0.0
 40
0.1111111111111111
 40
0.1111111111111111
 40
0.1111111111111111
 40
0.1111111111111111
 40
0.2222222222222222
 40
0.2222222222222222
 40
0.2222222222222222
 40
0.2222222222222222
 40
0.3333333333333333
 40
0.3333333333333333
 40
0.3333333333333333
 40
0.3333333333333333
 40
0.4444444444444444
 40
0.4444444444444444
 40
0.4444444444444444
 40
0.4444444444444444
 40
0.5555555555555556
 40
0.5555555555555556
 40
0.5555555555555556
 40
0.5555555555555556
 40
0.6666666666666666
 40
0.6666666666666666
 40
0.6666666666666666
 40
0.6666666666666666
 40
0.7777777777777778
 40
0.7777777777777778
 40
0.7777777777777778
 40
0.7777777777777778
 40
1.0
 40
1.0
 40
1.0
 40
1.0
 10
-45.8913
 20
5.4475
 30
0.0
 10
-45.5597
 20
5.4475
 30
0.0
 10
-45.3391
 20
5.4865
 30
0.0
 10
-45.2291
 20
5.5641
 30
0.0
 10
-45.2291
 20
5.5641
 30
0.0
 10
-45.1195
 20
5.6417
 30
0.0
 10
-45.0644
 20
5.7372
 30
0.0
 10
-45.0644
 20
5.851
 30
0.0
 10
-45.0644
 20
5.851
 30
0.0
 10
-45.0644
 20
5.9653
 30
0.0
 10
-45.1199
 20
6.0608
 30
0.0
 10
-45.23
 20
6.1384
 30
0.0
 10
-45.23
 20
6.1384
 30
0.0
 10
-45.3401
 20
6.216
 30
0.0
 10
-45.5607
 20
6.2551
 30
0.0
 10
-45.8913
 20
6.2551
 30
0.0
 10
-45.8913
 20
6.2551
 30
0.0
 10
-46.2239
 20
6.2551
 30
0.0
 10
-46.445
 20
6.216
 30
0.0
 10
-46.5541
 20
6.1384
 30
0.0
 10
-46.5541
 20
6.1384
 30
0.0
 10
-46.6637
 20
6.0608
 30
0.0
 10
-46.7182
 20
5.9644
 30
0.0
 10
-46.7182
 20
5.8487
 30
0.0
 10
-46.7182
 20
5.8487
 30
0.0
 10
-46.7182
 20
5.7344
 30
0.0
 10
-46.6698
 20
5.6436
 30
0.0
 10
-46.5734
 20
5.5754
 30
0.0
 10
-46.5734
 20
5.5754
 30
0.0
 10
-46.4506
 20
5.4903
 30
0.0
 10
-46.2229
 20
5.4475
 30
0.0
 10
-45.8913
 20
5.4475
 30
0.0
  0
SPLINE
  5
57
330
1F
100
AcDbEntity
  8
DEFAULT_1
 62
   250
100
AcDbSpline
210
0.0
220
0.0
230
1.0
 70
    11
 71
     3
 72
    20
 73
    16
 74
     0
 42
0.0000000001
 43
0.0000000001
 40
0.0
 40
0.0
 40
0.0
 40
0.0
 40
0.2
 40
0.2
 40
0.2
 40
0.2
 40
0.4
 40
0.4
 40
0.4
 40
0.4
 40
0.6
 40
0.6
 40
0.6
 40
0.6
 40
1.0
 40
1.0
 40
1.0
 40
1.0
 10
-45.5014
 20
7.5185
 30
0.0
 10
-45.5014
 20
7.5185
 30
0.0
 10
-45.7507
 20
7.5185
 30
0.0
 10
-45.7507
 20
7.5185
 30
0.0
 10
-45.7507
 20
7.5185
 30
0.0
 10
-45.7507
 20
7.5185
 30
0.0
 10
-45.7507
 20
8.2809
 30
0.0
 10
-45.7507
 20
8.2809
 30
0.0
 10
-45.7507
 20
8.2809
 30
0.0
 10
-45.7507
 20
8.2809
 30
0.0
 10
-45.5014
 20
8.2809
 30
0.0
 10
-45.5014
 20
8.2809
 30
0.0
 10
-45.5014
 20
8.2809
 30
0.0
 10
-45.5014
 20
8.2809
 30
0.0
 10
-45.5014
 20
7.5185
 30
0.0
 10
-45.5014
 20
7.5185
 30
0.0
  0
SPLINE
  5
58
330
1F
100
AcDbEntity
  8
DEFAULT_1
 62
   250
100
AcDbSpline
210
0.0
220
0.0
230
1.0
 70
    11
 71
     3
 72
    92
 73
    88
 74
     0
 42
0.0000000001
 43
0.0000000001
 40
0.0
 40
0.0
 40
0.0
 40
0.0
 40
0.0434782608695652
 40
0.0434782608695652
 40
0.0434782608695652
 40
0.0434782608695652
 40
0.0869565217391304
 40
0.0869565217391304
 40
0.0869565217391304
 40
0.0869565217391304
 40
0.1304347826086956
 40
0.1304347826086956
 40
0.1304347826086956
 40
0.1304347826086956
 40
0.1739130434782609
 40
0.1739130434782609
 40
0.1739130434782609
 40
0.1739130434782609
 40
0.2173913043478261
 40
0.2173913043478261
 40
0.2173913043478261
 40
0.2173913043478261
 40
0.2608695652173913
 40
0.2608695652173913
 40
0.2608695652173913
 40
0.2608695652173913
 40
0.3043478260869565
 40
0.3043478260869565
 40
0.3043478260869565
 40
0.3043478260869565
 40
0.3478260869565217
 40
0.3478260869565217
 40
0.3478260869565217
 40
0.3478260869565217
 40
0.391304347826087
 40
0.391304347826087
 40
0.391304347826087
 40
0.391304347826087
 40
0.4347826086956522
 40
0.4347826086956522
 40
0.4347826086956522
 40
0.4347826086956522
 40
0.4782608695652174
 40
0.4782608695652174
 40
0.4782608695652174
 40
0.4782608695652174
 40
0.5217391304347826
 40
0.5217391304347826
 40
0.5217391304347826
 40
0.5217391304347826
 40
0.5652173913043478
 40
0.5652173913043478
 40
0.5652173913043478
 40
0.5652173913043478
 40
0.6086956521739131
 40
0.6086956521739131
 40
0.6086956521739131
 40
0.6086956521739131
 40
0.6521739130434783
 40
0.6521739130434783
 40
0.6521739130434783
 40
0.6521739130434783
 40
0.6956521739130435
 40
0.6956521739130435
 40
0.6956521739130435
 40
0.6956521739130435
 40
0.7391304347826086
 40
0.7391304347826086
 40
0.7391304347826086
 40
0.7391304347826086
 40
0.782608695652174
 40
0.782608695652174
 40
0.782608695652174
 40
0.782608695652174
 40
0.8260869565217391
 40
0.8260869565217391
 40
0.8260869565217391
 40
0.8260869565217391
 40
0.8695652173913043
 40
0.8695652173913043
 40
0.8695652173913043
 40
0.8695652173913043
 40
0.9130434782608695
 40
0.9130434782608695
 40
0.9130434782608695
 40
0.9130434782608695
 40
1.0
 40
1.0
 40
1.0
 40
1.0
 10
-45.1336
 20
10.574
 30
0.0
 10
-45.1336
 20
10.574
 30
0.0
 10
-44.8951
 20
10.574
 30
0.0
 10
-44.8951
 20
10.574
 30
0.0
 10
-44.8951
 20
10.574
 30
0.0
 10
-44.8951
 20
10.574
 30
0.0
 10
-44.8951
 20
9.2386
 30
0.0
 10
-44.8951
 20
9.2386
 30
0.0
 10
-44.8951
 20
9.2386
 30
0.0
 10
-44.9548
 20
9.2367
 30
0.0
 10
-45.0122
 20
9.2461
 30
0.0
 10
-45.0673
 20
9.2673
 30
0.0
 10
-45.0673
 20
9.2673
 30
0.0
 10
-45.1585
 20
9.3012
 30
0.0
 10
-45.2479
 20
9.3557
 30
0.0
 10
-45.3363
 20
9.4305
 30
0.0
 10
-45.3363
 20
9.4305
 30
0.0
 10
-45.4243
 20
9.5058
 30
0.0
 10
-45.5263
 20
9.614
 30
0.0
 10
-45.642
 20
9.7551
 30
0.0
 10
-45.642
 20
9.7551
 30
0.0
 10
-45.8222
 20
9.9747
 30
0.0
 10
-45.9647
 20
10.1234
 30
0.0
 10
-46.0701
 20
10.2005
 30
0.0
 10
-46.0701
 20
10.2005
 30
0.0
 10
-46.175
 20
10.2776
 30
0.0
 10
-46.2747
 20
10.3162
 30
0.0
 10
-46.3683
 20
10.3162
 30
0.0
 10
-46.3683
 20
10.3162
 30
0.0
 10
-46.4666
 20
10.3162
 30
0.0
 10
-46.5494
 20
10.2809
 30
0.0
 10
-46.6171
 20
10.2109
 30
0.0
 10
-46.6171
 20
10.2109
 30
0.0
 10
-46.6844
 20
10.1403
 30
0.0
 10
-46.7182
 20
10.0486
 30
0.0
 10
-46.7182
 20
9.9357
 30
0.0
 10
-46.7182
 20
9.9357
 30
0.0
 10
-46.7182
 20
9.8162
 30
0.0
 10
-46.6825
 20
9.7207
 30
0.0
 10
-46.6105
 20
9.6492
 30
0.0
 10
-46.6105
 20
9.6492
 30
0.0
 10
-46.539
 20
9.5773
 30
0.0
 10
-46.4398
 20
9.5411
 30
0.0
 10
-46.3133
 20
9.5401
 30
0.0
 10
-46.3133
 20
9.5401
 30
0.0
 10
-46.3133
 20
9.5401
 30
0.0
 10
-46.3391
 20
9.2852
 30
0.0
 10
-46.3391
 20
9.2852
 30
0.0
 10
-46.3391
 20
9.2852
 30
0.0
 10
-46.5296
 20
9.3026
 30
0.0
 10
-46.6745
 20
9.3684
 30
0.0
 10
-46.7742
 20
9.4823
 30
0.0
 10
-46.7742
 20
9.4823
 30
0.0
 10
-46.8739
 20
9.5961
 30
0.0
 10
-46.9238
 20
9.7494
 30
0.0
 10
-46.9238
 20
9.9413
 30
0.0
 10
-46.9238
 20
9.9413
 30
0.0
 10
-46.9238
 20
10.1351
 30
0.0
 10
-46.8697
 20
10.2885
 30
0.0
 10
-46.7625
 20
10.4014
 30
0.0
 10
-46.7625
 20
10.4014
 30
0.0
 10
-46.6547
 20
10.5147
 30
0.0
 10
-46.5216
 20
10.5712
 30
0.0
 10
-46.3626
 20
10.5712
 30
0.0
 10
-46.3626
 20
10.5712
 30
0.0
 10
-46.2817
 20
10.5712
 30
0.0
 10
-46.2022
 20
10.5547
 30
0.0
 10
-46.1242
 20
10.5213
 30
0.0
 10
-46.1242
 20
10.5213
 30
0.0
 10
-46.0461
 20
10.4884
 30
0.0
 10
-45.9638
 20
10.4333
 30
0.0
 10
-45.8777
 20
10.3567
 30
0.0
 10
-45.8777
 20
10.3567
 30
0.0
 10
-45.7911
 20
10.28
 30
0.0
 10
-45.6726
 20
10.1525
 30
0.0
 10
-45.5221
 20
9.9743
 30
0.0
 10
-45.5221
 20
9.9743
 30
0.0
 10
-45.397
 20
9.8256
 30
0.0
 10
-45.3123
 20
9.7301
 30
0.0
 10
-45.2676
 20
9.6878
 30
0.0
 10
-45.2676
 20
9.6878
 30
0.0
 10
-45.2234
 20
9.6455
 30
0.0
 10
-45.1787
 20
9.6107
 30
0.0
 10
-45.1336
 20
9.5829
 30
0.0
 10
-45.1336
 20
9.5829
 30
0.0
 10
-45.1336
 20
9.5829
 30
0.0
 10
-45.1336
 20
10.574
 30
0.0
 10
-45.1336
 20
10.574
 30
0.0
  0
SPLINE
  5
59
330
1F
100
AcDbEntity
  8
DEFAULT_1
 62
   250
100
AcDbSpline
210
0.0
220
0.0
230
1.0
 70
    11
 71
     3
 72
    48
 73
    44
 74
     0
 42
0.0000000001
 43
0.0000000001
 40
0.0
 40
0.0
 40
0.0
 40
0.0
 40
0.0833333333333333
 40
0.0833333333333333
 40
0.0833333333333333
 40
0.0833333333333333
 40
0.1666666666666667
 40
0.1666666666666667
 40
0.1666666666666667
 40
0.1666666666666667
 40
0.25
 40
0.25
 40
0.25
 40
0.25
 40
0.3333333333333333
 40
0.3333333333333333
 40
0.3333333333333333
 40
0.3333333333333333
 40
0.4166666666666667
 40
0.4166666666666667
 40
0.4166666666666667
 40
0.4166666666666667
 40
0.5
 40
0.5
 40
0.5
 40
0.5
 40
0.5833333333333334
 40
0.5833333333333334
 40
0.5833333333333334
 40
0.5833333333333334
 40
0.6666666666666666
 40
0.6666666666666666
 40
0.6666666666666666
 40
0.6666666666666666
 40
0.75
 40
0.75
 40
0.75
 40
0.75
 40
0.8333333333333334
 40
0.8333333333333334
 40
0.8333333333333334
 40
0.8333333333333334
 40
1.0
 40
1.0
 40
1.0
 40
1.0
 10
-44.8951
 20
11.6346
 30
0.0
 10
-44.8951
 20
11.6346
 30
0.0
 10
-45.3786
 20
11.6346
 30
0.0
 10
-45.3786
 20
11.6346
 30
0.0
 10
-45.3786
 20
11.6346
 30
0.0
 10
-45.3786
 20
11.6346
 30
0.0
 10
-45.3786
 20
10.7583
 30
0.0
 10
-45.3786
 20
10.7583
 30
0.0
 10
-45.3786
 20
10.7583
 30
0.0
 10
-45.3786
 20
10.7583
 30
0.0
 10
-45.6063
 20
10.7583
 30
0.0
 10
-45.6063
 20
10.7583
 30
0.0
 10
-45.6063
 20
10.7583
 30
0.0
 10
-45.6063
 20
10.7583
 30
0.0
 10
-46.9153
 20
11.6803
 30
0.0
 10
-46.9153
 20
11.6803
 30
0.0
 10
-46.9153
 20
11.6803
 30
0.0
 10
-46.9153
 20
11.6803
 30
0.0
 10
-46.9153
 20
11.883
 30
0.0
 10
-46.9153
 20
11.883
 30
0.0
 10
-46.9153
 20
11.883
 30
0.0
 10
-46.9153
 20
11.883
 30
0.0
 10
-45.6063
 20
11.883
 30
0.0
 10
-45.6063
 20
11.883
 30
0.0
 10
-45.6063
 20
11.883
 30
0.0
 10
-45.6063
 20
11.883
 30
0.0
 10
-45.6063
 20
12.1558
 30
0.0
 10
-45.6063
 20
12.1558
 30
0.0
 10
-45.6063
 20
12.1558
 30
0.0
 10
-45.6063
 20
12.1558
 30
0.0
 10
-45.3786
 20
12.1558
 30
0.0
 10
-45.3786
 20
12.1558
 30
0.0
 10
-45.3786
 20
12.1558
 30
0.0
 10
-45.3786
 20
12.1558
 30
0.0
 10
-45.3786
 20
11.883
 30
0.0
 10
-45.3786
 20
11.883
 30
0.0
 10
-45.3786
 20
11.883
 30
0.0
 10
-45.3786
 20
11.883
 30
0.0
 10
-44.8951
 20
11.883
 30
0.0
 10
-44.8951
 20
11.883
 30
0.0
 10
-44.8951
 20
11.883
 30
0.0
 10
-44.8951
 20
11.883
 30
0.0
 10
-44.8951
 20
11.6346
 30
0.0
 10
-44.8951
 20
11.6346
 30
0.0
  0
SPLINE
  5
5A
330
1F
100
AcDbEntity
  8
DEFAULT_1
 62
   250
100
AcDbSpline
210
0.0
220
0.0
230
1.0
 70
    11
 71
     3
 72
    16
 73
    12
 74
     0
 42
0.0000000001
 43
0.0000000001
 40
0.0
 40
0.0
 40
0.0
 40
0.0
 40
0.25
 40
0.25
 40
0.25
 40
0.25
 40
0.5
 40
0.5
 40
0.5
 40
0.5
 40
1.0
 40
1.0
 40
1.0
 40
1.0
 10
-45.6063
 20
11.6346
 30
0.0
 10
-45.6063
 20
11.6346
 30
0.0
 10
-46.5169
 20
11.6346
 30
0.0
 10
-46.5169
 20
11.6346
 30
0.0
 10
-46.5169
 20
11.6346
 30
0.0
 10
-46.5169
 20
11.6346
 30
0.0
 10
-45.6063
 20
11.0025
 30
0.0
 10
-45.6063
 20
11.0025
 30
0.0
 10
-45.6063
 20
11.0025
 30
0.0
 10
-45.6063
 20
11.0025
 30
0.0
 10
-45.6063
 20
11.6346
 30
0.0
 10
-45.6063
 20
11.6346
 30
0.0
  0
SPLINE
  5
5B
330
1F
100
AcDbEntity
  8
DEFAULT_1
 62
   250
100
AcDbSpline
210
0.0
220
0.0
230
1.0
 70
    11
 71
     3
 72
    52
 73
    48
 74
     0
 42
0.0000000001
 43
0.0000000001
 40
0.0
 40
0.0
 40
0.0
 40
0.0
 40
0.0769230769230769
 40
0.0769230769230769
 40
0.0769230769230769
 40
0.0769230769230769
 40
0.1538461538461539
 40
0.1538461538461539
 40
0.1538461538461539
 40
0.1538461538461539
 40
0.2307692307692308
 40
0.2307692307692308
 40
0.2307692307692308
 40
0.2307692307692308
 40
0.3076923076923077
 40
0.3076923076923077
 40
0.3076923076923077
 40
0.3076923076923077
 40
0.3846153846153846
 40
0.3846153846153846
 40
0.3846153846153846
 40
0.3846153846153846
 40
0.4615384615384616
 40
0.4615384615384616
 40
0.4615384615384616
 40
0.4615384615384616
 40
0.5384615384615384
 40
0.5384615384615384
 40
0.5384615384615384
 40
0.5384615384615384
 40
0.6153846153846154
 40
0.6153846153846154
 40
0.6153846153846154
 40
0.6153846153846154
 40
0.6923076923076923
 40
0.6923076923076923
 40
0.6923076923076923
 40
0.6923076923076923
 40
0.7692307692307693
 40
0.7692307692307693
 40
0.7692307692307693
 40
0.7692307692307693
 40
0.8461538461538461
 40
0.8461538461538461
 40
0.8461538461538461
 40
0.8461538461538461
 40
1.0
 40
1.0
 40
1.0
 40
1.0
 10
-45.8913
 20
12.4093
 30
0.0
 10
-46.1303
 20
12.4093
 30
0.0
 10
-46.3227
 20
12.4338
 30
0.0
 10
-46.468
 20
12.4832
 30
0.0
 10
-46.468
 20
12.4832
 30
0.0
 10
-46.6138
 20
12.5321
 30
0.0
 10
-46.7262
 20
12.6055
 30
0.0
 10
-46.8053
 20
12.7024
 30
0.0
 10
-46.8053
 20
12.7024
 30
0.0
 10
-46.8843
 20
12.7993
 30
0.0
 10
-46.9238
 20
12.9211
 30
0.0
 10
-46.9238
 20
13.0678
 30
0.0
 10
-46.9238
 20
13.0678
 30
0.0
 10
-46.9238
 20
13.1765
 30
0.0
 10
-46.9017
 20
13.2715
 30
0.0
 10
-46.8579
 20
13.3533
 30
0.0
 10
-46.8579
 20
13.3533
 30
0.0
 10
-46.8147
 20
13.4352
 30
0.0
 10
-46.7516
 20
13.5025
 30
0.0
 10
-46.6693
 20
13.5561
 30
0.0
 10
-46.6693
 20
13.5561
 30
0.0
 10
-46.587
 20
13.6092
 30
0.0
 10
-46.4868
 20
13.6511
 30
0.0
 10
-46.3688
 20
13.6812
 30
0.0
 10
-46.3688
 20
13.6812
 30
0.0
 10
-46.2507
 20
13.7118
 30
0.0
 10
-46.0917
 20
13.7268
 30
0.0
 10
-45.8913
 20
13.7268
 30
0.0
 10
-45.8913
 20
13.7268
 30
0.0
 10
-45.6543
 20
13.7268
 30
0.0
 10
-45.4633
 20
13.7024
 30
0.0
 10
-45.3175
 20
13.6539
 30
0.0
 10
-45.3175
 20
13.6539
 30
0.0
 10
-45.1717
 20
13.605
 30
0.0
 10
-45.0593
 20
13.5321
 30
0.0
 10
-44.9798
 20
13.4352
 30
0.0
 10
-44.9798
 20
13.4352
 30
0.0
 10
-44.9003
 20
13.3383
 30
0.0
 10
-44.8608
 20
13.216
 30
0.0
 10
-44.8608
 20
13.0678
 30
0.0
 10
-44.8608
 20
13.0678
 30
0.0
 10
-44.8608
 20
12.8731
 30
0.0
 10
-44.9304
 20
12.7202
 30
0.0
 10
-45.0701
 20
12.6092
 30
0.0
 10
-45.0701
 20
12.6092
 30
0.0
 10
-45.238
 20
12.4761
 30
0.0
 10
-45.5122
 20
12.4093
 30
0.0
 10
-45.8913
 20
12.4093
 30
0.0
  0
SPLINE
  5
5C
330
1F
100
AcDbEntity
  8
DEFAULT_1
 62
   250
100
AcDbSpline
210
0.0
220
0.0
230
1.0
 70
    11
 71
     3
 72
    36
 73
    32
 74
     0
 42
0.0000000001
 43
0.0000000001
 40
0.0
 40
0.0
 40
0.0
 40
0.0
 40
0.1111111111111111
 40
0.1111111111111111
 40
0.1111111111111111
 40
0.1111111111111111
 40
0.2222222222222222
 40
0.2222222222222222
 40
0.2222222222222222
 40
0.2222222222222222
 40
0.3333333333333333
 40
0.3333333333333333
 40
0.3333333333333333
 40
0.3333333333333333
 40
0.4444444444444444
 40
0.4444444444444444
 40
0.4444444444444444
 40
0.4444444444444444
 40
0.5555555555555556
 40
0.5555555555555556
 40
0.5555555555555556
 40
0.5555555555555556
 40
0.6666666666666666
 40
0.6666666666666666
 40
0.6666666666666666
 40
0.6666666666666666
 40
0.7777777777777778
 40
0.7777777777777778
 40
0.7777777777777778
 40
0.7777777777777778
 40
1.0
 40
1.0
 40
1.0
 40
1.0
 10
-45.8913
 20
12.6643
 30
0.0
 10
-45.5597
 20
12.6643
 30
0.0
 10
-45.3391
 20
12.7033
 30
0.0
 10
-45.2291
 20
12.7809
 30
0.0
 10
-45.2291
 20
12.7809
 30
0.0
 10
-45.1195
 20
12.8585
 30
0.0
 10
-45.0644
 20
12.954
 30
0.0
 10
-45.0644
 20
13.0678
 30
0.0
 10
-45.0644
 20
13.0678
 30
0.0
 10
-45.0644
 20
13.1821
 30
0.0
 10
-45.1199
 20
13.2776
 30
0.0
 10
-45.23
 20
13.3552
 30
0.0
 10
-45.23
 20
13.3552
 30
0.0
 10
-45.3401
 20
13.4328
 30
0.0
 10
-45.5607
 20
13.4719
 30
0.0
 10
-45.8913
 20
13.4719
 30
0.0
 10
-45.8913
 20
13.4719
 30
0.0
 10
-46.2239
 20
13.4719
 30
0.0
 10
-46.445
 20
13.4328
 30
0.0
 10
-46.5541
 20
13.3552
 30
0.0
 10
-46.5541
 20
13.3552
 30
0.0
 10
-46.6637
 20
13.2776
 30
0.0
 10
-46.7182
 20
13.1812
 30
0.0
 10
-46.7182
 20
13.0655
 30
0.0
 10
-46.7182
 20
13.0655
 30
0.0
 10
-46.7182
 20
12.9512
 30
0.0
 10
-46.6698
 20
12.8604
 30
0.0
 10
-46.5734
 20
12.7922
 30
0.0
 10
-46.5734
 20
12.7922
 30
0.0
 10
-46.4506
 20
12.7071
 30
0.0
 10
-46.2229
 20
12.6643
 30
0.0
 10
-45.8913
 20
12.6643
 30
0.0
  0
SPLINE
  5
5D
330
1F
100
AcDbEntity
  8
DEFAULT_1
 62
   250
100
AcDbSpline
210
0.0
220
0.0
230
1.0
 70
    24
 71
     3
 72
     8
 73
     4
 74
     0
 42
0.0000000001
 43
0.0000000001
 40
0.0
 40
0.0
 40
0.0
 40
0.0
 40
1.0
 40
1.0
 40
1.0
 40
1.0
 10
-36.4895
 20
28.1303
 30
0.0
 10
-36.4895
 20
28.1303
 30
0.0
 10
-44.878
 20
28.1303
 30
0.0
 10
-44.878
 20
28.1303
 30
0.0
  0
SPLINE
  5
5E
330
1F
100
AcDbEntity
  8
DEFAULT_1
 62
   250
100
AcDbSpline
210
0.0
220
0.0
230
1.0
 70
    24
 71
     3
 72
     8
 73
     4
 74
     0
 42
0.0000000001
 43
0.0000000001
 40
0.0
 40
0.0
 40
0.0
 40
0.0
 40
1.0
 40
1.0
 40
1.0
 40
1.0
 10
-44.3449
 20
26.4238
 30
0.0
 10
-44.3449
 20
26.4238
 30
0.0
 10
-44.3449
 20
-9.2166
 30
0.0
 10
-44.3449
 20
-9.2166
 30
0.0
  0
SPLINE
  5
5F
330
1F
100
AcDbEntity
  8
DEFAULT_1
 62
   250
100
AcDbSpline
210
0.0
220
0.0
230
1.0
 70
    11
 71
     3
 72
   116
 73
   112
 74
     0
 42
0.0000000001
 43
0.0000000001
 40
0.0
 40
0.0
 40
0.0
 40
0.0
 40
0.0344827586206897
 40
0.0344827586206897
 40
0.0344827586206897
 40
0.0344827586206897
 40
0.0689655172413793
 40
0.0689655172413793
 40
0.0689655172413793
 40
0.0689655172413793
 40
0.103448275862069
 40
0.103448275862069
 40
0.103448275862069
 40
0.103448275862069
 40
0.1379310344827586
 40
0.1379310344827586
 40
0.1379310344827586
 40
0.1379310344827586
 40
0.1724137931034483
 40
0.1724137931034483
 40
0.1724137931034483
 40
0.1724137931034483
 40
0.2068965517241379
 40
0.2068965517241379
 40
0.2068965517241379
 40
0.2068965517241379
 40
0.2413793103448276
 40
0.2413793103448276
 40
0.2413793103448276
 40
0.2413793103448276
 40
0.2758620689655172
 40
0.2758620689655172
 40
0.2758620689655172
 40
0.2758620689655172
 40
0.3103448275862069
 40
0.3103448275862069
 40
0.3103448275862069
 40
0.3103448275862069
 40
0.3448275862068966
 40
0.3448275862068966
 40
0.3448275862068966
 40
0.3448275862068966
 40
0.3793103448275862
 40
0.3793103448275862
 40
0.3793103448275862
 40
0.3793103448275862
 40
0.4137931034482759
 40
0.4137931034482759
 40
0.4137931034482759
 40
0.4137931034482759
 40
0.4482758620689655
 40
0.4482758620689655
 40
0.4482758620689655
 40
0.4482758620689655
 40
0.4827586206896552
 40
0.4827586206896552
 40
0.4827586206896552
 40
0.4827586206896552
 40
0.5172413793103449
 40
0.5172413793103449
 40
0.5172413793103449
 40
0.5172413793103449
 40
0.5517241379310345
 40
0.5517241379310345
 40
0.5517241379310345
 40
0.5517241379310345
 40
0.5862068965517241
 40
0.5862068965517241
 40
0.5862068965517241
 40
0.5862068965517241
 40
0.6206896551724138
 40
0.6206896551724138
 40
0.6206896551724138
 40
0.6206896551724138
 40
0.6551724137931034
 40
0.6551724137931034
 40
0.6551724137931034
 40
0.6551724137931034
 40
0.6896551724137931
 40
0.6896551724137931
 40
0.6896551724137931
 40
0.6896551724137931
 40
0.7241379310344828
 40
0.7241379310344828
 40
0.7241379310344828
 40
0.7241379310344828
 40
0.7586206896551724
 40
0.7586206896551724
 40
0.7586206896551724
 40
0.7586206896551724
 40
0.7931034482758621
 40
0.7931034482758621
 40
0.7931034482758621
 40
0.7931034482758621
 40
0.8275862068965517
 40
0.8275862068965517
 40
0.8275862068965517
 40
0.8275862068965517
 40
0.8620689655172413
 40
0.8620689655172413
 40
0.8620689655172413
 40
0.8620689655172413
 40
0.896551724137931
 40
0.896551724137931
 40
0.896551724137931
 40
0.896551724137931
 40
0.9310344827586207
 40
0.9310344827586207
 40
0.9310344827586207
 40
0.9310344827586207
 40
1.0
 40
1.0
 40
1.0
 40
1.0
 10
1.0151
 20
4.4688
 30
0.0
 10
1.0151
 20
4.4688
 30
0.0
 10
1.0151
 20
5.9321
 30
0.0
 10
1.0151
 20
5.9321
 30
0.0
 10
1.0151
 20
5.9321
 30
0.0
 10
1.0151
 20
5.9321
 30
0.0
 10
1.2366
 20
5.9321
 30
0.0
 10
1.2366
 20
5.9321
 30
0.0
 10
1.2366
 20
5.9321
 30
0.0
 10
1.2366
 20
5.9321
 30
0.0
 10
1.2366
 20
5.727
 30
0.0
 10
1.2366
 20
5.727
 30
0.0
 10
1.2366
 20
5.727
 30
0.0
 10
1.2827
 20
5.7985
 30
0.0
 10
1.3439
 20
5.8564
 30
0.0
 10
1.4201
 20
5.8997
 30
0.0
 10
1.4201
 20
5.8997
 30
0.0
 10
1.4963
 20
5.9434
 30
0.0
 10
1.5833
 20
5.9655
 30
0.0
 10
1.6806
 20
5.9655
 30
0.0
 10
1.6806
 20
5.9655
 30
0.0
 10
1.7888
 20
5.9655
 30
0.0
 10
1.8777
 20
5.9429
 30
0.0
 10
1.9469
 20
5.8978
 30
0.0
 10
1.9469
 20
5.8978
 30
0.0
 10
2.0165
 20
5.8526
 30
0.0
 10
2.0654
 20
5.7901
 30
0.0
 10
2.0936
 20
5.7092
 30
0.0
 10
2.0936
 20
5.7092
 30
0.0
 10
2.2098
 20
5.8799
 30
0.0
 10
2.3603
 20
5.9655
 30
0.0
 10
2.5456
 20
5.9655
 30
0.0
 10
2.5456
 20
5.9655
 30
0.0
 10
2.691
 20
5.9655
 30
0.0
 10
2.8025
 20
5.9251
 30
0.0
 10
2.8805
 20
5.8446
 30
0.0
 10
2.8805
 20
5.8446
 30
0.0
 10
2.9586
 20
5.7642
 30
0.0
 10
2.9977
 20
5.6405
 30
0.0
 10
2.9977
 20
5.4735
 30
0.0
 10
2.9977
 20
5.4735
 30
0.0
 10
2.9977
 20
5.4735
 30
0.0
 10
2.9977
 20
4.4688
 30
0.0
 10
2.9977
 20
4.4688
 30
0.0
 10
2.9977
 20
4.4688
 30
0.0
 10
2.9977
 20
4.4688
 30
0.0
 10
2.7512
 20
4.4688
 30
0.0
 10
2.7512
 20
4.4688
 30
0.0
 10
2.7512
 20
4.4688
 30
0.0
 10
2.7512
 20
4.4688
 30
0.0
 10
2.7512
 20
5.3907
 30
0.0
 10
2.7512
 20
5.3907
 30
0.0
 10
2.7512
 20
5.3907
 30
0.0
 10
2.7512
 20
5.49
 30
0.0
 10
2.7432
 20
5.5615
 30
0.0
 10
2.7272
 20
5.6052
 30
0.0
 10
2.7272
 20
5.6052
 30
0.0
 10
2.7107
 20
5.6485
 30
0.0
 10
2.6816
 20
5.6838
 30
0.0
 10
2.6397
 20
5.7106
 30
0.0
 10
2.6397
 20
5.7106
 30
0.0
 10
2.5974
 20
5.7369
 30
0.0
 10
2.5475
 20
5.7505
 30
0.0
 10
2.4906
 20
5.7505
 30
0.0
 10
2.4906
 20
5.7505
 30
0.0
 10
2.3876
 20
5.7505
 30
0.0
 10
2.3025
 20
5.7162
 30
0.0
 10
2.2343
 20
5.6475
 30
0.0
 10
2.2343
 20
5.6475
 30
0.0
 10
2.1665
 20
5.5793
 30
0.0
 10
2.1322
 20
5.4697
 30
0.0
 10
2.1322
 20
5.3192
 30
0.0
 10
2.1322
 20
5.3192
 30
0.0
 10
2.1322
 20
5.3192
 30
0.0
 10
2.1322
 20
4.4688
 30
0.0
 10
2.1322
 20
4.4688
 30
0.0
 10
2.1322
 20
4.4688
 30
0.0
 10
2.1322
 20
4.4688
 30
0.0
 10
1.8843
 20
4.4688
 30
0.0
 10
1.8843
 20
4.4688
 30
0.0
 10
1.8843
 20
4.4688
 30
0.0
 10
1.8843
 20
4.4688
 30
0.0
 10
1.8843
 20
5.4194
 30
0.0
 10
1.8843
 20
5.4194
 30
0.0
 10
1.8843
 20
5.4194
 30
0.0
 10
1.8843
 20
5.5299
 30
0.0
 10
1.8641
 20
5.6127
 30
0.0
 10
1.8236
 20
5.6678
 30
0.0
 10
1.8236
 20
5.6678
 30
0.0
 10
1.7832
 20
5.7228
 30
0.0
 10
1.7173
 20
5.7505
 30
0.0
 10
1.6251
 20
5.7505
 30
0.0
 10
1.6251
 20
5.7505
 30
0.0
 10
1.5555
 20
5.7505
 30
0.0
 10
1.4911
 20
5.7322
 30
0.0
 10
1.4318
 20
5.695
 30
0.0
 10
1.4318
 20
5.695
 30
0.0
 10
1.3725
 20
5.6584
 30
0.0
 10
1.3293
 20
5.6047
 30
0.0
 10
1.3029
 20
5.5342
 30
0.0
 10
1.3029
 20
5.5342
 30
0.0
 10
1.2761
 20
5.4632
 30
0.0
 10
1.2629
 20
5.3611
 30
0.0
 10
1.2629
 20
5.228
 30
0.0
 10
1.2629
 20
5.228
 30
0.0
 10
1.2629
 20
5.228
 30
0.0
 10
1.2629
 20
4.4688
 30
0.0
 10
1.2629
 20
4.4688
 30
0.0
 10
1.2629
 20
4.4688
 30
0.0
 10
1.2629
 20
4.4688
 30
0.0
 10
1.0151
 20
4.4688
 30
0.0
 10
1.0151
 20
4.4688
 30
0.0
  0
SPLINE
  5
60
330
1F
100
AcDbEntity
  8
DEFAULT_1
 62
   250
100
AcDbSpline
210
0.0
220
0.0
230
1.0
 70
    11
 71
     3
 72
   112
 73
   108
 74
     0
 42
0.0000000001
 43
0.0000000001
 40
0.0
 40
0.0
 40
0.0
 40
0.0
 40
0.0357142857142857
 40
0.0357142857142857
 40
0.0357142857142857
 40
0.0357142857142857
 40
0.0714285714285714
 40
0.0714285714285714
 40
0.0714285714285714
 40
0.0714285714285714
 40
0.1071428571428571
 40
0.1071428571428571
 40
0.1071428571428571
 40
0.1071428571428571
 40
0.1428571428571428
 40
0.1428571428571428
 40
0.1428571428571428
 40
0.1428571428571428
 40
0.1785714285714286
 40
0.1785714285714286
 40
0.1785714285714286
 40
0.1785714285714286
 40
0.2142857142857143
 40
0.2142857142857143
 40
0.2142857142857143
 40
0.2142857142857143
 40
0.25
 40
0.25
 40
0.25
 40
0.25
 40
0.2857142857142857
 40
0.2857142857142857
 40
0.2857142857142857
 40
0.2857142857142857
 40
0.3214285714285715
 40
0.3214285714285715
 40
0.3214285714285715
 40
0.3214285714285715
 40
0.3571428571428572
 40
0.3571428571428572
 40
0.3571428571428572
 40
0.3571428571428572
 40
0.3928571428571428
 40
0.3928571428571428
 40
0.3928571428571428
 40
0.3928571428571428
 40
0.4285714285714285
 40
0.4285714285714285
 40
0.4285714285714285
 40
0.4285714285714285
 40
0.4642857142857143
 40
0.4642857142857143
 40
0.4642857142857143
 40
0.4642857142857143
 40
0.5
 40
0.5
 40
0.5
 40
0.5
 40
0.5357142857142857
 40
0.5357142857142857
 40
0.5357142857142857
 40
0.5357142857142857
 40
0.5714285714285714
 40
0.5714285714285714
 40
0.5714285714285714
 40
0.5714285714285714
 40
0.6071428571428571
 40
0.6071428571428571
 40
0.6071428571428571
 40
0.6071428571428571
 40
0.6428571428571429
 40
0.6428571428571429
 40
0.6428571428571429
 40
0.6428571428571429
 40
0.6785714285714286
 40
0.6785714285714286
 40
0.6785714285714286
 40
0.6785714285714286
 40
0.7142857142857143
 40
0.7142857142857143
 40
0.7142857142857143
 40
0.7142857142857143
 40
0.75
 40
0.75
 40
0.75
 40
0.75
 40
0.7857142857142857
 40
0.7857142857142857
 40
0.7857142857142857
 40
0.7857142857142857
 40
0.8214285714285714
 40
0.8214285714285714
 40
0.8214285714285714
 40
0.8214285714285714
 40
0.8571428571428571
 40
0.8571428571428571
 40
0.8571428571428571
 40
0.8571428571428571
 40
0.8928571428571429
 40
0.8928571428571429
 40
0.8928571428571429
 40
0.8928571428571429
 40
0.9285714285714286
 40
0.9285714285714286
 40
0.9285714285714286
 40
0.9285714285714286
 40
1.0
 40
1.0
 40
1.0
 40
1.0
 10
4.3208
 20
4.6494
 30
0.0
 10
4.2286
 20
4.5713
 30
0.0
 10
4.1402
 20
4.5163
 30
0.0
 10
4.0555
 20
4.4839
 30
0.0
 10
4.0555
 20
4.4839
 30
0.0
 10
3.9704
 20
4.4519
 30
0.0
 10
3.8791
 20
4.4359
 30
0.0
 10
3.7818
 20
4.4359
 30
0.0
 10
3.7818
 20
4.4359
 30
0.0
 10
3.6209
 20
4.4359
 30
0.0
 10
3.4977
 20
4.4749
 30
0.0
 10
3.4111
 20
4.5535
 30
0.0
 10
3.4111
 20
4.5535
 30
0.0
 10
3.325
 20
4.632
 30
0.0
 10
3.2818
 20
4.7327
 30
0.0
 10
3.2818
 20
4.8545
 30
0.0
 10
3.2818
 20
4.8545
 30
0.0
 10
3.2818
 20
4.9265
 30
0.0
 10
3.2978
 20
4.9918
 30
0.0
 10
3.3307
 20
5.0511
 30
0.0
 10
3.3307
 20
5.0511
 30
0.0
 10
3.3631
 20
5.1104
 30
0.0
 10
3.4059
 20
5.1579
 30
0.0
 10
3.4586
 20
5.1936
 30
0.0
 10
3.4586
 20
5.1936
 30
0.0
 10
3.5118
 20
5.2294
 30
0.0
 10
3.571
 20
5.2567
 30
0.0
 10
3.6374
 20
5.275
 30
0.0
 10
3.6374
 20
5.275
 30
0.0
 10
3.6858
 20
5.2877
 30
0.0
 10
3.7592
 20
5.3004
 30
0.0
 10
3.8575
 20
5.3122
 30
0.0
 10
3.8575
 20
5.3122
 30
0.0
 10
4.0579
 20
5.3362
 30
0.0
 10
4.2056
 20
5.3644
 30
0.0
 10
4.3001
 20
5.3978
 30
0.0
 10
4.3001
 20
5.3978
 30
0.0
 10
4.3011
 20
5.4316
 30
0.0
 10
4.3015
 20
5.4533
 30
0.0
 10
4.3015
 20
5.4622
 30
0.0
 10
4.3015
 20
5.4622
 30
0.0
 10
4.3015
 20
5.5633
 30
0.0
 10
4.278
 20
5.6348
 30
0.0
 10
4.231
 20
5.6758
 30
0.0
 10
4.231
 20
5.6758
 30
0.0
 10
4.1679
 20
5.7322
 30
0.0
 10
4.0734
 20
5.76
 30
0.0
 10
3.9487
 20
5.76
 30
0.0
 10
3.9487
 20
5.76
 30
0.0
 10
3.8321
 20
5.76
 30
0.0
 10
3.746
 20
5.7397
 30
0.0
 10
3.69
 20
5.6988
 30
0.0
 10
3.69
 20
5.6988
 30
0.0
 10
3.6345
 20
5.6579
 30
0.0
 10
3.5936
 20
5.5855
 30
0.0
 10
3.5668
 20
5.4815
 30
0.0
 10
3.5668
 20
5.4815
 30
0.0
 10
3.5668
 20
5.4815
 30
0.0
 10
3.3246
 20
5.5149
 30
0.0
 10
3.3246
 20
5.5149
 30
0.0
 10
3.3246
 20
5.5149
 30
0.0
 10
3.3467
 20
5.6184
 30
0.0
 10
3.3829
 20
5.7026
 30
0.0
 10
3.4332
 20
5.7661
 30
0.0
 10
3.4332
 20
5.7661
 30
0.0
 10
3.4836
 20
5.83
 30
0.0
 10
3.5569
 20
5.8794
 30
0.0
 10
3.6524
 20
5.9138
 30
0.0
 10
3.6524
 20
5.9138
 30
0.0
 10
3.7479
 20
5.9481
 30
0.0
 10
3.8584
 20
5.9655
 30
0.0
 10
3.9845
 20
5.9655
 30
0.0
 10
3.9845
 20
5.9655
 30
0.0
 10
4.1096
 20
5.9655
 30
0.0
 10
4.2107
 20
5.9505
 30
0.0
 10
4.2888
 20
5.9213
 30
0.0
 10
4.2888
 20
5.9213
 30
0.0
 10
4.3669
 20
5.8917
 30
0.0
 10
4.4243
 20
5.855
 30
0.0
 10
4.4614
 20
5.8103
 30
0.0
 10
4.4614
 20
5.8103
 30
0.0
 10
4.4981
 20
5.7656
 30
0.0
 10
4.5235
 20
5.7096
 30
0.0
 10
4.5386
 20
5.6414
 30
0.0
 10
4.5386
 20
5.6414
 30
0.0
 10
4.5466
 20
5.5991
 30
0.0
 10
4.5508
 20
5.5229
 30
0.0
 10
4.5508
 20
5.4128
 30
0.0
 10
4.5508
 20
5.4128
 30
0.0
 10
4.5508
 20
5.4128
 30
0.0
 10
4.5508
 20
5.0822
 30
0.0
 10
4.5508
 20
5.0822
 30
0.0
 10
4.5508
 20
5.0822
 30
0.0
 10
4.5508
 20
4.8512
 30
0.0
 10
4.556
 20
4.7054
 30
0.0
 10
4.5668
 20
4.6447
 30
0.0
 10
4.5668
 20
4.6447
 30
0.0
 10
4.5772
 20
4.5836
 30
0.0
 10
4.5983
 20
4.5248
 30
0.0
 10
4.6294
 20
4.4688
 30
0.0
 10
4.6294
 20
4.4688
 30
0.0
 10
4.6294
 20
4.4688
 30
0.0
 10
4.3702
 20
4.4688
 30
0.0
 10
4.3702
 20
4.4688
 30
0.0
 10
4.3702
 20
4.4688
 30
0.0
 10
4.3448
 20
4.5201
 30
0.0
 10
4.3279
 20
4.5803
 30
0.0
 10
4.3208
 20
4.6494
 30
0.0
  0
SPLINE
  5
61
330
1F
100
AcDbEntity
  8
DEFAULT_1
 62
   250
100
AcDbSpline
210
0.0
220
0.0
230
1.0
 70
    11
 71
     3
 72
    44
 73
    40
 74
     0
 42
0.0000000001
 43
0.0000000001
 40
0.0
 40
0.0
 40
0.0
 40
0.0
 40
0.0909090909090909
 40
0.0909090909090909
 40
0.0909090909090909
 40
0.0909090909090909
 40
0.1818181818181818
 40
0.1818181818181818
 40
0.1818181818181818
 40
0.1818181818181818
 40
0.2727272727272727
 40
0.2727272727272727
 40
0.2727272727272727
 40
0.2727272727272727
 40
0.3636363636363636
 40
0.3636363636363636
 40
0.3636363636363636
 40
0.3636363636363636
 40
0.4545454545454545
 40
0.4545454545454545
 40
0.4545454545454545
 40
0.4545454545454545
 40
0.5454545454545454
 40
0.5454545454545454
 40
0.5454545454545454
 40
0.5454545454545454
 40
0.6363636363636364
 40
0.6363636363636364
 40
0.6363636363636364
 40
0.6363636363636364
 40
0.7272727272727273
 40
0.7272727272727273
 40
0.7272727272727273
 40
0.7272727272727273
 40
0.8181818181818182
 40
0.8181818181818182
 40
0.8181818181818182
 40
0.8181818181818182
 40
1.0
 40
1.0
 40
1.0
 40
1.0
 10
4.3001
 20
5.2035
 30
0.0
 10
4.2098
 20
5.1664
 30
0.0
 10
4.0748
 20
5.1353
 30
0.0
 10
3.8951
 20
5.1094
 30
0.0
 10
3.8951
 20
5.1094
 30
0.0
 10
3.7931
 20
5.0949
 30
0.0
 10
3.7206
 20
5.0784
 30
0.0
 10
3.6788
 20
5.0601
 30
0.0
 10
3.6788
 20
5.0601
 30
0.0
 10
3.6364
 20
5.0417
 30
0.0
 10
3.6035
 20
5.0149
 30
0.0
 10
3.5809
 20
4.9791
 30
0.0
 10
3.5809
 20
4.9791
 30
0.0
 10
3.5579
 20
4.9439
 30
0.0
 10
3.5461
 20
4.9048
 30
0.0
 10
3.5461
 20
4.8616
 30
0.0
 10
3.5461
 20
4.8616
 30
0.0
 10
3.5461
 20
4.7952
 30
0.0
 10
3.5715
 20
4.7402
 30
0.0
 10
3.6214
 20
4.696
 30
0.0
 10
3.6214
 20
4.696
 30
0.0
 10
3.6712
 20
4.6522
 30
0.0
 10
3.7446
 20
4.6301
 30
0.0
 10
3.841
 20
4.6301
 30
0.0
 10
3.841
 20
4.6301
 30
0.0
 10
3.9365
 20
4.6301
 30
0.0
 10
4.0217
 20
4.6508
 30
0.0
 10
4.096
 20
4.6927
 30
0.0
 10
4.096
 20
4.6927
 30
0.0
 10
4.1703
 20
4.7346
 30
0.0
 10
4.2253
 20
4.7919
 30
0.0
 10
4.2601
 20
4.8644
 30
0.0
 10
4.2601
 20
4.8644
 30
0.0
 10
4.2869
 20
4.9204
 30
0.0
 10
4.3001
 20
5.0031
 30
0.0
 10
4.3001
 20
5.1123
 30
0.0
 10
4.3001
 20
5.1123
 30
0.0
 10
4.3001
 20
5.1123
 30
0.0
 10
4.3001
 20
5.2035
 30
0.0
 10
4.3001
 20
5.2035
 30
0.0
  0
SPLINE
  5
62
330
1F
100
AcDbEntity
  8
DEFAULT_1
 62
   250
100
AcDbSpline
210
0.0
220
0.0
230
1.0
 70
    11
 71
     3
 72
    64
 73
    60
 74
     0
 42
0.0000000001
 43
0.0000000001
 40
0.0
 40
0.0
 40
0.0
 40
0.0
 40
0.0625
 40
0.0625
 40
0.0625
 40
0.0625
 40
0.125
 40
0.125
 40
0.125
 40
0.125
 40
0.1875
 40
0.1875
 40
0.1875
 40
0.1875
 40
0.25
 40
0.25
 40
0.25
 40
0.25
 40
0.3125
 40
0.3125
 40
0.3125
 40
0.3125
 40
0.375
 40
0.375
 40
0.375
 40
0.375
 40
0.4375
 40
0.4375
 40
0.4375
 40
0.4375
 40
0.5
 40
0.5
 40
0.5
 40
0.5
 40
0.5625
 40
0.5625
 40
0.5625
 40
0.5625
 40
0.625
 40
0.625
 40
0.625
 40
0.625
 40
0.6875
 40
0.6875
 40
0.6875
 40
0.6875
 40
0.75
 40
0.75
 40
0.75
 40
0.75
 40
0.8125
 40
0.8125
 40
0.8125
 40
0.8125
 40
0.875
 40
0.875
 40
0.875
 40
0.875
 40
1.0
 40
1.0
 40
1.0
 40
1.0
 10
4.77
 20
4.4688
 30
0.0
 10
4.77
 20
4.4688
 30
0.0
 10
5.3048
 20
5.2294
 30
0.0
 10
5.3048
 20
5.2294
 30
0.0
 10
5.3048
 20
5.2294
 30
0.0
 10
5.3048
 20
5.2294
 30
0.0
 10
4.81
 20
5.9321
 30
0.0
 10
4.81
 20
5.9321
 30
0.0
 10
4.81
 20
5.9321
 30
0.0
 10
4.81
 20
5.9321
 30
0.0
 10
5.1199
 20
5.9321
 30
0.0
 10
5.1199
 20
5.9321
 30
0.0
 10
5.1199
 20
5.9321
 30
0.0
 10
5.1199
 20
5.9321
 30
0.0
 10
5.3448
 20
5.5892
 30
0.0
 10
5.3448
 20
5.5892
 30
0.0
 10
5.3448
 20
5.5892
 30
0.0
 10
5.3866
 20
5.5238
 30
0.0
 10
5.421
 20
5.4693
 30
0.0
 10
5.4464
 20
5.4251
 30
0.0
 10
5.4464
 20
5.4251
 30
0.0
 10
5.4868
 20
5.4857
 30
0.0
 10
5.524
 20
5.5394
 30
0.0
 10
5.5583
 20
5.5864
 30
0.0
 10
5.5583
 20
5.5864
 30
0.0
 10
5.5583
 20
5.5864
 30
0.0
 10
5.8048
 20
5.9321
 30
0.0
 10
5.8048
 20
5.9321
 30
0.0
 10
5.8048
 20
5.9321
 30
0.0
 10
5.8048
 20
5.9321
 30
0.0
 10
6.1011
 20
5.9321
 30
0.0
 10
6.1011
 20
5.9321
 30
0.0
 10
6.1011
 20
5.9321
 30
0.0
 10
6.1011
 20
5.9321
 30
0.0
 10
5.5955
 20
5.243
 30
0.0
 10
5.5955
 20
5.243
 30
0.0
 10
5.5955
 20
5.243
 30
0.0
 10
5.5955
 20
5.243
 30
0.0
 10
6.1397
 20
4.4688
 30
0.0
 10
6.1397
 20
4.4688
 30
0.0
 10
6.1397
 20
4.4688
 30
0.0
 10
6.1397
 20
4.4688
 30
0.0
 10
5.8354
 20
4.4688
 30
0.0
 10
5.8354
 20
4.4688
 30
0.0
 10
5.8354
 20
4.4688
 30
0.0
 10
5.8354
 20
4.4688
 30
0.0
 10
5.5348
 20
4.9236
 30
0.0
 10
5.5348
 20
4.9236
 30
0.0
 10
5.5348
 20
4.9236
 30
0.0
 10
5.5348
 20
4.9236
 30
0.0
 10
5.4549
 20
5.0464
 30
0.0
 10
5.4549
 20
5.0464
 30
0.0
 10
5.4549
 20
5.0464
 30
0.0
 10
5.4549
 20
5.0464
 30
0.0
 10
5.0706
 20
4.4688
 30
0.0
 10
5.0706
 20
4.4688
 30
0.0
 10
5.0706
 20
4.4688
 30
0.0
 10
5.0706
 20
4.4688
 30
0.0
 10
4.77
 20
4.4688
 30
0.0
 10
4.77
 20
4.4688
 30
0.0
  0
SPLINE
  5
63
330
1F
100
AcDbEntity
  8
DEFAULT_1
 62
   250
100
AcDbSpline
210
0.0
220
0.0
230
1.0
 70
    11
 71
     3
 72
   124
 73
   120
 74
     0
 42
0.0000000001
 43
0.0000000001
 40
0.0
 40
0.0
 40
0.0
 40
0.0
 40
0.032258064516129
 40
0.032258064516129
 40
0.032258064516129
 40
0.032258064516129
 40
0.0645161290322581
 40
0.0645161290322581
 40
0.0645161290322581
 40
0.0645161290322581
 40
0.0967741935483871
 40
0.0967741935483871
 40
0.0967741935483871
 40
0.0967741935483871
 40
0.1290322580645161
 40
0.1290322580645161
 40
0.1290322580645161
 40
0.1290322580645161
 40
0.1612903225806452
 40
0.1612903225806452
 40
0.1612903225806452
 40
0.1612903225806452
 40
0.1935483870967742
 40
0.1935483870967742
 40
0.1935483870967742
 40
0.1935483870967742
 40
0.2258064516129032
 40
0.2258064516129032
 40
0.2258064516129032
 40
0.2258064516129032
 40
0.2580645161290323
 40
0.2580645161290323
 40
0.2580645161290323
 40
0.2580645161290323
 40
0.2903225806451613
 40
0.2903225806451613
 40
0.2903225806451613
 40
0.2903225806451613
 40
0.3225806451612903
 40
0.3225806451612903
 40
0.3225806451612903
 40
0.3225806451612903
 40
0.3548387096774194
 40
0.3548387096774194
 40
0.3548387096774194
 40
0.3548387096774194
 40
0.3870967741935484
 40
0.3870967741935484
 40
0.3870967741935484
 40
0.3870967741935484
 40
0.4193548387096774
 40
0.4193548387096774
 40
0.4193548387096774
 40
0.4193548387096774
 40
0.4516129032258064
 40
0.4516129032258064
 40
0.4516129032258064
 40
0.4516129032258064
 40
0.4838709677419355
 40
0.4838709677419355
 40
0.4838709677419355
 40
0.4838709677419355
 40
0.5161290322580645
 40
0.5161290322580645
 40
0.5161290322580645
 40
0.5161290322580645
 40
0.5483870967741935
 40
0.5483870967741935
 40
0.5483870967741935
 40
0.5483870967741935
 40
0.5806451612903226
 40
0.5806451612903226
 40
0.5806451612903226
 40
0.5806451612903226
 40
0.6129032258064516
 40
0.6129032258064516
 40
0.6129032258064516
 40
0.6129032258064516
 40
0.6451612903225806
 40
0.6451612903225806
 40
0.6451612903225806
 40
0.6451612903225806
 40
0.6774193548387096
 40
0.6774193548387096
 40
0.6774193548387096
 40
0.6774193548387096
 40
0.7096774193548387
 40
0.7096774193548387
 40
0.7096774193548387
 40
0.7096774193548387
 40
0.7419354838709677
 40
0.7419354838709677
 40
0.7419354838709677
 40
0.7419354838709677
 40
0.7741935483870968
 40
0.7741935483870968
 40
0.7741935483870968
 40
0.7741935483870968
 40
0.8064516129032258
 40
0.8064516129032258
 40
0.8064516129032258
 40
0.8064516129032258
 40
0.8387096774193549
 40
0.8387096774193549
 40
0.8387096774193549
 40
0.8387096774193549
 40
0.8709677419354839
 40
0.8709677419354839
 40
0.8709677419354839
 40
0.8709677419354839
 40
0.9032258064516129
 40
0.9032258064516129
 40
0.9032258064516129
 40
0.9032258064516129
 40
0.9354838709677419
 40
0.9354838709677419
 40
0.9354838709677419
 40
0.9354838709677419
 40
1.0
 40
1.0
 40
1.0
 40
1.0
 10
7.063
 20
5.0022
 30
0.0
 10
7.063
 20
5.0022
 30
0.0
 10
7.3109
 20
5.0351
 30
0.0
 10
7.3109
 20
5.0351
 30
0.0
 10
7.3109
 20
5.0351
 30
0.0
 10
7.3396
 20
4.8945
 30
0.0
 10
7.3881
 20
4.7934
 30
0.0
 10
7.4563
 20
4.7313
 30
0.0
 10
7.4563
 20
4.7313
 30
0.0
 10
7.5249
 20
4.6692
 30
0.0
 10
7.6082
 20
4.6381
 30
0.0
 10
7.7065
 20
4.6381
 30
0.0
 10
7.7065
 20
4.6381
 30
0.0
 10
7.8231
 20
4.6381
 30
0.0
 10
7.9219
 20
4.6786
 30
0.0
 10
8.0024
 20
4.7595
 30
0.0
 10
8.0024
 20
4.7595
 30
0.0
 10
8.0823
 20
4.8404
 30
0.0
 10
8.1228
 20
4.9406
 30
0.0
 10
8.1228
 20
5.0601
 30
0.0
 10
8.1228
 20
5.0601
 30
0.0
 10
8.1228
 20
5.1739
 30
0.0
 10
8.0856
 20
5.268
 30
0.0
 10
8.0113
 20
5.3418
 30
0.0
 10
8.0113
 20
5.3418
 30
0.0
 10
7.9365
 20
5.4156
 30
0.0
 10
7.842
 20
5.4528
 30
0.0
 10
7.7272
 20
5.4528
 30
0.0
 10
7.7272
 20
5.4528
 30
0.0
 10
7.6802
 20
5.4528
 30
0.0
 10
7.6218
 20
5.4434
 30
0.0
 10
7.5522
 20
5.4251
 30
0.0
 10
7.5522
 20
5.4251
 30
0.0
 10
7.5522
 20
5.4251
 30
0.0
 10
7.58
 20
5.6428
 30
0.0
 10
7.58
 20
5.6428
 30
0.0
 10
7.58
 20
5.6428
 30
0.0
 10
7.5964
 20
5.641
 30
0.0
 10
7.6096
 20
5.64
 30
0.0
 10
7.6199
 20
5.64
 30
0.0
 10
7.6199
 20
5.64
 30
0.0
 10
7.7253
 20
5.64
 30
0.0
 10
7.8203
 20
5.6678
 30
0.0
 10
7.905
 20
5.7228
 30
0.0
 10
7.905
 20
5.7228
 30
0.0
 10
7.9897
 20
5.7778
 30
0.0
 10
8.032
 20
5.863
 30
0.0
 10
8.032
 20
5.9777
 30
0.0
 10
8.032
 20
5.9777
 30
0.0
 10
8.032
 20
6.0685
 30
0.0
 10
8.0009
 20
6.1442
 30
0.0
 10
7.9393
 20
6.2035
 30
0.0
 10
7.9393
 20
6.2035
 30
0.0
 10
7.8777
 20
6.2632
 30
0.0
 10
7.7982
 20
6.2934
 30
0.0
 10
7.7008
 20
6.2934
 30
0.0
 10
7.7008
 20
6.2934
 30
0.0
 10
7.6044
 20
6.2934
 30
0.0
 10
7.524
 20
6.2628
 30
0.0
 10
7.46
 20
6.2026
 30
0.0
 10
7.46
 20
6.2026
 30
0.0
 10
7.3956
 20
6.1419
 30
0.0
 10
7.3542
 20
6.0506
 30
0.0
 10
7.3358
 20
5.9293
 30
0.0
 10
7.3358
 20
5.9293
 30
0.0
 10
7.3358
 20
5.9293
 30
0.0
 10
7.088
 20
5.9735
 30
0.0
 10
7.088
 20
5.9735
 30
0.0
 10
7.088
 20
5.9735
 30
0.0
 10
7.1181
 20
6.14
 30
0.0
 10
7.1872
 20
6.2689
 30
0.0
 10
7.2945
 20
6.3601
 30
0.0
 10
7.2945
 20
6.3601
 30
0.0
 10
7.4022
 20
6.4514
 30
0.0
 10
7.5358
 20
6.4975
 30
0.0
 10
7.6957
 20
6.4975
 30
0.0
 10
7.6957
 20
6.4975
 30
0.0
 10
7.8057
 20
6.4975
 30
0.0
 10
7.9073
 20
6.4735
 30
0.0
 10
8.0
 20
6.4265
 30
0.0
 10
8.0
 20
6.4265
 30
0.0
 10
8.0927
 20
6.379
 30
0.0
 10
8.1637
 20
6.3145
 30
0.0
 10
8.2131
 20
6.2327
 30
0.0
 10
8.2131
 20
6.2327
 30
0.0
 10
8.262
 20
6.1508
 30
0.0
 10
8.2869
 20
6.0643
 30
0.0
 10
8.2869
 20
5.9721
 30
0.0
 10
8.2869
 20
5.9721
 30
0.0
 10
8.2869
 20
5.8851
 30
0.0
 10
8.2634
 20
5.8056
 30
0.0
 10
8.2164
 20
5.7336
 30
0.0
 10
8.2164
 20
5.7336
 30
0.0
 10
8.1693
 20
5.6621
 30
0.0
 10
8.1002
 20
5.6052
 30
0.0
 10
8.0085
 20
5.5629
 30
0.0
 10
8.0085
 20
5.5629
 30
0.0
 10
8.1279
 20
5.5356
 30
0.0
 10
8.2206
 20
5.4782
 30
0.0
 10
8.2869
 20
5.3912
 30
0.0
 10
8.2869
 20
5.3912
 30
0.0
 10
8.3528
 20
5.3046
 30
0.0
 10
8.3857
 20
5.196
 30
0.0
 10
8.3857
 20
5.0657
 30
0.0
 10
8.3857
 20
5.0657
 30
0.0
 10
8.3857
 20
4.8893
 30
0.0
 10
8.3217
 20
4.7397
 30
0.0
 10
8.1929
 20
4.617
 30
0.0
 10
8.1929
 20
4.617
 30
0.0
 10
8.0644
 20
4.4942
 30
0.0
 10
7.9017
 20
4.4331
 30
0.0
 10
7.7051
 20
4.4331
 30
0.0
 10
7.7051
 20
4.4331
 30
0.0
 10
7.5278
 20
4.4331
 30
0.0
 10
7.3805
 20
4.4857
 30
0.0
 10
7.2634
 20
4.5916
 30
0.0
 10
7.2634
 20
4.5916
 30
0.0
 10
7.1463
 20
4.6969
 30
0.0
 10
7.0795
 20
4.8338
 30
0.0
 10
7.063
 20
5.0022
 30
0.0
  0
SPLINE
  5
64
330
1F
100
AcDbEntity
  8
DEFAULT_1
 62
   250
100
AcDbSpline
210
0.0
220
0.0
230
1.0
 70
    11
 71
     3
 72
    92
 73
    88
 74
     0
 42
0.0000000001
 43
0.0000000001
 40
0.0
 40
0.0
 40
0.0
 40
0.0
 40
0.0434782608695652
 40
0.0434782608695652
 40
0.0434782608695652
 40
0.0434782608695652
 40
0.0869565217391304
 40
0.0869565217391304
 40
0.0869565217391304
 40
0.0869565217391304
 40
0.1304347826086956
 40
0.1304347826086956
 40
0.1304347826086956
 40
0.1304347826086956
 40
0.1739130434782609
 40
0.1739130434782609
 40
0.1739130434782609
 40
0.1739130434782609
 40
0.2173913043478261
 40
0.2173913043478261
 40
0.2173913043478261
 40
0.2173913043478261
 40
0.2608695652173913
 40
0.2608695652173913
 40
0.2608695652173913
 40
0.2608695652173913
 40
0.3043478260869565
 40
0.3043478260869565
 40
0.3043478260869565
 40
0.3043478260869565
 40
0.3478260869565217
 40
0.3478260869565217
 40
0.3478260869565217
 40
0.3478260869565217
 40
0.391304347826087
 40
0.391304347826087
 40
0.391304347826087
 40
0.391304347826087
 40
0.4347826086956522
 40
0.4347826086956522
 40
0.4347826086956522
 40
0.4347826086956522
 40
0.4782608695652174
 40
0.4782608695652174
 40
0.4782608695652174
 40
0.4782608695652174
 40
0.5217391304347826
 40
0.5217391304347826
 40
0.5217391304347826
 40
0.5217391304347826
 40
0.5652173913043478
 40
0.5652173913043478
 40
0.5652173913043478
 40
0.5652173913043478
 40
0.6086956521739131
 40
0.6086956521739131
 40
0.6086956521739131
 40
0.6086956521739131
 40
0.6521739130434783
 40
0.6521739130434783
 40
0.6521739130434783
 40
0.6521739130434783
 40
0.6956521739130435
 40
0.6956521739130435
 40
0.6956521739130435
 40
0.6956521739130435
 40
0.7391304347826086
 40
0.7391304347826086
 40
0.7391304347826086
 40
0.7391304347826086
 40
0.782608695652174
 40
0.782608695652174
 40
0.782608695652174
 40
0.782608695652174
 40
0.8260869565217391
 40
0.8260869565217391
 40
0.8260869565217391
 40
0.8260869565217391
 40
0.8695652173913043
 40
0.8695652173913043
 40
0.8695652173913043
 40
0.8695652173913043
 40
0.9130434782608695
 40
0.9130434782608695
 40
0.9130434782608695
 40
0.9130434782608695
 40
1.0
 40
1.0
 40
1.0
 40
1.0
 10
9.9351
 20
4.7073
 30
0.0
 10
9.9351
 20
4.7073
 30
0.0
 10
9.9351
 20
4.4688
 30
0.0
 10
9.9351
 20
4.4688
 30
0.0
 10
9.9351
 20
4.4688
 30
0.0
 10
9.9351
 20
4.4688
 30
0.0
 10
8.5997
 20
4.4688
 30
0.0
 10
8.5997
 20
4.4688
 30
0.0
 10
8.5997
 20
4.4688
 30
0.0
 10
8.5978
 20
4.5285
 30
0.0
 10
8.6072
 20
4.5859
 30
0.0
 10
8.6284
 20
4.641
 30
0.0
 10
8.6284
 20
4.641
 30
0.0
 10
8.6623
 20
4.7322
 30
0.0
 10
8.7168
 20
4.8216
 30
0.0
 10
8.7916
 20
4.91
 30
0.0
 10
8.7916
 20
4.91
 30
0.0
 10
8.8669
 20
4.998
 30
0.0
 10
8.9751
 20
5.1
 30
0.0
 10
9.1162
 20
5.2157
 30
0.0
 10
9.1162
 20
5.2157
 30
0.0
 10
9.3358
 20
5.3959
 30
0.0
 10
9.4845
 20
5.5384
 30
0.0
 10
9.5616
 20
5.6438
 30
0.0
 10
9.5616
 20
5.6438
 30
0.0
 10
9.6387
 20
5.7487
 30
0.0
 10
9.6773
 20
5.8484
 30
0.0
 10
9.6773
 20
5.942
 30
0.0
 10
9.6773
 20
5.942
 30
0.0
 10
9.6773
 20
6.0403
 30
0.0
 10
9.642
 20
6.1231
 30
0.0
 10
9.572
 20
6.1908
 30
0.0
 10
9.572
 20
6.1908
 30
0.0
 10
9.5014
 20
6.2581
 30
0.0
 10
9.4097
 20
6.2919
 30
0.0
 10
9.2968
 20
6.2919
 30
0.0
 10
9.2968
 20
6.2919
 30
0.0
 10
9.1773
 20
6.2919
 30
0.0
 10
9.0818
 20
6.2562
 30
0.0
 10
9.0103
 20
6.1842
 30
0.0
 10
9.0103
 20
6.1842
 30
0.0
 10
8.9384
 20
6.1127
 30
0.0
 10
8.9022
 20
6.0135
 30
0.0
 10
8.9012
 20
5.887
 30
0.0
 10
8.9012
 20
5.887
 30
0.0
 10
8.9012
 20
5.887
 30
0.0
 10
8.6463
 20
5.9128
 30
0.0
 10
8.6463
 20
5.9128
 30
0.0
 10
8.6463
 20
5.9128
 30
0.0
 10
8.6637
 20
6.1033
 30
0.0
 10
8.7295
 20
6.2482
 30
0.0
 10
8.8434
 20
6.3479
 30
0.0
 10
8.8434
 20
6.3479
 30
0.0
 10
8.9572
 20
6.4476
 30
0.0
 10
9.1105
 20
6.4975
 30
0.0
 10
9.3024
 20
6.4975
 30
0.0
 10
9.3024
 20
6.4975
 30
0.0
 10
9.4962
 20
6.4975
 30
0.0
 10
9.6496
 20
6.4434
 30
0.0
 10
9.7625
 20
6.3362
 30
0.0
 10
9.7625
 20
6.3362
 30
0.0
 10
9.8758
 20
6.2284
 30
0.0
 10
9.9323
 20
6.0953
 30
0.0
 10
9.9323
 20
5.9363
 30
0.0
 10
9.9323
 20
5.9363
 30
0.0
 10
9.9323
 20
5.8554
 30
0.0
 10
9.9158
 20
5.7759
 30
0.0
 10
9.8824
 20
5.6979
 30
0.0
 10
9.8824
 20
5.6979
 30
0.0
 10
9.8495
 20
5.6198
 30
0.0
 10
9.7944
 20
5.5375
 30
0.0
 10
9.7178
 20
5.4514
 30
0.0
 10
9.7178
 20
5.4514
 30
0.0
 10
9.6411
 20
5.3648
 30
0.0
 10
9.5136
 20
5.2463
 30
0.0
 10
9.3354
 20
5.0958
 30
0.0
 10
9.3354
 20
5.0958
 30
0.0
 10
9.1867
 20
4.9707
 30
0.0
 10
9.0912
 20
4.886
 30
0.0
 10
9.0489
 20
4.8413
 30
0.0
 10
9.0489
 20
4.8413
 30
0.0
 10
9.0066
 20
4.7971
 30
0.0
 10
8.9718
 20
4.7524
 30
0.0
 10
8.944
 20
4.7073
 30
0.0
 10
8.944
 20
4.7073
 30
0.0
 10
8.944
 20
4.7073
 30
0.0
 10
9.9351
 20
4.7073
 30
0.0
 10
9.9351
 20
4.7073
 30
0.0
  0
SPLINE
  5
65
330
1F
100
AcDbEntity
  8
DEFAULT_1
 62
   250
100
AcDbSpline
210
0.0
220
0.0
230
1.0
 70
    11
 71
     3
 72
    52
 73
    48
 74
     0
 42
0.0000000001
 43
0.0000000001
 40
0.0
 40
0.0
 40
0.0
 40
0.0
 40
0.0769230769230769
 40
0.0769230769230769
 40
0.0769230769230769
 40
0.0769230769230769
 40
0.1538461538461539
 40
0.1538461538461539
 40
0.1538461538461539
 40
0.1538461538461539
 40
0.2307692307692308
 40
0.2307692307692308
 40
0.2307692307692308
 40
0.2307692307692308
 40
0.3076923076923077
 40
0.3076923076923077
 40
0.3076923076923077
 40
0.3076923076923077
 40
0.3846153846153846
 40
0.3846153846153846
 40
0.3846153846153846
 40
0.3846153846153846
 40
0.4615384615384616
 40
0.4615384615384616
 40
0.4615384615384616
 40
0.4615384615384616
 40
0.5384615384615384
 40
0.5384615384615384
 40
0.5384615384615384
 40
0.5384615384615384
 40
0.6153846153846154
 40
0.6153846153846154
 40
0.6153846153846154
 40
0.6153846153846154
 40
0.6923076923076923
 40
0.6923076923076923
 40
0.6923076923076923
 40
0.6923076923076923
 40
0.7692307692307693
 40
0.7692307692307693
 40
0.7692307692307693
 40
0.7692307692307693
 40
0.8461538461538461
 40
0.8461538461538461
 40
0.8461538461538461
 40
0.8461538461538461
 40
1.0
 40
1.0
 40
1.0
 40
1.0
 10
10.2008
 20
5.465
 30
0.0
 10
10.2008
 20
5.704
 30
0.0
 10
10.2253
 20
5.8964
 30
0.0
 10
10.2747
 20
6.0417
 30
0.0
 10
10.2747
 20
6.0417
 30
0.0
 10
10.3236
 20
6.1875
 30
0.0
 10
10.397
 20
6.2999
 30
0.0
 10
10.4939
 20
6.379
 30
0.0
 10
10.4939
 20
6.379
 30
0.0
 10
10.5908
 20
6.458
 30
0.0
 10
10.7126
 20
6.4975
 30
0.0
 10
10.8593
 20
6.4975
 30
0.0
 10
10.8593
 20
6.4975
 30
0.0
 10
10.968
 20
6.4975
 30
0.0
 10
11.063
 20
6.4754
 30
0.0
 10
11.1448
 20
6.4316
 30
0.0
 10
11.1448
 20
6.4316
 30
0.0
 10
11.2267
 20
6.3884
 30
0.0
 10
11.294
 20
6.3253
 30
0.0
 10
11.3476
 20
6.243
 30
0.0
 10
11.3476
 20
6.243
 30
0.0
 10
11.4007
 20
6.1607
 30
0.0
 10
11.4426
 20
6.0605
 30
0.0
 10
11.4727
 20
5.9425
 30
0.0
 10
11.4727
 20
5.9425
 30
0.0
 10
11.5033
 20
5.8244
 30
0.0
 10
11.5183
 20
5.6654
 30
0.0
 10
11.5183
 20
5.465
 30
0.0
 10
11.5183
 20
5.465
 30
0.0
 10
11.5183
 20
5.228
 30
0.0
 10
11.4939
 20
5.037
 30
0.0
 10
11.4454
 20
4.8912
 30
0.0
 10
11.4454
 20
4.8912
 30
0.0
 10
11.3965
 20
4.7454
 30
0.0
 10
11.3236
 20
4.633
 30
0.0
 10
11.2267
 20
4.5535
 30
0.0
 10
11.2267
 20
4.5535
 30
0.0
 10
11.1298
 20
4.474
 30
0.0
 10
11.0075
 20
4.4345
 30
0.0
 10
10.8593
 20
4.4345
 30
0.0
 10
10.8593
 20
4.4345
 30
0.0
 10
10.6646
 20
4.4345
 30
0.0
 10
10.5117
 20
4.5041
 30
0.0
 10
10.4007
 20
4.6438
 30
0.0
 10
10.4007
 20
4.6438
 30
0.0
 10
10.2676
 20
4.8117
 30
0.0
 10
10.2008
 20
5.0859
 30
0.0
 10
10.2008
 20
5.465
 30
0.0
  0
SPLINE
  5
66
330
1F
100
AcDbEntity
  8
DEFAULT_1
 62
   250
100
AcDbSpline
210
0.0
220
0.0
230
1.0
 70
    11
 71
     3
 72
    36
 73
    32
 74
     0
 42
0.0000000001
 43
0.0000000001
 40
0.0
 40
0.0
 40
0.0
 40
0.0
 40
0.1111111111111111
 40
0.1111111111111111
 40
0.1111111111111111
 40
0.1111111111111111
 40
0.2222222222222222
 40
0.2222222222222222
 40
0.2222222222222222
 40
0.2222222222222222
 40
0.3333333333333333
 40
0.3333333333333333
 40
0.3333333333333333
 40
0.3333333333333333
 40
0.4444444444444444
 40
0.4444444444444444
 40
0.4444444444444444
 40
0.4444444444444444
 40
0.5555555555555556
 40
0.5555555555555556
 40
0.5555555555555556
 40
0.5555555555555556
 40
0.6666666666666666
 40
0.6666666666666666
 40
0.6666666666666666
 40
0.6666666666666666
 40
0.7777777777777778
 40
0.7777777777777778
 40
0.7777777777777778
 40
0.7777777777777778
 40
1.0
 40
1.0
 40
1.0
 40
1.0
 10
10.4558
 20
5.465
 30
0.0
 10
10.4558
 20
5.1334
 30
0.0
 10
10.4948
 20
4.9128
 30
0.0
 10
10.5724
 20
4.8028
 30
0.0
 10
10.5724
 20
4.8028
 30
0.0
 10
10.65
 20
4.6932
 30
0.0
 10
10.7455
 20
4.6381
 30
0.0
 10
10.8593
 20
4.6381
 30
0.0
 10
10.8593
 20
4.6381
 30
0.0
 10
10.9736
 20
4.6381
 30
0.0
 10
11.0691
 20
4.6936
 30
0.0
 10
11.1467
 20
4.8037
 30
0.0
 10
11.1467
 20
4.8037
 30
0.0
 10
11.2243
 20
4.9138
 30
0.0
 10
11.2634
 20
5.1344
 30
0.0
 10
11.2634
 20
5.465
 30
0.0
 10
11.2634
 20
5.465
 30
0.0
 10
11.2634
 20
5.7976
 30
0.0
 10
11.2243
 20
6.0187
 30
0.0
 10
11.1467
 20
6.1278
 30
0.0
 10
11.1467
 20
6.1278
 30
0.0
 10
11.0691
 20
6.2374
 30
0.0
 10
10.9727
 20
6.2919
 30
0.0
 10
10.857
 20
6.2919
 30
0.0
 10
10.857
 20
6.2919
 30
0.0
 10
10.7427
 20
6.2919
 30
0.0
 10
10.6519
 20
6.2435
 30
0.0
 10
10.5837
 20
6.1471
 30
0.0
 10
10.5837
 20
6.1471
 30
0.0
 10
10.4986
 20
6.0243
 30
0.0
 10
10.4558
 20
5.7966
 30
0.0
 10
10.4558
 20
5.465
 30
0.0
  0
SPLINE
  5
67
330
1F
100
AcDbEntity
  8
DEFAULT_1
 62
   250
100
AcDbSpline
210
0.0
220
0.0
230
1.0
 70
    24
 71
     3
 72
     8
 73
     4
 74
     0
 42
0.0000000001
 43
0.0000000001
 40
0.0
 40
0.0
 40
0.0
 40
0.0
 40
1.0
 40
1.0
 40
1.0
 40
1.0
 10
46.4136
 20
-4.7214
 30
0.0
 10
46.4136
 20
-4.7214
 30
0.0
 10
46.4136
 20
4.3697
 30
0.0
 10
46.4136
 20
4.3697
 30
0.0
  0
SPLINE
  5
68
330
1F
100
AcDbEntity
  8
DEFAULT_1
 62
   250
100
AcDbSpline
210
0.0
220
0.0
230
1.0
 70
    24
 71
     3
 72
     8
 73
     4
 74
     0
 42
0.0000000001
 43
0.0000000001
 40
0.0
 40
0.0
 40
0.0
 40
0.0
 40
1.0
 40
1.0
 40
1.0
 40
1.0
 10
-29.1569
 20
3.6567
 30
0.0
 10
-29.1569
 20
3.6567
 30
0.0
 10
45.6429
 20
3.6567
 30
0.0
 10
45.6429
 20
3.6567
 30
0.0
  0
SPLINE
  5
69
330
1F
100
AcDbEntity
  8
DEFAULT_1
 62
   250
100
AcDbSpline
210
0.0
220
0.0
230
1.0
 70
    11
 71
     3
 72
    80
 73
    76
 74
     0
 42
0.0000000001
 43
0.0000000001
 40
0.0
 40
0.0
 40
0.0
 40
0.0
 40
0.05
 40
0.05
 40
0.05
 40
0.05
 40
0.1
 40
0.1
 40
0.1
 40
0.1
 40
0.15
 40
0.15
 40
0.15
 40
0.15
 40
0.2
 40
0.2
 40
0.2
 40
0.2
 40
0.25
 40
0.25
 40
0.25
 40
0.25
 40
0.3
 40
0.3
 40
0.3
 40
0.3
 40
0.35
 40
0.35
 40
0.35
 40
0.35
 40
0.4
 40
0.4
 40
0.4
 40
0.4
 40
0.45
 40
0.45
 40
0.45
 40
0.45
 40
0.5
 40
0.5
 40
0.5
 40
0.5
 40
0.55
 40
0.55
 40
0.55
 40
0.55
 40
0.6
 40
0.6
 40
0.6
 40
0.6
 40
0.65
 40
0.65
 40
0.65
 40
0.65
 40
0.7
 40
0.7
 40
0.7
 40
0.7
 40
0.75
 40
0.75
 40
0.75
 40
0.75
 40
0.8
 40
0.8
 40
0.8
 40
0.8
 40
0.85
 40
0.85
 40
0.85
 40
0.85
 40
0.9
 40
0.9
 40
0.9
 40
0.9
 40
1.0
 40
1.0
 40
1.0
 40
1.0
 10
-22.3
 20
-0.2461
 30
0.0
 10
-22.3
 20
-0.2461
 30
0.0
 10
-22.5464
 20
-0.2654
 30
0.0
 10
-22.5464
 20
-0.2654
 30
0.0
 10
-22.5464
 20
-0.2654
 30
0.0
 10
-22.5685
 20
-0.168
 30
0.0
 10
-22.5996
 20
-0.097
 30
0.0
 10
-22.64
 20
-0.0533
 30
0.0
 10
-22.64
 20
-0.0533
 30
0.0
 10
-22.7073
 20
0.0178
 30
0.0
 10
-22.7901
 20
0.0531
 30
0.0
 10
-22.8884
 20
0.0531
 30
0.0
 10
-22.8884
 20
0.0531
 30
0.0
 10
-22.9674
 20
0.0531
 30
0.0
 10
-23.0365
 20
0.0309
 30
0.0
 10
-23.0963
 20
-0.0133
 30
0.0
 10
-23.0963
 20
-0.0133
 30
0.0
 10
-23.1744
 20
-0.0702
 30
0.0
 10
-23.236
 20
-0.1534
 30
0.0
 10
-23.2811
 20
-0.2626
 30
0.0
 10
-23.2811
 20
-0.2626
 30
0.0
 10
-23.3258
 20
-0.3717
 30
0.0
 10
-23.3493
 20
-0.5274
 30
0.0
 10
-23.3512
 20
-0.7296
 30
0.0
 10
-23.3512
 20
-0.7296
 30
0.0
 10
-23.2915
 20
-0.6389
 30
0.0
 10
-23.2186
 20
-0.5711
 30
0.0
 10
-23.132
 20
-0.5269
 30
0.0
 10
-23.132
 20
-0.5269
 30
0.0
 10
-23.046
 20
-0.4832
 30
0.0
 10
-22.9552
 20
-0.4611
 30
0.0
 10
-22.8606
 20
-0.4611
 30
0.0
 10
-22.8606
 20
-0.4611
 30
0.0
 10
-22.6951
 20
-0.4611
 30
0.0
 10
-22.5544
 20
-0.5217
 30
0.0
 10
-22.4382
 20
-0.6436
 30
0.0
 10
-22.4382
 20
-0.6436
 30
0.0
 10
-22.3221
 20
-0.7654
 30
0.0
 10
-22.2637
 20
-0.9225
 30
0.0
 10
-22.2637
 20
-1.1153
 30
0.0
 10
-22.2637
 20
-1.1153
 30
0.0
 10
-22.2637
 20
-1.2423
 30
0.0
 10
-22.2915
 20
-1.3599
 30
0.0
 10
-22.3461
 20
-1.4691
 30
0.0
 10
-22.3461
 20
-1.4691
 30
0.0
 10
-22.4006
 20
-1.5777
 30
0.0
 10
-22.4759
 20
-1.6614
 30
0.0
 10
-22.5714
 20
-1.7193
 30
0.0
 10
-22.5714
 20
-1.7193
 30
0.0
 10
-22.6668
 20
-1.7771
 30
0.0
 10
-22.775
 20
-1.8058
 30
0.0
 10
-22.8964
 20
-1.8058
 30
0.0
 10
-22.8964
 20
-1.8058
 30
0.0
 10
-23.1033
 20
-1.8058
 30
0.0
 10
-23.2717
 20
-1.7301
 30
0.0
 10
-23.402
 20
-1.5777
 30
0.0
 10
-23.402
 20
-1.5777
 30
0.0
 10
-23.5328
 20
-1.4258
 30
0.0
 10
-23.5977
 20
-1.1751
 30
0.0
 10
-23.5977
 20
-0.8261
 30
0.0
 10
-23.5977
 20
-0.8261
 30
0.0
 10
-23.5977
 20
-0.4357
 30
0.0
 10
-23.5257
 20
-0.152
 30
0.0
 10
-23.3813
 20
0.0253
 30
0.0
 10
-23.3813
 20
0.0253
 30
0.0
 10
-23.2557
 20
0.1796
 30
0.0
 10
-23.0864
 20
0.2572
 30
0.0
 10
-22.8729
 20
0.2572
 30
0.0
 10
-22.8729
 20
0.2572
 30
0.0
 10
-22.7143
 20
0.2572
 30
0.0
 10
-22.5841
 20
0.2125
 30
0.0
 10
-22.4825
 20
0.1231
 30
0.0
 10
-22.4825
 20
0.1231
 30
0.0
 10
-22.3809
 20
0.0342
 30
0.0
 10
-22.3202
 20
-0.089
 30
0.0
 10
-22.3
 20
-0.2461
 30
0.0
  0
SPLINE
  5
6A
330
1F
100
AcDbEntity
  8
DEFAULT_1
 62
   250
100
AcDbSpline
210
0.0
220
0.0
230
1.0
 70
    11
 71
     3
 72
    40
 73
    36
 74
     0
 42
0.0000000001
 43
0.0000000001
 40
0.0
 40
0.0
 40
0.0
 40
0.0
 40
0.1
 40
0.1
 40
0.1
 40
0.1
 40
0.2
 40
0.2
 40
0.2
 40
0.2
 40
0.3
 40
0.3
 40
0.3
 40
0.3
 40
0.4
 40
0.4
 40
0.4
 40
0.4
 40
0.5
 40
0.5
 40
0.5
 40
0.5
 40
0.6
 40
0.6
 40
0.6
 40
0.6
 40
0.7
 40
0.7
 40
0.7
 40
0.7
 40
0.8
 40
0.8
 40
0.8
 40
0.8
 40
1.0
 40
1.0
 40
1.0
 40
1.0
 10
-23.3127
 20
-1.1167
 30
0.0
 10
-23.3127
 20
-1.2024
 30
0.0
 10
-23.2943
 20
-1.2842
 30
0.0
 10
-23.2581
 20
-1.3623
 30
0.0
 10
-23.2581
 20
-1.3623
 30
0.0
 10
-23.2219
 20
-1.4404
 30
0.0
 10
-23.1711
 20
-1.4996
 30
0.0
 10
-23.1062
 20
-1.5405
 30
0.0
 10
-23.1062
 20
-1.5405
 30
0.0
 10
-23.0408
 20
-1.5815
 30
0.0
 10
-22.9721
 20
-1.6022
 30
0.0
 10
-22.9006
 20
-1.6022
 30
0.0
 10
-22.9006
 20
-1.6022
 30
0.0
 10
-22.7957
 20
-1.6022
 30
0.0
 10
-22.7059
 20
-1.5598
 30
0.0
 10
-22.6306
 20
-1.4752
 30
0.0
 10
-22.6306
 20
-1.4752
 30
0.0
 10
-22.5554
 20
-1.3905
 30
0.0
 10
-22.5177
 20
-1.2757
 30
0.0
 10
-22.5177
 20
-1.1309
 30
0.0
 10
-22.5177
 20
-1.1309
 30
0.0
 10
-22.5177
 20
-0.9912
 30
0.0
 10
-22.5549
 20
-0.8811
 30
0.0
 10
-22.6292
 20
-0.8007
 30
0.0
 10
-22.6292
 20
-0.8007
 30
0.0
 10
-22.7035
 20
-0.7202
 30
0.0
 10
-22.7971
 20
-0.6802
 30
0.0
 10
-22.91
 20
-0.6802
 30
0.0
 10
-22.91
 20
-0.6802
 30
0.0
 10
-23.0224
 20
-0.6802
 30
0.0
 10
-23.1175
 20
-0.7202
 30
0.0
 10
-23.1955
 20
-0.8007
 30
0.0
 10
-23.1955
 20
-0.8007
 30
0.0
 10
-23.2736
 20
-0.8811
 30
0.0
 10
-23.3127
 20
-0.9865
 30
0.0
 10
-23.3127
 20
-1.1167
 30
0.0
  0
SPLINE
  5
6B
330
1F
100
AcDbEntity
  8
DEFAULT_1
 62
   250
100
AcDbSpline
210
0.0
220
0.0
230
1.0
 70
    11
 71
     3
 72
    52
 73
    48
 74
     0
 42
0.0000000001
 43
0.0000000001
 40
0.0
 40
0.0
 40
0.0
 40
0.0
 40
0.0769230769230769
 40
0.0769230769230769
 40
0.0769230769230769
 40
0.0769230769230769
 40
0.1538461538461539
 40
0.1538461538461539
 40
0.1538461538461539
 40
0.1538461538461539
 40
0.2307692307692308
 40
0.2307692307692308
 40
0.2307692307692308
 40
0.2307692307692308
 40
0.3076923076923077
 40
0.3076923076923077
 40
0.3076923076923077
 40
0.3076923076923077
 40
0.3846153846153846
 40
0.3846153846153846
 40
0.3846153846153846
 40
0.3846153846153846
 40
0.4615384615384616
 40
0.4615384615384616
 40
0.4615384615384616
 40
0.4615384615384616
 40
0.5384615384615384
 40
0.5384615384615384
 40
0.5384615384615384
 40
0.5384615384615384
 40
0.6153846153846154
 40
0.6153846153846154
 40
0.6153846153846154
 40
0.6153846153846154
 40
0.6923076923076923
 40
0.6923076923076923
 40
0.6923076923076923
 40
0.6923076923076923
 40
0.7692307692307693
 40
0.7692307692307693
 40
0.7692307692307693
 40
0.7692307692307693
 40
0.8461538461538461
 40
0.8461538461538461
 40
0.8461538461538461
 40
0.8461538461538461
 40
1.0
 40
1.0
 40
1.0
 40
1.0
 10
-22.0173
 20
-0.7753
 30
0.0
 10
-22.0173
 20
-0.5363
 30
0.0
 10
-21.9928
 20
-0.3439
 30
0.0
 10
-21.9434
 20
-0.1986
 30
0.0
 10
-21.9434
 20
-0.1986
 30
0.0
 10
-21.8945
 20
-0.0528
 30
0.0
 10
-21.8211
 20
0.0596
 30
0.0
 10
-21.7242
 20
0.1387
 30
0.0
 10
-21.7242
 20
0.1387
 30
0.0
 10
-21.6273
 20
0.2177
 30
0.0
 10
-21.5055
 20
0.2572
 30
0.0
 10
-21.3588
 20
0.2572
 30
0.0
 10
-21.3588
 20
0.2572
 30
0.0
 10
-21.2501
 20
0.2572
 30
0.0
 10
-21.1551
 20
0.2351
 30
0.0
 10
-21.0733
 20
0.1913
 30
0.0
 10
-21.0733
 20
0.1913
 30
0.0
 10
-20.9914
 20
0.1481
 30
0.0
 10
-20.9241
 20
0.085
 30
0.0
 10
-20.8705
 20
0.0027
 30
0.0
 10
-20.8705
 20
0.0027
 30
0.0
 10
-20.8174
 20
-0.0796
 30
0.0
 10
-20.7755
 20
-0.1798
 30
0.0
 10
-20.7454
 20
-0.2978
 30
0.0
 10
-20.7454
 20
-0.2978
 30
0.0
 10
-20.7148
 20
-0.4159
 30
0.0
 10
-20.6998
 20
-0.5749
 30
0.0
 10
-20.6998
 20
-0.7753
 30
0.0
 10
-20.6998
 20
-0.7753
 30
0.0
 10
-20.6998
 20
-1.0123
 30
0.0
 10
-20.7242
 20
-1.2033
 30
0.0
 10
-20.7727
 20
-1.3491
 30
0.0
 10
-20.7727
 20
-1.3491
 30
0.0
 10
-20.8216
 20
-1.4949
 30
0.0
 10
-20.8945
 20
-1.6073
 30
0.0
 10
-20.9914
 20
-1.6868
 30
0.0
 10
-20.9914
 20
-1.6868
 30
0.0
 10
-21.0883
 20
-1.7663
 30
0.0
 10
-21.2106
 20
-1.8058
 30
0.0
 10
-21.3588
 20
-1.8058
 30
0.0
 10
-21.3588
 20
-1.8058
 30
0.0
 10
-21.5535
 20
-1.8058
 30
0.0
 10
-21.7064
 20
-1.7362
 30
0.0
 10
-21.8174
 20
-1.5965
 30
0.0
 10
-21.8174
 20
-1.5965
 30
0.0
 10
-21.9505
 20
-1.4286
 30
0.0
 10
-22.0173
 20
-1.1544
 30
0.0
 10
-22.0173
 20
-0.7753
 30
0.0
  0
SPLINE
  5
6C
330
1F
100
AcDbEntity
  8
DEFAULT_1
 62
   250
100
AcDbSpline
210
0.0
220
0.0
230
1.0
 70
    11
 71
     3
 72
    36
 73
    32
 74
     0
 42
0.0000000001
 43
0.0000000001
 40
0.0
 40
0.0
 40
0.0
 40
0.0
 40
0.1111111111111111
 40
0.1111111111111111
 40
0.1111111111111111
 40
0.1111111111111111
 40
0.2222222222222222
 40
0.2222222222222222
 40
0.2222222222222222
 40
0.2222222222222222
 40
0.3333333333333333
 40
0.3333333333333333
 40
0.3333333333333333
 40
0.3333333333333333
 40
0.4444444444444444
 40
0.4444444444444444
 40
0.4444444444444444
 40
0.4444444444444444
 40
0.5555555555555556
 40
0.5555555555555556
 40
0.5555555555555556
 40
0.5555555555555556
 40
0.6666666666666666
 40
0.6666666666666666
 40
0.6666666666666666
 40
0.6666666666666666
 40
0.7777777777777778
 40
0.7777777777777778
 40
0.7777777777777778
 40
0.7777777777777778
 40
1.0
 40
1.0
 40
1.0
 40
1.0
 10
-21.7623
 20
-0.7753
 30
0.0
 10
-21.7623
 20
-1.1069
 30
0.0
 10
-21.7233
 20
-1.3275
 30
0.0
 10
-21.6457
 20
-1.4375
 30
0.0
 10
-21.6457
 20
-1.4375
 30
0.0
 10
-21.5681
 20
-1.5471
 30
0.0
 10
-21.4726
 20
-1.6022
 30
0.0
 10
-21.3588
 20
-1.6022
 30
0.0
 10
-21.3588
 20
-1.6022
 30
0.0
 10
-21.2445
 20
-1.6022
 30
0.0
 10
-21.149
 20
-1.5467
 30
0.0
 10
-21.0714
 20
-1.4366
 30
0.0
 10
-21.0714
 20
-1.4366
 30
0.0
 10
-20.9938
 20
-1.3265
 30
0.0
 10
-20.9547
 20
-1.1059
 30
0.0
 10
-20.9547
 20
-0.7753
 30
0.0
 10
-20.9547
 20
-0.7753
 30
0.0
 10
-20.9547
 20
-0.4427
 30
0.0
 10
-20.9938
 20
-0.2216
 30
0.0
 10
-21.0714
 20
-0.1125
 30
0.0
 10
-21.0714
 20
-0.1125
 30
0.0
 10
-21.149
 20
-0.0029
 30
0.0
 10
-21.2454
 20
0.0516
 30
0.0
 10
-21.3611
 20
0.0516
 30
0.0
 10
-21.3611
 20
0.0516
 30
0.0
 10
-21.4754
 20
0.0516
 30
0.0
 10
-21.5662
 20
0.0032
 30
0.0
 10
-21.6344
 20
-0.0932
 30
0.0
 10
-21.6344
 20
-0.0932
 30
0.0
 10
-21.7195
 20
-0.216
 30
0.0
 10
-21.7623
 20
-0.4437
 30
0.0
 10
-21.7623
 20
-0.7753
 30
0.0
  0
SPLINE
  5
6D
330
1F
100
AcDbEntity
  8
DEFAULT_1
 62
   250
100
AcDbSpline
210
0.0
220
0.0
230
1.0
 70
    24
 71
     3
 72
     8
 73
     4
 74
     0
 42
0.0000000001
 43
0.0000000001
 40
0.0
 40
0.0
 40
0.0
 40
0.0
 40
1.0
 40
1.0
 40
1.0
 40
1.0
 10
-10.6578
 20
-2.2557
 30
0.0
 10
-10.6578
 20
-2.2557
 30
0.0
 10
-32.8059
 20
-2.2557
 30
0.0
 10
-32.8059
 20
-2.2557
 30
0.0
  0
SPLINE
  5
6E
330
1F
100
AcDbEntity
  8
DEFAULT_1
 62
   250
100
AcDbSpline
210
0.0
220
0.0
230
1.0
 70
    24
 71
     3
 72
     8
 73
     4
 74
     0
 42
0.0000000001
 43
0.0000000001
 40
0.0
 40
0.0
 40
0.0
 40
0.0
 40
1.0
 40
1.0
 40
1.0
 40
1.0
 10
-33.87
 20
24.1095
 30
0.0
 10
-33.87
 20
24.1095
 30
0.0
 10
-33.87
 20
-11.5905
 30
0.0
 10
-33.87
 20
-11.5905
 30
0.0
  0
SPLINE
  5
6F
330
1F
100
AcDbEntity
  8
DEFAULT_1
 62
   250
100
AcDbSpline
210
0.0
220
0.0
230
1.0
 70
    24
 71
     3
 72
     8
 73
     4
 74
     0
 42
0.0000000001
 43
0.0000000001
 40
0.0
 40
0.0
 40
0.0
 40
0.0
 40
1.0
 40
1.0
 40
1.0
 40
1.0
 10
-24.444
 20
24.1387
 30
0.0
 10
-24.444
 20
24.1387
 30
0.0
 10
-24.444
 20
-11.5905
 30
0.0
 10
-24.444
 20
-11.5905
 30
0.0
  0
SPLINE
  5
70
330
1F
100
AcDbEntity
  8
DEFAULT_1
 62
   250
100
AcDbSpline
210
0.0
220
0.0
230
1.0
 70
     8
 71
     3
 72
    56
 73
    52
 74
     0
 42
0.0000000001
 43
0.0000000001
 40
0.0
 40
0.0
 40
0.0
 40
0.0
 40
0.0714285714285714
 40
0.0714285714285714
 40
0.0714285714285714
 40
0.0714285714285714
 40
0.1428571428571428
 40
0.1428571428571428
 40
0.1428571428571428
 40
0.1428571428571428
 40
0.2142857142857143
 40
0.2142857142857143
 40
0.2142857142857143
 40
0.2142857142857143
 40
0.2857142857142857
 40
0.2857142857142857
 40
0.2857142857142857
 40
0.2857142857142857
 40
0.3571428571428572
 40
0.3571428571428572
 40
0.3571428571428572
 40
0.3571428571428572
 40
0.4285714285714285
 40
0.4285714285714285
 40
0.4285714285714285
 40
0.4285714285714285
 40
0.5
 40
0.5
 40
0.5
 40
0.5
 40
0.5714285714285714
 40
0.5714285714285714
 40
0.5714285714285714
 40
0.5714285714285714
 40
0.6428571428571429
 40
0.6428571428571429
 40
0.6428571428571429
 40
0.6428571428571429
 40
0.7142857142857143
 40
0.7142857142857143
 40
0.7142857142857143
 40
0.7142857142857143
 40
0.7857142857142857
 40
0.7857142857142857
 40
0.7857142857142857
 40
0.7857142857142857
 40
0.8571428571428571
 40
0.8571428571428571
 40
0.8571428571428571
 40
0.8571428571428571
 40
1.0
 40
1.0
 40
1.0
 40
1.0
 10
36.1866
 20
-0.896
 30
0.0
 10
36.1866
 20
-0.896
 30
0.0
 10
36.2199
 20
-17.8217
 30
0.0
 10
36.2199
 20
-17.8217
 30
0.0
 10
36.2199
 20
-17.8217
 30
0.0
 10
36.2199
 20
-17.8217
 30
0.0
 10
37.0914
 20
-18.7957
 30
0.0
 10
37.0914
 20
-18.7957
 30
0.0
 10
37.0914
 20
-18.7957
 30
0.0
 10
37.0914
 20
-18.7957
 30
0.0
 10
37.0244
 20
-0.3251
 30
0.0
 10
37.0244
 20
-0.3251
 30
0.0
 10
37.0244
 20
-0.3251
 30
0.0
 10
37.0244
 20
-0.3251
 30
0.0
 10
36.2199
 20
-0.9633
 30
0.0
 10
36.2199
 20
-0.9633
 30
0.0
 10
36.2199
 20
-0.9633
 30
0.0
 10
36.2199
 20
-0.9633
 30
0.0
 10
34.1601
 20
-0.9512
 30
0.0
 10
34.1601
 20
-0.9512
 30
0.0
 10
34.1601
 20
-0.9512
 30
0.0
 10
32.3381
 20
-0.9512
 30
0.0
 10
30.8612
 20
-2.4282
 30
0.0
 10
30.8612
 20
-4.2502
 30
0.0
 10
30.8612
 20
-4.2502
 30
0.0
 10
30.8612
 20
-4.2502
 30
0.0
 10
30.8579
 20
-14.665
 30
0.0
 10
30.8579
 20
-14.665
 30
0.0
 10
30.8579
 20
-14.665
 30
0.0
 10
30.8579
 20
-14.665
 30
0.0
 10
30.9919
 20
-15.5716
 30
0.0
 10
30.9919
 20
-15.5716
 30
0.0
 10
30.9919
 20
-15.5716
 30
0.0
 10
30.9919
 20
-15.5716
 30
0.0
 10
31.5951
 20
-16.6798
 30
0.0
 10
31.5951
 20
-16.6798
 30
0.0
 10
31.5951
 20
-16.6798
 30
0.0
 10
31.5951
 20
-16.6798
 30
0.0
 10
32.3325
 20
-17.318
 30
0.0
 10
32.3325
 20
-17.318
 30
0.0
 10
32.3325
 20
-17.318
 30
0.0
 10
32.3325
 20
-17.318
 30
0.0
 10
33.3377
 20
-17.8217
 30
0.0
 10
33.3377
 20
-17.8217
 30
0.0
 10
33.3377
 20
-17.8217
 30
0.0
 10
33.3377
 20
-17.8217
 30
0.0
 10
34.0752
 20
-17.9224
 30
0.0
 10
34.0752
 20
-17.9224
 30
0.0
 10
34.0752
 20
-17.9224
 30
0.0
 10
34.0752
 20
-17.9224
 30
0.0
 10
36.2199
 20
-17.9224
 30
0.0
 10
36.2199
 20
-17.9224
 30
0.0
  0
SPLINE
  5
71
330
1F
100
AcDbEntity
  8
DEFAULT_1
  6
NEW_LINE1
 62
   250
100
AcDbSpline
210
0.0
220
0.0
230
1.0
 70
    24
 71
     3
 72
     8
 73
     4
 74
     0
 42
0.0000000001
 43
0.0000000001
 40
0.0
 40
0.0
 40
0.0
 40
0.0
 40
1.0
 40
1.0
 40
1.0
 40
1.0
 10
-29.1571
 20
-27.3428
 30
0.0
 10
-29.1571
 20
-27.3428
 30
0.0
 10
-29.1571
 20
29.0613
 30
0.0
 10
-29.1571
 20
29.0613
 30
0.0
  0
SPLINE
  5
73
330
1F
100
AcDbEntity
  8
DEFAULT_1
  6
NEW_LINE2
 62
   250
100
AcDbSpline
210
0.0
220
0.0
230
1.0
 70
    24
 71
     3
 72
     8
 73
     4
 74
     0
 42
0.0000000001
 43
0.0000000001
 40
0.0
 40
0.0
 40
0.0
 40
0.0
 40
1.0
 40
1.0
 40
1.0
 40
1.0
 10
46.9235
 20
-9.4342
 30
0.0
 10
46.9235
 20
-9.4342
 30
0.0
 10
-20.8458
 20
-9.4342
 30
0.0
 10
-20.8458
 20
-9.4342
 30
0.0
  0
SPLINE
  5
75
330
1F
100
AcDbEntity
  8
DEFAULT_1
  6
NEW_LINE3
 62
   250
100
AcDbSpline
210
0.0
220
0.0
230
1.0
 70
    24
 71
     3
 72
     8
 73
     4
 74
     0
 42
0.0000000001
 43
0.0000000001
 40
0.0
 40
0.0
 40
0.0
 40
0.0
 40
1.0
 40
1.0
 40
1.0
 40
1.0
 10
-14.8534
 20
-27.3428
 30
0.0
 10
-14.8534
 20
-27.3428
 30
0.0
 10
-14.8534
 20
-1.4209
 30
0.0
 10
-14.8534
 20
-1.4209
 30
0.0
  0
SPLINE
  5
77
330
1F
100
AcDbEntity
  8
DEFAULT_1
 62
   250
100
AcDbSpline
210
0.0
220
0.0
230
1.0
 70
    11
 71
     3
 72
    20
 73
    16
 74
     0
 42
0.0000000001
 43
0.0000000001
 40
0.0
 40
0.0
 40
0.0
 40
0.0
 40
0.2
 40
0.2
 40
0.2
 40
0.2
 40
0.4
 40
0.4
 40
0.4
 40
0.4
 40
0.6
 40
0.6
 40
0.6
 40
0.6
 40
1.0
 40
1.0
 40
1.0
 40
1.0
 10
-44.7543
 20
25.2044
 30
0.0
 10
-44.7543
 20
25.2044
 30
0.0
 10
-44.3548
 20
28.0348
 30
0.0
 10
-44.3548
 20
28.0348
 30
0.0
 10
-44.3548
 20
28.0348
 30
0.0
 10
-44.3548
 20
28.0348
 30
0.0
 10
-44.2661
 20
28.0348
 30
0.0
 10
-44.2661
 20
28.0348
 30
0.0
 10
-44.2661
 20
28.0348
 30
0.0
 10
-44.2661
 20
28.0348
 30
0.0
 10
-43.8401
 20
25.2044
 30
0.0
 10
-43.8401
 20
25.2044
 30
0.0
 10
-43.8401
 20
25.2044
 30
0.0
 10
-43.8401
 20
25.2044
 30
0.0
 10
-44.7543
 20
25.2044
 30
0.0
 10
-44.7543
 20
25.2044
 30
0.0
  0
SPLINE
  5
78
330
1F
100
AcDbEntity
  8
DEFAULT_1
 62
   250
100
AcDbSpline
210
0.0
220
0.0
230
1.0
 70
    11
 71
     3
 72
    20
 73
    16
 74
     0
 42
0.0000000001
 43
0.0000000001
 40
0.0
 40
0.0
 40
0.0
 40
0.0
 40
0.2
 40
0.2
 40
0.2
 40
0.2
 40
0.4
 40
0.4
 40
0.4
 40
0.4
 40
0.6
 40
0.6
 40
0.6
 40
0.6
 40
1.0
 40
1.0
 40
1.0
 40
1.0
 10
-43.8776
 20
-6.5344
 30
0.0
 10
-43.8776
 20
-6.5344
 30
0.0
 10
-44.2771
 20
-9.3649
 30
0.0
 10
-44.2771
 20
-9.3649
 30
0.0
 10
-44.2771
 20
-9.3649
 30
0.0
 10
-44.2771
 20
-9.3649
 30
0.0
 10
-44.3658
 20
-9.3649
 30
0.0
 10
-44.3658
 20
-9.3649
 30
0.0
 10
-44.3658
 20
-9.3649
 30
0.0
 10
-44.3658
 20
-9.3649
 30
0.0
 10
-44.7918
 20
-6.5344
 30
0.0
 10
-44.7918
 20
-6.5344
 30
0.0
 10
-44.7918
 20
-6.5344
 30
0.0
 10
-44.7918
 20
-6.5344
 30
0.0
 10
-43.8776
 20
-6.5344
 30
0.0
 10
-43.8776
 20
-6.5344
 30
0.0
  0
SPLINE
  5
79
330
1F
100
AcDbEntity
  8
DEFAULT_1
 62
   250
100
AcDbSpline
210
0.0
220
0.0
230
1.0
 70
    11
 71
     3
 72
    20
 73
    16
 74
     0
 42
0.0000000001
 43
0.0000000001
 40
0.0
 40
0.0
 40
0.0
 40
0.0
 40
0.2
 40
0.2
 40
0.2
 40
0.2
 40
0.4
 40
0.4
 40
0.4
 40
0.4
 40
0.6
 40
0.6
 40
0.6
 40
0.6
 40
1.0
 40
1.0
 40
1.0
 40
1.0
 10
-44.7609
 20
-12.252
 30
0.0
 10
-44.7609
 20
-12.252
 30
0.0
 10
-44.3615
 20
-9.4216
 30
0.0
 10
-44.3615
 20
-9.4216
 30
0.0
 10
-44.3615
 20
-9.4216
 30
0.0
 10
-44.3615
 20
-9.4216
 30
0.0
 10
-44.2728
 20
-9.4216
 30
0.0
 10
-44.2728
 20
-9.4216
 30
0.0
 10
-44.2728
 20
-9.4216
 30
0.0
 10
-44.2728
 20
-9.4216
 30
0.0
 10
-43.8467
 20
-12.252
 30
0.0
 10
-43.8467
 20
-12.252
 30
0.0
 10
-43.8467
 20
-12.252
 30
0.0
 10
-43.8467
 20
-12.252
 30
0.0
 10
-44.7609
 20
-12.252
 30
0.0
 10
-44.7609
 20
-12.252
 30
0.0
  0
SPLINE
  5
7A
330
1F
100
AcDbEntity
  8
DEFAULT_1
 62
   250
100
AcDbSpline
210
0.0
220
0.0
230
1.0
 70
    11
 71
     3
 72
    20
 73
    16
 74
     0
 42
0.0000000001
 43
0.0000000001
 40
0.0
 40
0.0
 40
0.0
 40
0.0
 40
0.2
 40
0.2
 40
0.2
 40
0.2
 40
0.4
 40
0.4
 40
0.4
 40
0.4
 40
0.6
 40
0.6
 40
0.6
 40
0.6
 40
1.0
 40
1.0
 40
1.0
 40
1.0
 10
-43.8694
 20
-33.6143
 30
0.0
 10
-43.8694
 20
-33.6143
 30
0.0
 10
-44.2689
 20
-36.4447
 30
0.0
 10
-44.2689
 20
-36.4447
 30
0.0
 10
-44.2689
 20
-36.4447
 30
0.0
 10
-44.2689
 20
-36.4447
 30
0.0
 10
-44.3576
 20
-36.4447
 30
0.0
 10
-44.3576
 20
-36.4447
 30
0.0
 10
-44.3576
 20
-36.4447
 30
0.0
 10
-44.3576
 20
-36.4447
 30
0.0
 10
-44.7836
 20
-33.6143
 30
0.0
 10
-44.7836
 20
-33.6143
 30
0.0
 10
-44.7836
 20
-33.6143
 30
0.0
 10
-44.7836
 20
-33.6143
 30
0.0
 10
-43.8694
 20
-33.6143
 30
0.0
 10
-43.8694
 20
-33.6143
 30
0.0
  0
SPLINE
  5
7B
330
1F
100
AcDbEntity
  8
DEFAULT_1
 62
   250
100
AcDbSpline
210
0.0
220
0.0
230
1.0
 70
    11
 71
     3
 72
    20
 73
    16
 74
     0
 42
0.0000000001
 43
0.0000000001
 40
0.0
 40
0.0
 40
0.0
 40
0.0
 40
0.2
 40
0.2
 40
0.2
 40
0.2
 40
0.4
 40
0.4
 40
0.4
 40
0.4
 40
0.6
 40
0.6
 40
0.6
 40
0.6
 40
1.0
 40
1.0
 40
1.0
 40
1.0
 10
-20.6201
 20
33.5263
 30
0.0
 10
-20.6201
 20
33.5263
 30
0.0
 10
-23.4506
 20
33.9258
 30
0.0
 10
-23.4506
 20
33.9258
 30
0.0
 10
-23.4506
 20
33.9258
 30
0.0
 10
-23.4506
 20
33.9258
 30
0.0
 10
-23.4506
 20
34.0145
 30
0.0
 10
-23.4506
 20
34.0145
 30
0.0
 10
-23.4506
 20
34.0145
 30
0.0
 10
-23.4506
 20
34.0145
 30
0.0
 10
-20.6201
 20
34.4405
 30
0.0
 10
-20.6201
 20
34.4405
 30
0.0
 10
-20.6201
 20
34.4405
 30
0.0
 10
-20.6201
 20
34.4405
 30
0.0
 10
-20.6201
 20
33.5263
 30
0.0
 10
-20.6201
 20
33.5263
 30
0.0
  0
SPLINE
  5
7C
330
1F
100
AcDbEntity
  8
DEFAULT_1
 62
   250
100
AcDbSpline
210
0.0
220
0.0
230
1.0
 70
    11
 71
     3
 72
    20
 73
    16
 74
     0
 42
0.0000000001
 43
0.0000000001
 40
0.0
 40
0.0
 40
0.0
 40
0.0
 40
0.2
 40
0.2
 40
0.2
 40
0.2
 40
0.4
 40
0.4
 40
0.4
 40
0.4
 40
0.6
 40
0.6
 40
0.6
 40
0.6
 40
1.0
 40
1.0
 40
1.0
 40
1.0
 10
-37.9446
 20
34.4123
 30
0.0
 10
-37.9446
 20
34.4123
 30
0.0
 10
-35.1142
 20
34.0129
 30
0.0
 10
-35.1142
 20
34.0129
 30
0.0
 10
-35.1142
 20
34.0129
 30
0.0
 10
-35.1142
 20
34.0129
 30
0.0
 10
-35.1142
 20
33.9241
 30
0.0
 10
-35.1142
 20
33.9241
 30
0.0
 10
-35.1142
 20
33.9241
 30
0.0
 10
-35.1142
 20
33.9241
 30
0.0
 10
-37.9446
 20
33.4981
 30
0.0
 10
-37.9446
 20
33.4981
 30
0.0
 10
-37.9446
 20
33.4981
 30
0.0
 10
-37.9446
 20
33.4981
 30
0.0
 10
-37.9446
 20
34.4123
 30
0.0
 10
-37.9446
 20
34.4123
 30
0.0
  0
SPLINE
  5
7D
330
1F
100
AcDbEntity
  8
DEFAULT_1
 62
   250
100
AcDbSpline
210
0.0
220
0.0
230
1.0
 70
    11
 71
     3
 72
    20
 73
    16
 74
     0
 42
0.0000000001
 43
0.0000000001
 40
0.0
 40
0.0
 40
0.0
 40
0.0
 40
0.2
 40
0.2
 40
0.2
 40
0.2
 40
0.4
 40
0.4
 40
0.4
 40
0.4
 40
0.6
 40
0.6
 40
0.6
 40
0.6
 40
1.0
 40
1.0
 40
1.0
 40
1.0
 10
-11.9889
 20
-2.6859
 30
0.0
 10
-11.9889
 20
-2.6859
 30
0.0
 10
-14.8193
 20
-2.2865
 30
0.0
 10
-14.8193
 20
-2.2865
 30
0.0
 10
-14.8193
 20
-2.2865
 30
0.0
 10
-14.8193
 20
-2.2865
 30
0.0
 10
-14.8193
 20
-2.1977
 30
0.0
 10
-14.8193
 20
-2.1977
 30
0.0
 10
-14.8193
 20
-2.1977
 30
0.0
 10
-14.8193
 20
-2.1977
 30
0.0
 10
-11.9889
 20
-1.7717
 30
0.0
 10
-11.9889
 20
-1.7717
 30
0.0
 10
-11.9889
 20
-1.7717
 30
0.0
 10
-11.9889
 20
-1.7717
 30
0.0
 10
-11.9889
 20
-2.6859
 30
0.0
 10
-11.9889
 20
-2.6859
 30
0.0
  0
SPLINE
  5
7E
330
1F
100
AcDbEntity
  8
DEFAULT_1
 62
   250
100
AcDbSpline
210
0.0
220
0.0
230
1.0
 70
    11
 71
     3
 72
    20
 73
    16
 74
     0
 42
0.0000000001
 43
0.0000000001
 40
0.0
 40
0.0
 40
0.0
 40
0.0
 40
0.2
 40
0.2
 40
0.2
 40
0.2
 40
0.4
 40
0.4
 40
0.4
 40
0.4
 40
0.6
 40
0.6
 40
0.6
 40
0.6
 40
1.0
 40
1.0
 40
1.0
 40
1.0
 10
-32.0211
 20
-1.8033
 30
0.0
 10
-32.0211
 20
-1.8033
 30
0.0
 10
-29.1907
 20
-2.2027
 30
0.0
 10
-29.1907
 20
-2.2027
 30
0.0
 10
-29.1907
 20
-2.2027
 30
0.0
 10
-29.1907
 20
-2.2027
 30
0.0
 10
-29.1907
 20
-2.2914
 30
0.0
 10
-29.1907
 20
-2.2914
 30
0.0
 10
-29.1907
 20
-2.2914
 30
0.0
 10
-29.1907
 20
-2.2914
 30
0.0
 10
-32.0211
 20
-2.7174
 30
0.0
 10
-32.0211
 20
-2.7174
 30
0.0
 10
-32.0211
 20
-2.7174
 30
0.0
 10
-32.0211
 20
-2.7174
 30
0.0
 10
-32.0211
 20
-1.8033
 30
0.0
 10
-32.0211
 20
-1.8033
 30
0.0
  0
SPLINE
  5
7F
330
1F
100
AcDbEntity
  8
DEFAULT_1
 62
   250
100
AcDbSpline
210
0.0
220
0.0
230
1.0
 70
    11
 71
     3
 72
    20
 73
    16
 74
     0
 42
0.0000000001
 43
0.0000000001
 40
0.0
 40
0.0
 40
0.0
 40
0.0
 40
0.2
 40
0.2
 40
0.2
 40
0.2
 40
0.4
 40
0.4
 40
0.4
 40
0.4
 40
0.6
 40
0.6
 40
0.6
 40
0.6
 40
1.0
 40
1.0
 40
1.0
 40
1.0
 10
-26.3528
 20
3.2219
 30
0.0
 10
-26.3528
 20
3.2219
 30
0.0
 10
-29.1832
 20
3.6213
 30
0.0
 10
-29.1832
 20
3.6213
 30
0.0
 10
-29.1832
 20
3.6213
 30
0.0
 10
-29.1832
 20
3.6213
 30
0.0
 10
-29.1832
 20
3.7101
 30
0.0
 10
-29.1832
 20
3.7101
 30
0.0
 10
-29.1832
 20
3.7101
 30
0.0
 10
-29.1832
 20
3.7101
 30
0.0
 10
-26.3528
 20
4.1361
 30
0.0
 10
-26.3528
 20
4.1361
 30
0.0
 10
-26.3528
 20
4.1361
 30
0.0
 10
-26.3528
 20
4.1361
 30
0.0
 10
-26.3528
 20
3.2219
 30
0.0
 10
-26.3528
 20
3.2219
 30
0.0
  0
SPLINE
  5
80
330
1F
100
AcDbEntity
  8
DEFAULT_1
 62
   250
100
AcDbSpline
210
0.0
220
0.0
230
1.0
 70
    11
 71
     3
 72
    20
 73
    16
 74
     0
 42
0.0000000001
 43
0.0000000001
 40
0.0
 40
0.0
 40
0.0
 40
0.0
 40
0.2
 40
0.2
 40
0.2
 40
0.2
 40
0.4
 40
0.4
 40
0.4
 40
0.4
 40
0.6
 40
0.6
 40
0.6
 40
0.6
 40
1.0
 40
1.0
 40
1.0
 40
1.0
 10
43.5053
 20
4.1156
 30
0.0
 10
43.5053
 20
4.1156
 30
0.0
 10
46.3358
 20
3.7162
 30
0.0
 10
46.3358
 20
3.7162
 30
0.0
 10
46.3358
 20
3.7162
 30
0.0
 10
46.3358
 20
3.7162
 30
0.0
 10
46.3358
 20
3.6274
 30
0.0
 10
46.3358
 20
3.6274
 30
0.0
 10
46.3358
 20
3.6274
 30
0.0
 10
46.3358
 20
3.6274
 30
0.0
 10
43.5053
 20
3.2014
 30
0.0
 10
43.5053
 20
3.2014
 30
0.0
 10
43.5053
 20
3.2014
 30
0.0
 10
43.5053
 20
3.2014
 30
0.0
 10
43.5053
 20
4.1156
 30
0.0
 10
43.5053
 20
4.1156
 30
0.0
  0
SPLINE
  5
81
330
1F
100
AcDbEntity
  8
DEFAULT_1
 62
   250
100
AcDbSpline
210
0.0
220
0.0
230
1.0
 70
     8
 71
     3
 72
    16
 73
    12
 74
     0
 42
0.0000000001
 43
0.0000000001
 40
0.0
 40
0.0
 40
0.0
 40
0.0
 40
0.25
 40
0.25
 40
0.25
 40
0.25
 40
0.5
 40
0.5
 40
0.5
 40
0.5
 40
1.0
 40
1.0
 40
1.0
 40
1.0
 10
-35.7082
 20
25.3433
 30
0.0
 10
-35.7082
 20
25.3433
 30
0.0
 10
-35.6288
 20
28.1846
 30
0.0
 10
-35.6288
 20
28.1846
 30
0.0
 10
-35.6288
 20
28.1846
 30
0.0
 10
-35.6288
 20
28.1846
 30
0.0
 10
-22.7824
 20
28.1846
 30
0.0
 10
-22.7824
 20
28.1846
 30
0.0
 10
-22.7824
 20
28.1846
 30
0.0
 10
-22.7824
 20
28.1846
 30
0.0
 10
-22.7452
 20
25.3615
 30
0.0
 10
-22.7452
 20
25.3615
 30
0.0
  0
SPLINE
  5
82
330
1F
100
AcDbEntity
  8
DEFAULT_1
 62
   250
100
AcDbSpline
210
0.0
220
0.0
230
1.0
 70
     8
 71
     3
 72
    96
 73
    92
 74
     0
 42
0.0000000001
 43
0.0000000001
 40
0.0
 40
0.0
 40
0.0
 40
0.0
 40
0.0416666666666667
 40
0.0416666666666667
 40
0.0416666666666667
 40
0.0416666666666667
 40
0.0833333333333333
 40
0.0833333333333333
 40
0.0833333333333333
 40
0.0833333333333333
 40
0.125
 40
0.125
 40
0.125
 40
0.125
 40
0.1666666666666667
 40
0.1666666666666667
 40
0.1666666666666667
 40
0.1666666666666667
 40
0.2083333333333333
 40
0.2083333333333333
 40
0.2083333333333333
 40
0.2083333333333333
 40
0.25
 40
0.25
 40
0.25
 40
0.25
 40
0.2916666666666667
 40
0.2916666666666667
 40
0.2916666666666667
 40
0.2916666666666667
 40
0.3333333333333333
 40
0.3333333333333333
 40
0.3333333333333333
 40
0.3333333333333333
 40
0.375
 40
0.375
 40
0.375
 40
0.375
 40
0.4166666666666667
 40
0.4166666666666667
 40
0.4166666666666667
 40
0.4166666666666667
 40
0.4583333333333333
 40
0.4583333333333333
 40
0.4583333333333333
 40
0.4583333333333333
 40
0.5
 40
0.5
 40
0.5
 40
0.5
 40
0.5416666666666666
 40
0.5416666666666666
 40
0.5416666666666666
 40
0.5416666666666666
 40
0.5833333333333334
 40
0.5833333333333334
 40
0.5833333333333334
 40
0.5833333333333334
 40
0.625
 40
0.625
 40
0.625
 40
0.625
 40
0.6666666666666666
 40
0.6666666666666666
 40
0.6666666666666666
 40
0.6666666666666666
 40
0.7083333333333334
 40
0.7083333333333334
 40
0.7083333333333334
 40
0.7083333333333334
 40
0.75
 40
0.75
 40
0.75
 40
0.75
 40
0.7916666666666666
 40
0.7916666666666666
 40
0.7916666666666666
 40
0.7916666666666666
 40
0.8333333333333334
 40
0.8333333333333334
 40
0.8333333333333334
 40
0.8333333333333334
 40
0.875
 40
0.875
 40
0.875
 40
0.875
 40
0.9166666666666666
 40
0.9166666666666666
 40
0.9166666666666666
 40
0.9166666666666666
 40
1.0
 40
1.0
 40
1.0
 40
1.0
 10
-35.5799
 20
27.5234
 30
0.0
 10
-35.5799
 20
27.5234
 30
0.0
 10
-34.0991
 20
27.5052
 30
0.0
 10
-34.0991
 20
27.5052
 30
0.0
 10
-34.0991
 20
27.5052
 30
0.0
 10
-34.0991
 20
27.5052
 30
0.0
 10
-34.0991
 20
25.8747
 30
0.0
 10
-34.0991
 20
25.8747
 30
0.0
 10
-34.0991
 20
25.8747
 30
0.0
 10
-34.0991
 20
25.8747
 30
0.0
 10
-34.0627
 20
25.6913
 30
0.0
 10
-34.0627
 20
25.6913
 30
0.0
 10
-34.0627
 20
25.6913
 30
0.0
 10
-34.0627
 20
25.6913
 30
0.0
 10
-34.0076
 20
25.5266
 30
0.0
 10
-34.0076
 20
25.5266
 30
0.0
 10
-34.0076
 20
25.5266
 30
0.0
 10
-34.0076
 20
25.5266
 30
0.0
 10
-33.8065
 20
25.3801
 30
0.0
 10
-33.8065
 20
25.3801
 30
0.0
 10
-33.8065
 20
25.3801
 30
0.0
 10
-33.8065
 20
25.3801
 30
0.0
 10
-33.5321
 20
25.3983
 30
0.0
 10
-33.5321
 20
25.3983
 30
0.0
 10
-33.5321
 20
25.3983
 30
0.0
 10
-33.5321
 20
25.3983
 30
0.0
 10
-33.4224
 20
25.5084
 30
0.0
 10
-33.4224
 20
25.5084
 30
0.0
 10
-33.4224
 20
25.5084
 30
0.0
 10
-33.4224
 20
25.5084
 30
0.0
 10
-33.3496
 20
25.7464
 30
0.0
 10
-33.3496
 20
25.7464
 30
0.0
 10
-33.3496
 20
25.7464
 30
0.0
 10
-33.3496
 20
25.7464
 30
0.0
 10
-33.3496
 20
27.5052
 30
0.0
 10
-33.3496
 20
27.5052
 30
0.0
 10
-33.3496
 20
27.5052
 30
0.0
 10
-33.3496
 20
27.5052
 30
0.0
 10
-29.6745
 20
27.5052
 30
0.0
 10
-29.6745
 20
27.5052
 30
0.0
 10
-29.6745
 20
27.5052
 30
0.0
 10
-29.6745
 20
27.5052
 30
0.0
 10
-29.6728
 20
25.8492
 30
0.0
 10
-29.6728
 20
25.8492
 30
0.0
 10
-29.6728
 20
25.8492
 30
0.0
 10
-29.6728
 20
25.591
 30
0.0
 10
-29.4636
 20
25.3817
 30
0.0
 10
-29.2058
 20
25.3817
 30
0.0
 10
-29.2058
 20
25.3817
 30
0.0
 10
-28.9476
 20
25.3817
 30
0.0
 10
-28.7384
 20
25.591
 30
0.0
 10
-28.7384
 20
25.8492
 30
0.0
 10
-28.7384
 20
25.8492
 30
0.0
 10
-28.7384
 20
25.8492
 30
0.0
 10
-28.742
 20
27.5052
 30
0.0
 10
-28.742
 20
27.5052
 30
0.0
 10
-28.742
 20
27.5052
 30
0.0
 10
-28.742
 20
27.5052
 30
0.0
 10
-24.9937
 20
27.5052
 30
0.0
 10
-24.9937
 20
27.5052
 30
0.0
 10
-24.9937
 20
27.5052
 30
0.0
 10
-24.9937
 20
27.5052
 30
0.0
 10
-25.0123
 20
25.7464
 30
0.0
 10
-25.0123
 20
25.7464
 30
0.0
 10
-25.0123
 20
25.7464
 30
0.0
 10
-25.0123
 20
25.7464
 30
0.0
 10
-24.9026
 20
25.5266
 30
0.0
 10
-24.9026
 20
25.5266
 30
0.0
 10
-24.9026
 20
25.5266
 30
0.0
 10
-24.9026
 20
25.5266
 30
0.0
 10
-24.7197
 20
25.3983
 30
0.0
 10
-24.7197
 20
25.3983
 30
0.0
 10
-24.7197
 20
25.3983
 30
0.0
 10
-24.7197
 20
25.3983
 30
0.0
 10
-24.5003
 20
25.3983
 30
0.0
 10
-24.5003
 20
25.3983
 30
0.0
 10
-24.5003
 20
25.3983
 30
0.0
 10
-24.5003
 20
25.3983
 30
0.0
 10
-24.3721
 20
25.5999
 30
0.0
 10
-24.3721
 20
25.5999
 30
0.0
 10
-24.3721
 20
25.5999
 30
0.0
 10
-24.3721
 20
25.5999
 30
0.0
 10
-24.3356
 20
25.8378
 30
0.0
 10
-24.3356
 20
25.8378
 30
0.0
 10
-24.3356
 20
25.8378
 30
0.0
 10
-24.3356
 20
25.8378
 30
0.0
 10
-24.3356
 20
27.5234
 30
0.0
 10
-24.3356
 20
27.5234
 30
0.0
 10
-24.3356
 20
27.5234
 30
0.0
 10
-24.3356
 20
27.5234
 30
0.0
 10
-22.8366
 20
27.5052
 30
0.0
 10
-22.8366
 20
27.5052
 30
0.0
  0
SPLINE
  5
83
330
1F
100
AcDbEntity
  8
DEFAULT_1
 62
   250
100
AcDbSpline
210
0.0
220
0.0
230
1.0
 70
     8
 71
     3
 72
    32
 73
    28
 74
     0
 42
0.0000000001
 43
0.0000000001
 40
0.0
 40
0.0
 40
0.0
 40
0.0
 40
0.125
 40
0.125
 40
0.125
 40
0.125
 40
0.25
 40
0.25
 40
0.25
 40
0.25
 40
0.375
 40
0.375
 40
0.375
 40
0.375
 40
0.5
 40
0.5
 40
0.5
 40
0.5
 40
0.625
 40
0.625
 40
0.625
 40
0.625
 40
0.75
 40
0.75
 40
0.75
 40
0.75
 40
1.0
 40
1.0
 40
1.0
 40
1.0
 10
-35.4641
 20
27.5703
 30
0.0
 10
-35.4641
 20
27.5703
 30
0.0
 10
-35.5123
 20
24.6812
 30
0.0
 10
-35.5123
 20
24.6812
 30
0.0
 10
-35.5123
 20
24.6812
 30
0.0
 10
-35.5123
 20
24.423
 30
0.0
 10
-35.3031
 20
24.2138
 30
0.0
 10
-35.0449
 20
24.2138
 30
0.0
 10
-35.0449
 20
24.2138
 30
0.0
 10
-35.0449
 20
24.2138
 30
0.0
 10
-23.4137
 20
24.2162
 30
0.0
 10
-23.4137
 20
24.2162
 30
0.0
 10
-23.4137
 20
24.2162
 30
0.0
 10
-23.4137
 20
24.2162
 30
0.0
 10
-23.0989
 20
24.2952
 30
0.0
 10
-23.0989
 20
24.2952
 30
0.0
 10
-23.0989
 20
24.2952
 30
0.0
 10
-23.0989
 20
24.2952
 30
0.0
 10
-22.9609
 20
24.5319
 30
0.0
 10
-22.9609
 20
24.5319
 30
0.0
 10
-22.9609
 20
24.5319
 30
0.0
 10
-22.9609
 20
24.5319
 30
0.0
 10
-22.9018
 20
24.8872
 30
0.0
 10
-22.9018
 20
24.8872
 30
0.0
 10
-22.9018
 20
24.8872
 30
0.0
 10
-22.9018
 20
24.8872
 30
0.0
 10
-22.9216
 20
27.5505
 30
0.0
 10
-22.9216
 20
27.5505
 30
0.0
  0
SPLINE
  5
84
330
1F
100
AcDbEntity
  8
DEFAULT_1
 62
   250
100
AcDbSpline
210
0.0
220
0.0
230
1.0
 70
     8
 71
     3
 72
    16
 73
    12
 74
     0
 42
0.0000000001
 43
0.0000000001
 40
0.0
 40
0.0
 40
0.0
 40
0.0
 40
0.25
 40
0.25
 40
0.25
 40
0.25
 40
0.5
 40
0.5
 40
0.5
 40
0.5
 40
1.0
 40
1.0
 40
1.0
 40
1.0
 10
-22.7118
 20
-12.5548
 30
0.0
 10
-22.7118
 20
-12.5548
 30
0.0
 10
-22.7911
 20
-15.3961
 30
0.0
 10
-22.7911
 20
-15.3961
 30
0.0
 10
-22.7911
 20
-15.3961
 30
0.0
 10
-22.7911
 20
-15.3961
 30
0.0
 10
-35.6376
 20
-15.3961
 30
0.0
 10
-35.6376
 20
-15.3961
 30
0.0
 10
-35.6376
 20
-15.3961
 30
0.0
 10
-35.6376
 20
-15.3961
 30
0.0
 10
-35.6748
 20
-12.573
 30
0.0
 10
-35.6748
 20
-12.573
 30
0.0
  0
SPLINE
  5
85
330
1F
100
AcDbEntity
  8
DEFAULT_1
 62
   250
100
AcDbSpline
210
0.0
220
0.0
230
1.0
 70
     8
 71
     3
 72
    96
 73
    92
 74
     0
 42
0.0000000001
 43
0.0000000001
 40
0.0
 40
0.0
 40
0.0
 40
0.0
 40
0.0416666666666667
 40
0.0416666666666667
 40
0.0416666666666667
 40
0.0416666666666667
 40
0.0833333333333333
 40
0.0833333333333333
 40
0.0833333333333333
 40
0.0833333333333333
 40
0.125
 40
0.125
 40
0.125
 40
0.125
 40
0.1666666666666667
 40
0.1666666666666667
 40
0.1666666666666667
 40
0.1666666666666667
 40
0.2083333333333333
 40
0.2083333333333333
 40
0.2083333333333333
 40
0.2083333333333333
 40
0.25
 40
0.25
 40
0.25
 40
0.25
 40
0.2916666666666667
 40
0.2916666666666667
 40
0.2916666666666667
 40
0.2916666666666667
 40
0.3333333333333333
 40
0.3333333333333333
 40
0.3333333333333333
 40
0.3333333333333333
 40
0.375
 40
0.375
 40
0.375
 40
0.375
 40
0.4166666666666667
 40
0.4166666666666667
 40
0.4166666666666667
 40
0.4166666666666667
 40
0.4583333333333333
 40
0.4583333333333333
 40
0.4583333333333333
 40
0.4583333333333333
 40
0.5
 40
0.5
 40
0.5
 40
0.5
 40
0.5416666666666666
 40
0.5416666666666666
 40
0.5416666666666666
 40
0.5416666666666666
 40
0.5833333333333334
 40
0.5833333333333334
 40
0.5833333333333334
 40
0.5833333333333334
 40
0.625
 40
0.625
 40
0.625
 40
0.625
 40
0.6666666666666666
 40
0.6666666666666666
 40
0.6666666666666666
 40
0.6666666666666666
 40
0.7083333333333334
 40
0.7083333333333334
 40
0.7083333333333334
 40
0.7083333333333334
 40
0.75
 40
0.75
 40
0.75
 40
0.75
 40
0.7916666666666666
 40
0.7916666666666666
 40
0.7916666666666666
 40
0.7916666666666666
 40
0.8333333333333334
 40
0.8333333333333334
 40
0.8333333333333334
 40
0.8333333333333334
 40
0.875
 40
0.875
 40
0.875
 40
0.875
 40
0.9166666666666666
 40
0.9166666666666666
 40
0.9166666666666666
 40
0.9166666666666666
 40
1.0
 40
1.0
 40
1.0
 40
1.0
 10
-22.8401
 20
-14.7348
 30
0.0
 10
-22.8401
 20
-14.7348
 30
0.0
 10
-24.3209
 20
-14.7166
 30
0.0
 10
-24.3209
 20
-14.7166
 30
0.0
 10
-24.3209
 20
-14.7166
 30
0.0
 10
-24.3209
 20
-14.7166
 30
0.0
 10
-24.3209
 20
-13.0861
 30
0.0
 10
-24.3209
 20
-13.0861
 30
0.0
 10
-24.3209
 20
-13.0861
 30
0.0
 10
-24.3209
 20
-13.0861
 30
0.0
 10
-24.3573
 20
-12.9028
 30
0.0
 10
-24.3573
 20
-12.9028
 30
0.0
 10
-24.3573
 20
-12.9028
 30
0.0
 10
-24.3573
 20
-12.9028
 30
0.0
 10
-24.4124
 20
-12.7381
 30
0.0
 10
-24.4124
 20
-12.7381
 30
0.0
 10
-24.4124
 20
-12.7381
 30
0.0
 10
-24.4124
 20
-12.7381
 30
0.0
 10
-24.6135
 20
-12.5916
 30
0.0
 10
-24.6135
 20
-12.5916
 30
0.0
 10
-24.6135
 20
-12.5916
 30
0.0
 10
-24.6135
 20
-12.5916
 30
0.0
 10
-24.8879
 20
-12.6098
 30
0.0
 10
-24.8879
 20
-12.6098
 30
0.0
 10
-24.8879
 20
-12.6098
 30
0.0
 10
-24.8879
 20
-12.6098
 30
0.0
 10
-24.9976
 20
-12.7199
 30
0.0
 10
-24.9976
 20
-12.7199
 30
0.0
 10
-24.9976
 20
-12.7199
 30
0.0
 10
-24.9976
 20
-12.7199
 30
0.0
 10
-25.0704
 20
-12.9578
 30
0.0
 10
-25.0704
 20
-12.9578
 30
0.0
 10
-25.0704
 20
-12.9578
 30
0.0
 10
-25.0704
 20
-12.9578
 30
0.0
 10
-25.0704
 20
-14.7166
 30
0.0
 10
-25.0704
 20
-14.7166
 30
0.0
 10
-25.0704
 20
-14.7166
 30
0.0
 10
-25.0704
 20
-14.7166
 30
0.0
 10
-28.7455
 20
-14.7166
 30
0.0
 10
-28.7455
 20
-14.7166
 30
0.0
 10
-28.7455
 20
-14.7166
 30
0.0
 10
-28.7455
 20
-14.7166
 30
0.0
 10
-28.7471
 20
-13.0606
 30
0.0
 10
-28.7471
 20
-13.0606
 30
0.0
 10
-28.7471
 20
-13.0606
 30
0.0
 10
-28.7471
 20
-12.8024
 30
0.0
 10
-28.9564
 20
-12.5932
 30
0.0
 10
-29.2142
 20
-12.5932
 30
0.0
 10
-29.2142
 20
-12.5932
 30
0.0
 10
-29.4724
 20
-12.5932
 30
0.0
 10
-29.6816
 20
-12.8024
 30
0.0
 10
-29.6816
 20
-13.0606
 30
0.0
 10
-29.6816
 20
-13.0606
 30
0.0
 10
-29.6816
 20
-13.0606
 30
0.0
 10
-29.678
 20
-14.7166
 30
0.0
 10
-29.678
 20
-14.7166
 30
0.0
 10
-29.678
 20
-14.7166
 30
0.0
 10
-29.678
 20
-14.7166
 30
0.0
 10
-33.4263
 20
-14.7166
 30
0.0
 10
-33.4263
 20
-14.7166
 30
0.0
 10
-33.4263
 20
-14.7166
 30
0.0
 10
-33.4263
 20
-14.7166
 30
0.0
 10
-33.4077
 20
-12.9578
 30
0.0
 10
-33.4077
 20
-12.9578
 30
0.0
 10
-33.4077
 20
-12.9578
 30
0.0
 10
-33.4077
 20
-12.9578
 30
0.0
 10
-33.5174
 20
-12.7381
 30
0.0
 10
-33.5174
 20
-12.7381
 30
0.0
 10
-33.5174
 20
-12.7381
 30
0.0
 10
-33.5174
 20
-12.7381
 30
0.0
 10
-33.7003
 20
-12.6098
 30
0.0
 10
-33.7003
 20
-12.6098
 30
0.0
 10
-33.7003
 20
-12.6098
 30
0.0
 10
-33.7003
 20
-12.6098
 30
0.0
 10
-33.9196
 20
-12.6098
 30
0.0
 10
-33.9196
 20
-12.6098
 30
0.0
 10
-33.9196
 20
-12.6098
 30
0.0
 10
-33.9196
 20
-12.6098
 30
0.0
 10
-34.0479
 20
-12.8113
 30
0.0
 10
-34.0479
 20
-12.8113
 30
0.0
 10
-34.0479
 20
-12.8113
 30
0.0
 10
-34.0479
 20
-12.8113
 30
0.0
 10
-34.0843
 20
-13.0493
 30
0.0
 10
-34.0843
 20
-13.0493
 30
0.0
 10
-34.0843
 20
-13.0493
 30
0.0
 10
-34.0843
 20
-13.0493
 30
0.0
 10
-34.0843
 20
-14.7348
 30
0.0
 10
-34.0843
 20
-14.7348
 30
0.0
 10
-34.0843
 20
-14.7348
 30
0.0
 10
-34.0843
 20
-14.7348
 30
0.0
 10
-35.5834
 20
-14.7166
 30
0.0
 10
-35.5834
 20
-14.7166
 30
0.0
  0
SPLINE
  5
86
330
1F
100
AcDbEntity
  8
DEFAULT_1
 62
   250
100
AcDbSpline
210
0.0
220
0.0
230
1.0
 70
     8
 71
     3
 72
    32
 73
    28
 74
     0
 42
0.0000000001
 43
0.0000000001
 40
0.0
 40
0.0
 40
0.0
 40
0.0
 40
0.125
 40
0.125
 40
0.125
 40
0.125
 40
0.25
 40
0.25
 40
0.25
 40
0.25
 40
0.375
 40
0.375
 40
0.375
 40
0.375
 40
0.5
 40
0.5
 40
0.5
 40
0.5
 40
0.625
 40
0.625
 40
0.625
 40
0.625
 40
0.75
 40
0.75
 40
0.75
 40
0.75
 40
1.0
 40
1.0
 40
1.0
 40
1.0
 10
-22.9558
 20
-14.7818
 30
0.0
 10
-22.9558
 20
-14.7818
 30
0.0
 10
-22.9077
 20
-11.8927
 30
0.0
 10
-22.9077
 20
-11.8927
 30
0.0
 10
-22.9077
 20
-11.8927
 30
0.0
 10
-22.9077
 20
-11.6345
 30
0.0
 10
-23.1169
 20
-11.4253
 30
0.0
 10
-23.3751
 20
-11.4253
 30
0.0
 10
-23.3751
 20
-11.4253
 30
0.0
 10
-23.3751
 20
-11.4253
 30
0.0
 10
-35.0063
 20
-11.4277
 30
0.0
 10
-35.0063
 20
-11.4277
 30
0.0
 10
-35.0063
 20
-11.4277
 30
0.0
 10
-35.0063
 20
-11.4277
 30
0.0
 10
-35.3211
 20
-11.5066
 30
0.0
 10
-35.3211
 20
-11.5066
 30
0.0
 10
-35.3211
 20
-11.5066
 30
0.0
 10
-35.3211
 20
-11.5066
 30
0.0
 10
-35.4591
 20
-11.7433
 30
0.0
 10
-35.4591
 20
-11.7433
 30
0.0
 10
-35.4591
 20
-11.7433
 30
0.0
 10
-35.4591
 20
-11.7433
 30
0.0
 10
-35.5182
 20
-12.0987
 30
0.0
 10
-35.5182
 20
-12.0987
 30
0.0
 10
-35.5182
 20
-12.0987
 30
0.0
 10
-35.5182
 20
-12.0987
 30
0.0
 10
-35.4984
 20
-14.7619
 30
0.0
 10
-35.4984
 20
-14.7619
 30
0.0
  0
SPLINE
  5
87
330
1F
100
AcDbEntity
  8
DEFAULT_1
 62
   250
100
AcDbSpline
210
0.0
220
0.0
230
1.0
 70
     8
 71
     3
 72
    16
 73
    12
 74
     0
 42
0.0000000001
 43
0.0000000001
 40
0.0
 40
0.0
 40
0.0
 40
0.0
 40
0.25
 40
0.25
 40
0.25
 40
0.25
 40
0.5
 40
0.5
 40
0.5
 40
0.5
 40
1.0
 40
1.0
 40
1.0
 40
1.0
 10
-8.418
 20
-19.6282
 30
0.0
 10
-8.418
 20
-19.6282
 30
0.0
 10
-8.4973
 20
-22.4695
 30
0.0
 10
-8.4973
 20
-22.4695
 30
0.0
 10
-8.4973
 20
-22.4695
 30
0.0
 10
-8.4973
 20
-22.4695
 30
0.0
 10
-21.3438
 20
-22.4695
 30
0.0
 10
-21.3438
 20
-22.4695
 30
0.0
 10
-21.3438
 20
-22.4695
 30
0.0
 10
-21.3438
 20
-22.4695
 30
0.0
 10
-21.381
 20
-19.6464
 30
0.0
 10
-21.381
 20
-19.6464
 30
0.0
  0
SPLINE
  5
88
330
1F
100
AcDbEntity
  8
DEFAULT_1
 62
   250
100
AcDbSpline
210
0.0
220
0.0
230
1.0
 70
     8
 71
     3
 72
    96
 73
    92
 74
     0
 42
0.0000000001
 43
0.0000000001
 40
0.0
 40
0.0
 40
0.0
 40
0.0
 40
0.0416666666666667
 40
0.0416666666666667
 40
0.0416666666666667
 40
0.0416666666666667
 40
0.0833333333333333
 40
0.0833333333333333
 40
0.0833333333333333
 40
0.0833333333333333
 40
0.125
 40
0.125
 40
0.125
 40
0.125
 40
0.1666666666666667
 40
0.1666666666666667
 40
0.1666666666666667
 40
0.1666666666666667
 40
0.2083333333333333
 40
0.2083333333333333
 40
0.2083333333333333
 40
0.2083333333333333
 40
0.25
 40
0.25
 40
0.25
 40
0.25
 40
0.2916666666666667
 40
0.2916666666666667
 40
0.2916666666666667
 40
0.2916666666666667
 40
0.3333333333333333
 40
0.3333333333333333
 40
0.3333333333333333
 40
0.3333333333333333
 40
0.375
 40
0.375
 40
0.375
 40
0.375
 40
0.4166666666666667
 40
0.4166666666666667
 40
0.4166666666666667
 40
0.4166666666666667
 40
0.4583333333333333
 40
0.4583333333333333
 40
0.4583333333333333
 40
0.4583333333333333
 40
0.5
 40
0.5
 40
0.5
 40
0.5
 40
0.5416666666666666
 40
0.5416666666666666
 40
0.5416666666666666
 40
0.5416666666666666
 40
0.5833333333333334
 40
0.5833333333333334
 40
0.5833333333333334
 40
0.5833333333333334
 40
0.625
 40
0.625
 40
0.625
 40
0.625
 40
0.6666666666666666
 40
0.6666666666666666
 40
0.6666666666666666
 40
0.6666666666666666
 40
0.7083333333333334
 40
0.7083333333333334
 40
0.7083333333333334
 40
0.7083333333333334
 40
0.75
 40
0.75
 40
0.75
 40
0.75
 40
0.7916666666666666
 40
0.7916666666666666
 40
0.7916666666666666
 40
0.7916666666666666
 40
0.8333333333333334
 40
0.8333333333333334
 40
0.8333333333333334
 40
0.8333333333333334
 40
0.875
 40
0.875
 40
0.875
 40
0.875
 40
0.9166666666666666
 40
0.9166666666666666
 40
0.9166666666666666
 40
0.9166666666666666
 40
1.0
 40
1.0
 40
1.0
 40
1.0
 10
-8.5463
 20
-21.8082
 30
0.0
 10
-8.5463
 20
-21.8082
 30
0.0
 10
-10.0271
 20
-21.79
 30
0.0
 10
-10.0271
 20
-21.79
 30
0.0
 10
-10.0271
 20
-21.79
 30
0.0
 10
-10.0271
 20
-21.79
 30
0.0
 10
-10.0271
 20
-20.1595
 30
0.0
 10
-10.0271
 20
-20.1595
 30
0.0
 10
-10.0271
 20
-20.1595
 30
0.0
 10
-10.0271
 20
-20.1595
 30
0.0
 10
-10.0635
 20
-19.9762
 30
0.0
 10
-10.0635
 20
-19.9762
 30
0.0
 10
-10.0635
 20
-19.9762
 30
0.0
 10
-10.0635
 20
-19.9762
 30
0.0
 10
-10.1185
 20
-19.8115
 30
0.0
 10
-10.1185
 20
-19.8115
 30
0.0
 10
-10.1185
 20
-19.8115
 30
0.0
 10
-10.1185
 20
-19.8115
 30
0.0
 10
-10.3197
 20
-19.665
 30
0.0
 10
-10.3197
 20
-19.665
 30
0.0
 10
-10.3197
 20
-19.665
 30
0.0
 10
-10.3197
 20
-19.665
 30
0.0
 10
-10.5941
 20
-19.6832
 30
0.0
 10
-10.5941
 20
-19.6832
 30
0.0
 10
-10.5941
 20
-19.6832
 30
0.0
 10
-10.5941
 20
-19.6832
 30
0.0
 10
-10.7037
 20
-19.7933
 30
0.0
 10
-10.7037
 20
-19.7933
 30
0.0
 10
-10.7037
 20
-19.7933
 30
0.0
 10
-10.7037
 20
-19.7933
 30
0.0
 10
-10.7766
 20
-20.0312
 30
0.0
 10
-10.7766
 20
-20.0312
 30
0.0
 10
-10.7766
 20
-20.0312
 30
0.0
 10
-10.7766
 20
-20.0312
 30
0.0
 10
-10.7766
 20
-21.79
 30
0.0
 10
-10.7766
 20
-21.79
 30
0.0
 10
-10.7766
 20
-21.79
 30
0.0
 10
-10.7766
 20
-21.79
 30
0.0
 10
-14.4517
 20
-21.79
 30
0.0
 10
-14.4517
 20
-21.79
 30
0.0
 10
-14.4517
 20
-21.79
 30
0.0
 10
-14.4517
 20
-21.79
 30
0.0
 10
-14.4533
 20
-20.134
 30
0.0
 10
-14.4533
 20
-20.134
 30
0.0
 10
-14.4533
 20
-20.134
 30
0.0
 10
-14.4533
 20
-19.8758
 30
0.0
 10
-14.6625
 20
-19.6666
 30
0.0
 10
-14.9203
 20
-19.6666
 30
0.0
 10
-14.9203
 20
-19.6666
 30
0.0
 10
-15.1785
 20
-19.6666
 30
0.0
 10
-15.3878
 20
-19.8758
 30
0.0
 10
-15.3878
 20
-20.134
 30
0.0
 10
-15.3878
 20
-20.134
 30
0.0
 10
-15.3878
 20
-20.134
 30
0.0
 10
-15.3841
 20
-21.79
 30
0.0
 10
-15.3841
 20
-21.79
 30
0.0
 10
-15.3841
 20
-21.79
 30
0.0
 10
-15.3841
 20
-21.79
 30
0.0
 10
-19.1325
 20
-21.79
 30
0.0
 10
-19.1325
 20
-21.79
 30
0.0
 10
-19.1325
 20
-21.79
 30
0.0
 10
-19.1325
 20
-21.79
 30
0.0
 10
-19.1138
 20
-20.0312
 30
0.0
 10
-19.1138
 20
-20.0312
 30
0.0
 10
-19.1138
 20
-20.0312
 30
0.0
 10
-19.1138
 20
-20.0312
 30
0.0
 10
-19.2235
 20
-19.8115
 30
0.0
 10
-19.2235
 20
-19.8115
 30
0.0
 10
-19.2235
 20
-19.8115
 30
0.0
 10
-19.2235
 20
-19.8115
 30
0.0
 10
-19.4064
 20
-19.6832
 30
0.0
 10
-19.4064
 20
-19.6832
 30
0.0
 10
-19.4064
 20
-19.6832
 30
0.0
 10
-19.4064
 20
-19.6832
 30
0.0
 10
-19.6258
 20
-19.6832
 30
0.0
 10
-19.6258
 20
-19.6832
 30
0.0
 10
-19.6258
 20
-19.6832
 30
0.0
 10
-19.6258
 20
-19.6832
 30
0.0
 10
-19.7541
 20
-19.8847
 30
0.0
 10
-19.7541
 20
-19.8847
 30
0.0
 10
-19.7541
 20
-19.8847
 30
0.0
 10
-19.7541
 20
-19.8847
 30
0.0
 10
-19.7905
 20
-20.1227
 30
0.0
 10
-19.7905
 20
-20.1227
 30
0.0
 10
-19.7905
 20
-20.1227
 30
0.0
 10
-19.7905
 20
-20.1227
 30
0.0
 10
-19.7905
 20
-21.8082
 30
0.0
 10
-19.7905
 20
-21.8082
 30
0.0
 10
-19.7905
 20
-21.8082
 30
0.0
 10
-19.7905
 20
-21.8082
 30
0.0
 10
-21.2895
 20
-21.79
 30
0.0
 10
-21.2895
 20
-21.79
 30
0.0
  0
SPLINE
  5
89
330
1F
100
AcDbEntity
  8
DEFAULT_1
 62
   250
100
AcDbSpline
210
0.0
220
0.0
230
1.0
 70
     8
 71
     3
 72
    32
 73
    28
 74
     0
 42
0.0000000001
 43
0.0000000001
 40
0.0
 40
0.0
 40
0.0
 40
0.0
 40
0.125
 40
0.125
 40
0.125
 40
0.125
 40
0.25
 40
0.25
 40
0.25
 40
0.25
 40
0.375
 40
0.375
 40
0.375
 40
0.375
 40
0.5
 40
0.5
 40
0.5
 40
0.5
 40
0.625
 40
0.625
 40
0.625
 40
0.625
 40
0.75
 40
0.75
 40
0.75
 40
0.75
 40
1.0
 40
1.0
 40
1.0
 40
1.0
 10
-8.662
 20
-21.8552
 30
0.0
 10
-8.662
 20
-21.8552
 30
0.0
 10
-8.6139
 20
-18.9661
 30
0.0
 10
-8.6139
 20
-18.9661
 30
0.0
 10
-8.6139
 20
-18.9661
 30
0.0
 10
-8.6139
 20
-18.7079
 30
0.0
 10
-8.8231
 20
-18.4987
 30
0.0
 10
-9.0813
 20
-18.4987
 30
0.0
 10
-9.0813
 20
-18.4987
 30
0.0
 10
-9.0813
 20
-18.4987
 30
0.0
 10
-20.7124
 20
-18.5011
 30
0.0
 10
-20.7124
 20
-18.5011
 30
0.0
 10
-20.7124
 20
-18.5011
 30
0.0
 10
-20.7124
 20
-18.5011
 30
0.0
 10
-21.0273
 20
-18.58
 30
0.0
 10
-21.0273
 20
-18.58
 30
0.0
 10
-21.0273
 20
-18.58
 30
0.0
 10
-21.0273
 20
-18.58
 30
0.0
 10
-21.1653
 20
-18.8168
 30
0.0
 10
-21.1653
 20
-18.8168
 30
0.0
 10
-21.1653
 20
-18.8168
 30
0.0
 10
-21.1653
 20
-18.8168
 30
0.0
 10
-21.2244
 20
-19.1721
 30
0.0
 10
-21.2244
 20
-19.1721
 30
0.0
 10
-21.2244
 20
-19.1721
 30
0.0
 10
-21.2244
 20
-19.1721
 30
0.0
 10
-21.2045
 20
-21.8353
 30
0.0
 10
-21.2045
 20
-21.8353
 30
0.0
  0
SPLINE
  5
8A
330
1F
100
AcDbEntity
  8
DEFAULT_1
 62
   250
100
AcDbSpline
210
0.0
220
0.0
230
1.0
 70
     8
 71
     3
 72
    48
 73
    44
 74
     0
 42
0.0000000001
 43
0.0000000001
 40
0.0
 40
0.0
 40
0.0
 40
0.0
 40
0.0833333333333333
 40
0.0833333333333333
 40
0.0833333333333333
 40
0.0833333333333333
 40
0.1666666666666667
 40
0.1666666666666667
 40
0.1666666666666667
 40
0.1666666666666667
 40
0.25
 40
0.25
 40
0.25
 40
0.25
 40
0.3333333333333333
 40
0.3333333333333333
 40
0.3333333333333333
 40
0.3333333333333333
 40
0.4166666666666667
 40
0.4166666666666667
 40
0.4166666666666667
 40
0.4166666666666667
 40
0.5
 40
0.5
 40
0.5
 40
0.5
 40
0.5833333333333334
 40
0.5833333333333334
 40
0.5833333333333334
 40
0.5833333333333334
 40
0.6666666666666666
 40
0.6666666666666666
 40
0.6666666666666666
 40
0.6666666666666666
 40
0.75
 40
0.75
 40
0.75
 40
0.75
 40
0.8333333333333334
 40
0.8333333333333334
 40
0.8333333333333334
 40
0.8333333333333334
 40
1.0
 40
1.0
 40
1.0
 40
1.0
 10
-24.3729
 20
-26.1779
 30
0.0
 10
-24.3729
 20
-26.1779
 30
0.0
 10
-25.4445
 20
-26.2827
 30
0.0
 10
-25.4445
 20
-26.2827
 30
0.0
 10
-25.4445
 20
-26.2827
 30
0.0
 10
-25.4445
 20
-26.2827
 30
0.0
 10
-27.1175
 20
-26.3089
 30
0.0
 10
-27.1175
 20
-26.3089
 30
0.0
 10
-27.1175
 20
-26.3089
 30
0.0
 10
-27.1175
 20
-26.3089
 30
0.0
 10
-29.1961
 20
-26.2714
 30
0.0
 10
-29.1961
 20
-26.2714
 30
0.0
 10
-29.1961
 20
-26.2714
 30
0.0
 10
-29.1961
 20
-26.2714
 30
0.0
 10
-29.9516
 20
-26.2623
 30
0.0
 10
-29.9516
 20
-26.2623
 30
0.0
 10
-29.9516
 20
-26.2623
 30
0.0
 10
-29.9516
 20
-26.2623
 30
0.0
 10
-30.6849
 20
-26.2499
 30
0.0
 10
-30.6849
 20
-26.2499
 30
0.0
 10
-30.6849
 20
-26.2499
 30
0.0
 10
-30.6849
 20
-26.2499
 30
0.0
 10
-31.3784
 20
-26.2351
 30
0.0
 10
-31.3784
 20
-26.2351
 30
0.0
 10
-31.3784
 20
-26.2351
 30
0.0
 10
-31.3784
 20
-26.2351
 30
0.0
 10
-32.0154
 20
-26.2201
 30
0.0
 10
-32.0154
 20
-26.2201
 30
0.0
 10
-32.0154
 20
-26.2201
 30
0.0
 10
-32.0154
 20
-26.2201
 30
0.0
 10
-32.582
 20
-26.205
 30
0.0
 10
-32.582
 20
-26.205
 30
0.0
 10
-32.582
 20
-26.205
 30
0.0
 10
-32.582
 20
-26.205
 30
0.0
 10
-33.0644
 20
-26.1917
 30
0.0
 10
-33.0644
 20
-26.1917
 30
0.0
 10
-33.0644
 20
-26.1917
 30
0.0
 10
-33.0644
 20
-26.1917
 30
0.0
 10
-33.4517
 20
-26.1805
 30
0.0
 10
-33.4517
 20
-26.1805
 30
0.0
 10
-33.4517
 20
-26.1805
 30
0.0
 10
-33.4517
 20
-26.1805
 30
0.0
 10
-33.9925
 20
-26.1516
 30
0.0
 10
-33.9925
 20
-26.1516
 30
0.0
  0
SPLINE
  5
8B
330
1F
100
AcDbEntity
  8
DEFAULT_1
 62
   250
100
AcDbSpline
210
0.0
220
0.0
230
1.0
 70
     8
 71
     3
 72
    16
 73
    12
 74
     0
 42
0.0000000001
 43
0.0000000001
 40
0.0
 40
0.0
 40
0.0
 40
0.0
 40
0.25
 40
0.25
 40
0.25
 40
0.25
 40
0.5
 40
0.5
 40
0.5
 40
0.5
 40
1.0
 40
1.0
 40
1.0
 40
1.0
 10
-34.8575
 20
-15.4201
 30
0.0
 10
-34.8575
 20
-15.4201
 30
0.0
 10
-34.8498
 20
-16.1856
 30
0.0
 10
-34.8498
 20
-16.1856
 30
0.0
 10
-34.8498
 20
-16.1856
 30
0.0
 10
-34.8498
 20
-16.1856
 30
0.0
 10
-23.4842
 20
-16.1856
 30
0.0
 10
-23.4842
 20
-16.1856
 30
0.0
 10
-23.4842
 20
-16.1856
 30
0.0
 10
-23.4842
 20
-16.1856
 30
0.0
 10
-23.4984
 20
-15.4201
 30
0.0
 10
-23.4984
 20
-15.4201
 30
0.0
  0
SPLINE
  5
8C
330
1F
100
AcDbEntity
  8
DEFAULT_1
 62
   250
100
AcDbSpline
210
0.0
220
0.0
230
1.0
 70
     8
 71
     3
 72
    16
 73
    12
 74
     0
 42
0.0000000001
 43
0.0000000001
 40
0.0
 40
0.0
 40
0.0
 40
0.0
 40
0.25
 40
0.25
 40
0.25
 40
0.25
 40
0.5
 40
0.5
 40
0.5
 40
0.5
 40
1.0
 40
1.0
 40
1.0
 40
1.0
 10
-20.5362
 20
-22.5617
 30
0.0
 10
-20.5362
 20
-22.5617
 30
0.0
 10
-20.5338
 20
-23.2549
 30
0.0
 10
-20.5338
 20
-23.2549
 30
0.0
 10
-20.5338
 20
-23.2549
 30
0.0
 10
-20.5338
 20
-23.2549
 30
0.0
 10
-9.1494
 20
-23.2549
 30
0.0
 10
-9.1494
 20
-23.2549
 30
0.0
 10
-9.1494
 20
-23.2549
 30
0.0
 10
-9.1494
 20
-23.2549
 30
0.0
 10
-9.1703
 20
-22.5189
 30
0.0
 10
-9.1703
 20
-22.5189
 30
0.0
  0
SPLINE
  5
8D
330
1F
100
AcDbEntity
  8
DEFAULT_1
 62
   250
100
AcDbSpline
210
0.0
220
0.0
230
1.0
 70
     8
 71
     3
 72
    28
 73
    24
 74
     0
 42
0.0000000001
 43
0.0000000001
 40
0.0
 40
0.0
 40
0.0
 40
0.0
 40
0.1428571428571428
 40
0.1428571428571428
 40
0.1428571428571428
 40
0.1428571428571428
 40
0.2857142857142857
 40
0.2857142857142857
 40
0.2857142857142857
 40
0.2857142857142857
 40
0.4285714285714285
 40
0.4285714285714285
 40
0.4285714285714285
 40
0.4285714285714285
 40
0.5714285714285714
 40
0.5714285714285714
 40
0.5714285714285714
 40
0.5714285714285714
 40
0.7142857142857143
 40
0.7142857142857143
 40
0.7142857142857143
 40
0.7142857142857143
 40
1.0
 40
1.0
 40
1.0
 40
1.0
 10
-23.8238
 20
-16.1977
 30
0.0
 10
-23.8238
 20
-16.1977
 30
0.0
 10
-23.85
 20
-25.549
 30
0.0
 10
-23.85
 20
-25.549
 30
0.0
 10
-23.85
 20
-25.549
 30
0.0
 10
-23.85
 20
-25.549
 30
0.0
 10
-24.3165
 20
-26.1601
 30
0.0
 10
-24.3165
 20
-26.1601
 30
0.0
 10
-24.3165
 20
-26.1601
 30
0.0
 10
-23.8745
 20
-27.0304
 30
0.0
 10
-22.9812
 20
-27.5787
 30
0.0
 10
-22.0052
 20
-27.5787
 30
0.0
 10
-22.0052
 20
-27.5787
 30
0.0
 10
-21.0292
 20
-27.5787
 30
0.0
 10
-20.1359
 20
-27.0304
 30
0.0
 10
-19.694
 20
-26.1601
 30
0.0
 10
-19.694
 20
-26.1601
 30
0.0
 10
-19.694
 20
-26.1601
 30
0.0
 10
-20.138
 20
-25.549
 30
0.0
 10
-20.138
 20
-25.549
 30
0.0
 10
-20.138
 20
-25.549
 30
0.0
 10
-20.138
 20
-25.549
 30
0.0
 10
-20.1117
 20
-23.3751
 30
0.0
 10
-20.1117
 20
-23.3751
 30
0.0
  0
SPLINE
  5
8E
330
1F
100
AcDbEntity
  8
DEFAULT_1
 62
   250
100
AcDbSpline
210
0.0
220
0.0
230
1.0
 70
     8
 71
     3
 72
    60
 73
    56
 74
     0
 42
0.0000000001
 43
0.0000000001
 40
0.0
 40
0.0
 40
0.0
 40
0.0
 40
0.0666666666666667
 40
0.0666666666666667
 40
0.0666666666666667
 40
0.0666666666666667
 40
0.1333333333333333
 40
0.1333333333333333
 40
0.1333333333333333
 40
0.1333333333333333
 40
0.2
 40
0.2
 40
0.2
 40
0.2
 40
0.2666666666666667
 40
0.2666666666666667
 40
0.2666666666666667
 40
0.2666666666666667
 40
0.3333333333333333
 40
0.3333333333333333
 40
0.3333333333333333
 40
0.3333333333333333
 40
0.4
 40
0.4
 40
0.4
 40
0.4
 40
0.4666666666666667
 40
0.4666666666666667
 40
0.4666666666666667
 40
0.4666666666666667
 40
0.5333333333333333
 40
0.5333333333333333
 40
0.5333333333333333
 40
0.5333333333333333
 40
0.6
 40
0.6
 40
0.6
 40
0.6
 40
0.6666666666666666
 40
0.6666666666666666
 40
0.6666666666666666
 40
0.6666666666666666
 40
0.7333333333333333
 40
0.7333333333333333
 40
0.7333333333333333
 40
0.7333333333333333
 40
0.8
 40
0.8
 40
0.8
 40
0.8
 40
0.8666666666666667
 40
0.8666666666666667
 40
0.8666666666666667
 40
0.8666666666666667
 40
1.0
 40
1.0
 40
1.0
 40
1.0
 10
-34.4808
 20
-16.1322
 30
0.0
 10
-34.4808
 20
-16.1322
 30
0.0
 10
-34.4808
 20
-25.5417
 30
0.0
 10
-34.4808
 20
-25.5417
 30
0.0
 10
-34.4808
 20
-25.5417
 30
0.0
 10
-34.4808
 20
-25.5417
 30
0.0
 10
-33.9651
 20
-26.1649
 30
0.0
 10
-33.9651
 20
-26.1649
 30
0.0
 10
-33.9651
 20
-26.1649
 30
0.0
 10
-33.4827
 20
-31.061
 30
0.0
 10
-30.0646
 20
-35.169
 30
0.0
 10
-25.3376
 20
-36.5332
 30
0.0
 10
-25.3376
 20
-36.5332
 30
0.0
 10
-25.3376
 20
-36.5332
 30
0.0
 10
-18.6241
 20
-36.6055
 30
0.0
 10
-18.6241
 20
-36.6055
 30
0.0
 10
-18.6241
 20
-36.6055
 30
0.0
 10
-18.6241
 20
-36.6055
 30
0.0
 10
-17.5923
 20
-36.1919
 30
0.0
 10
-17.5923
 20
-36.1919
 30
0.0
 10
-17.5923
 20
-36.1919
 30
0.0
 10
-17.5923
 20
-36.1919
 30
0.0
 10
-15.8036
 20
-35.2956
 30
0.0
 10
-15.8036
 20
-35.2956
 30
0.0
 10
-15.8036
 20
-35.2956
 30
0.0
 10
-15.8036
 20
-35.2956
 30
0.0
 10
-14.2903
 20
-34.1927
 30
0.0
 10
-14.2903
 20
-34.1927
 30
0.0
 10
-14.2903
 20
-34.1927
 30
0.0
 10
-14.2903
 20
-34.1927
 30
0.0
 10
-12.9488
 20
-32.9174
 30
0.0
 10
-12.9488
 20
-32.9174
 30
0.0
 10
-12.9488
 20
-32.9174
 30
0.0
 10
-12.9488
 20
-32.9174
 30
0.0
 10
-11.848
 20
-31.4354
 30
0.0
 10
-11.848
 20
-31.4354
 30
0.0
 10
-11.848
 20
-31.4354
 30
0.0
 10
-11.848
 20
-31.4354
 30
0.0
 10
-10.7474
 20
-29.195
 30
0.0
 10
-10.7474
 20
-29.195
 30
0.0
 10
-10.7474
 20
-29.195
 30
0.0
 10
-10.7474
 20
-29.195
 30
0.0
 10
-10.2659
 20
-27.4372
 30
0.0
 10
-10.2659
 20
-27.4372
 30
0.0
 10
-10.2659
 20
-27.4372
 30
0.0
 10
-10.2659
 20
-27.4372
 30
0.0
 10
-10.025
 20
-26.0931
 30
0.0
 10
-10.025
 20
-26.0931
 30
0.0
 10
-10.025
 20
-26.0931
 30
0.0
 10
-10.025
 20
-26.0931
 30
0.0
 10
-9.5435
 20
-25.6795
 30
0.0
 10
-9.5435
 20
-25.6795
 30
0.0
 10
-9.5435
 20
-25.6795
 30
0.0
 10
-9.5435
 20
-25.6795
 30
0.0
 10
-9.5435
 20
-23.3358
 30
0.0
 10
-9.5435
 20
-23.3358
 30
0.0
  0
SPLINE
  5
8F
330
1F
100
AcDbEntity
  8
DEFAULT_1
 62
   250
100
AcDbSpline
210
0.0
220
0.0
230
1.0
 70
     8
 71
     3
 72
    48
 73
    44
 74
     0
 42
0.0000000001
 43
0.0000000001
 40
0.0
 40
0.0
 40
0.0
 40
0.0
 40
0.0833333333333333
 40
0.0833333333333333
 40
0.0833333333333333
 40
0.0833333333333333
 40
0.1666666666666667
 40
0.1666666666666667
 40
0.1666666666666667
 40
0.1666666666666667
 40
0.25
 40
0.25
 40
0.25
 40
0.25
 40
0.3333333333333333
 40
0.3333333333333333
 40
0.3333333333333333
 40
0.3333333333333333
 40
0.4166666666666667
 40
0.4166666666666667
 40
0.4166666666666667
 40
0.4166666666666667
 40
0.5
 40
0.5
 40
0.5
 40
0.5
 40
0.5833333333333334
 40
0.5833333333333334
 40
0.5833333333333334
 40
0.5833333333333334
 40
0.6666666666666666
 40
0.6666666666666666
 40
0.6666666666666666
 40
0.6666666666666666
 40
0.75
 40
0.75
 40
0.75
 40
0.75
 40
0.8333333333333334
 40
0.8333333333333334
 40
0.8333333333333334
 40
0.8333333333333334
 40
1.0
 40
1.0
 40
1.0
 40
1.0
 10
-19.6582
 20
-26.1593
 30
0.0
 10
-19.6582
 20
-26.1593
 30
0.0
 10
-19.0994
 20
-26.1873
 30
0.0
 10
-19.0994
 20
-26.1873
 30
0.0
 10
-19.0994
 20
-26.1873
 30
0.0
 10
-19.0994
 20
-26.1873
 30
0.0
 10
-18.6967
 20
-26.2118
 30
0.0
 10
-18.6967
 20
-26.2118
 30
0.0
 10
-18.6967
 20
-26.2118
 30
0.0
 10
-18.6967
 20
-26.2118
 30
0.0
 10
-18.1999
 20
-26.2351
 30
0.0
 10
-18.1999
 20
-26.2351
 30
0.0
 10
-18.1999
 20
-26.2351
 30
0.0
 10
-18.1999
 20
-26.2351
 30
0.0
 10
-17.6203
 20
-26.2543
 30
0.0
 10
-17.6203
 20
-26.2543
 30
0.0
 10
-17.6203
 20
-26.2543
 30
0.0
 10
-17.6203
 20
-26.2543
 30
0.0
 10
-16.9756
 20
-26.2679
 30
0.0
 10
-16.9756
 20
-26.2679
 30
0.0
 10
-16.9756
 20
-26.2679
 30
0.0
 10
-16.9756
 20
-26.2679
 30
0.0
 10
-16.2812
 20
-26.275
 30
0.0
 10
-16.2812
 20
-26.275
 30
0.0
 10
-16.2812
 20
-26.275
 30
0.0
 10
-16.2812
 20
-26.275
 30
0.0
 10
-15.5541
 20
-26.2762
 30
0.0
 10
-15.5541
 20
-26.2762
 30
0.0
 10
-15.5541
 20
-26.2762
 30
0.0
 10
-15.5541
 20
-26.2762
 30
0.0
 10
-14.814
 20
-26.2714
 30
0.0
 10
-14.814
 20
-26.2714
 30
0.0
 10
-14.814
 20
-26.2714
 30
0.0
 10
-14.814
 20
-26.2714
 30
0.0
 10
-12.8045
 20
-26.2694
 30
0.0
 10
-12.8045
 20
-26.2694
 30
0.0
 10
-12.8045
 20
-26.2694
 30
0.0
 10
-12.8045
 20
-26.2694
 30
0.0
 10
-11.2035
 20
-26.2041
 30
0.0
 10
-11.2035
 20
-26.2041
 30
0.0
 10
-11.2035
 20
-26.2041
 30
0.0
 10
-11.2035
 20
-26.2041
 30
0.0
 10
-10.0598
 20
-26.1386
 30
0.0
 10
-10.0598
 20
-26.1386
 30
0.0
  0
SPLINE
  5
90
330
1F
100
AcDbEntity
  8
DEFAULT_1
 62
   250
100
AcDbSpline
210
0.0
220
0.0
230
1.0
 70
     8
 71
     3
 72
    20
 73
    16
 74
     0
 42
0.0000000001
 43
0.0000000001
 40
0.0
 40
0.0
 40
0.0
 40
0.0
 40
0.2
 40
0.2
 40
0.2
 40
0.2
 40
0.4
 40
0.4
 40
0.4
 40
0.4
 40
0.6
 40
0.6
 40
0.6
 40
0.6
 40
1.0
 40
1.0
 40
1.0
 40
1.0
 10
-10.1404
 20
-18.6598
 30
0.0
 10
-10.1404
 20
-18.6598
 30
0.0
 10
-10.1404
 20
-14.1472
 30
0.0
 10
-10.1404
 20
-14.1472
 30
0.0
 10
-10.1404
 20
-14.1472
 30
0.0
 10
-10.1404
 20
-14.1472
 30
0.0
 10
-14.7635
 20
-9.4396
 30
0.0
 10
-14.7635
 20
-9.4396
 30
0.0
 10
-14.7635
 20
-9.4396
 30
0.0
 10
-14.7635
 20
-9.4396
 30
0.0
 10
-10.0581
 20
-14.3511
 30
0.0
 10
-10.0581
 20
-14.3511
 30
0.0
 10
-10.0581
 20
-14.3511
 30
0.0
 10
-10.0581
 20
-14.3511
 30
0.0
 10
30.7873
 20
-14.1545
 30
0.0
 10
30.7873
 20
-14.1545
 30
0.0
  0
SPLINE
  5
91
330
1F
100
AcDbEntity
  8
DEFAULT_1
 62
   250
100
AcDbSpline
210
0.0
220
0.0
230
1.0
 70
     8
 71
     3
 72
    16
 73
    12
 74
     0
 42
0.0000000001
 43
0.0000000001
 40
0.0
 40
0.0
 40
0.0
 40
0.0
 40
0.25
 40
0.25
 40
0.25
 40
0.25
 40
0.5
 40
0.5
 40
0.5
 40
0.5
 40
1.0
 40
1.0
 40
1.0
 40
1.0
 10
-19.469
 20
-18.5421
 30
0.0
 10
-19.469
 20
-18.5421
 30
0.0
 10
-19.5661
 20
-9.4343
 30
0.0
 10
-19.5661
 20
-9.4343
 30
0.0
 10
-19.5661
 20
-9.4343
 30
0.0
 10
-19.5661
 20
-6.8314
 30
0.0
 10
-17.4562
 20
-4.7214
 30
0.0
 10
-14.8533
 20
-4.7214
 30
0.0
 10
-14.8533
 20
-4.7214
 30
0.0
 10
-14.8533
 20
-4.7214
 30
0.0
 10
30.8529
 20
-4.6592
 30
0.0
 10
30.8529
 20
-4.6592
 30
0.0
  0
SPLINE
  5
92
330
1F
100
AcDbEntity
  8
DEFAULT_1
 62
   250
100
AcDbSpline
210
0.0
220
0.0
230
1.0
 70
     8
 71
     3
 72
    16
 73
    12
 74
     0
 42
0.0000000001
 43
0.0000000001
 40
0.0
 40
0.0
 40
0.0
 40
0.0
 40
0.25
 40
0.25
 40
0.25
 40
0.25
 40
0.5
 40
0.5
 40
0.5
 40
0.5
 40
1.0
 40
1.0
 40
1.0
 40
1.0
 10
37.1266
 20
-4.7247
 30
0.0
 10
37.1266
 20
-4.7247
 30
0.0
 10
46.4135
 20
-4.7214
 30
0.0
 10
46.4135
 20
-4.7214
 30
0.0
 10
46.4135
 20
-4.7214
 30
0.0
 10
46.4135
 20
-4.7214
 30
0.0
 10
46.4135
 20
-14.1472
 30
0.0
 10
46.4135
 20
-14.1472
 30
0.0
 10
46.4135
 20
-14.1472
 30
0.0
 10
46.4135
 20
-14.1472
 30
0.0
 10
37.0613
 20
-14.1545
 30
0.0
 10
37.0613
 20
-14.1545
 30
0.0
  0
SPLINE
  5
93
330
1F
100
AcDbEntity
  8
DEFAULT_1
 62
   250
100
AcDbSpline
210
0.0
220
0.0
230
1.0
 70
    11
 71
     3
 72
    84
 73
    80
 74
     0
 42
0.0000000001
 43
0.0000000001
 40
0.0
 40
0.0
 40
0.0
 40
0.0
 40
0.0476190476190476
 40
0.0476190476190476
 40
0.0476190476190476
 40
0.0476190476190476
 40
0.0952380952380952
 40
0.0952380952380952
 40
0.0952380952380952
 40
0.0952380952380952
 40
0.1428571428571428
 40
0.1428571428571428
 40
0.1428571428571428
 40
0.1428571428571428
 40
0.1904761904761905
 40
0.1904761904761905
 40
0.1904761904761905
 40
0.1904761904761905
 40
0.2380952380952381
 40
0.2380952380952381
 40
0.2380952380952381
 40
0.2380952380952381
 40
0.2857142857142857
 40
0.2857142857142857
 40
0.2857142857142857
 40
0.2857142857142857
 40
0.3333333333333333
 40
0.3333333333333333
 40
0.3333333333333333
 40
0.3333333333333333
 40
0.3809523809523809
 40
0.3809523809523809
 40
0.3809523809523809
 40
0.3809523809523809
 40
0.4285714285714285
 40
0.4285714285714285
 40
0.4285714285714285
 40
0.4285714285714285
 40
0.4761904761904762
 40
0.4761904761904762
 40
0.4761904761904762
 40
0.4761904761904762
 40
0.5238095238095238
 40
0.5238095238095238
 40
0.5238095238095238
 40
0.5238095238095238
 40
0.5714285714285714
 40
0.5714285714285714
 40
0.5714285714285714
 40
0.5714285714285714
 40
0.6190476190476191
 40
0.6190476190476191
 40
0.6190476190476191
 40
0.6190476190476191
 40
0.6666666666666666
 40
0.6666666666666666
 40
0.6666666666666666
 40
0.6666666666666666
 40
0.7142857142857143
 40
0.7142857142857143
 40
0.7142857142857143
 40
0.7142857142857143
 40
0.7619047619047619
 40
0.7619047619047619
 40
0.7619047619047619
 40
0.7619047619047619
 40
0.8095238095238095
 40
0.8095238095238095
 40
0.8095238095238095
 40
0.8095238095238095
 40
0.8571428571428571
 40
0.8571428571428571
 40
0.8571428571428571
 40
0.8571428571428571
 40
0.9047619047619048
 40
0.9047619047619048
 40
0.9047619047619048
 40
0.9047619047619048
 40
1.0
 40
1.0
 40
1.0
 40
1.0
 10
19.2236
 20
-9.9939
 30
0.0
 10
19.2236
 20
-9.9939
 30
0.0
 10
18.9645
 20
-9.7625
 30
0.0
 10
18.9645
 20
-9.7625
 30
0.0
 10
18.9645
 20
-9.7625
 30
0.0
 10
18.9645
 20
-9.7625
 30
0.0
 10
19.0802
 20
-9.6261
 30
0.0
 10
19.0802
 20
-9.6261
 30
0.0
 10
19.0802
 20
-9.6261
 30
0.0
 10
19.0802
 20
-9.6261
 30
0.0
 10
19.353
 20
-9.8683
 30
0.0
 10
19.353
 20
-9.8683
 30
0.0
 10
19.353
 20
-9.8683
 30
0.0
 10
19.4706
 20
-9.7893
 30
0.0
 10
19.5736
 20
-9.7362
 30
0.0
 10
19.6615
 20
-9.7084
 30
0.0
 10
19.6615
 20
-9.7084
 30
0.0
 10
19.7773
 20
-9.6717
 30
0.0
 10
19.9071
 20
-9.6534
 30
0.0
 10
20.0501
 20
-9.6534
 30
0.0
 10
20.0501
 20
-9.6534
 30
0.0
 10
20.257
 20
-9.6534
 30
0.0
 10
20.4414
 20
-9.6952
 30
0.0
 10
20.6027
 20
-9.779
 30
0.0
 10
20.6027
 20
-9.779
 30
0.0
 10
20.7646
 20
-9.8627
 30
0.0
 10
20.8868
 20
-9.9798
 30
0.0
 10
20.9696
 20
-10.1308
 30
0.0
 10
20.9696
 20
-10.1308
 30
0.0
 10
21.0519
 20
-10.2823
 30
0.0
 10
21.0933
 20
-10.4426
 30
0.0
 10
21.0933
 20
-10.6124
 30
0.0
 10
21.0933
 20
-10.6124
 30
0.0
 10
21.0933
 20
-10.7394
 30
0.0
 10
21.0755
 20
-10.8542
 30
0.0
 10
21.0397
 20
-10.9572
 30
0.0
 10
21.0397
 20
-10.9572
 30
0.0
 10
21.012
 20
-11.0362
 30
0.0
 10
20.9593
 20
-11.1284
 30
0.0
 10
20.8812
 20
-11.2343
 30
0.0
 10
20.8812
 20
-11.2343
 30
0.0
 10
20.8812
 20
-11.2343
 30
0.0
 10
21.1404
 20
-11.4657
 30
0.0
 10
21.1404
 20
-11.4657
 30
0.0
 10
21.1404
 20
-11.4657
 30
0.0
 10
21.1404
 20
-11.4657
 30
0.0
 10
21.0247
 20
-11.6021
 30
0.0
 10
21.0247
 20
-11.6021
 30
0.0
 10
21.0247
 20
-11.6021
 30
0.0
 10
21.0247
 20
-11.6021
 30
0.0
 10
20.7533
 20
-11.3594
 30
0.0
 10
20.7533
 20
-11.3594
 30
0.0
 10
20.7533
 20
-11.3594
 30
0.0
 10
20.6164
 20
-11.4497
 30
0.0
 10
20.4993
 20
-11.5099
 30
0.0
 10
20.4024
 20
-11.54
 30
0.0
 10
20.4024
 20
-11.54
 30
0.0
 10
20.3055
 20
-11.5701
 30
0.0
 10
20.1888
 20
-11.5856
 30
0.0
 10
20.0529
 20
-11.5856
 30
0.0
 10
20.0529
 20
-11.5856
 30
0.0
 10
19.8455
 20
-11.5856
 30
0.0
 10
19.6606
 20
-11.5442
 30
0.0
 10
19.4983
 20
-11.4615
 30
0.0
 10
19.4983
 20
-11.4615
 30
0.0
 10
19.336
 20
-11.3787
 30
0.0
 10
19.2133
 20
-11.263
 30
0.0
 10
19.1296
 20
-11.1134
 30
0.0
 10
19.1296
 20
-11.1134
 30
0.0
 10
19.0463
 20
-10.9643
 30
0.0
 10
19.0044
 20
-10.7982
 30
0.0
 10
19.0044
 20
-10.6153
 30
0.0
 10
19.0044
 20
-10.6153
 30
0.0
 10
19.0044
 20
-10.492
 30
0.0
 10
19.0204
 20
-10.3843
 30
0.0
 10
19.0534
 20
-10.2921
 30
0.0
 10
19.0534
 20
-10.2921
 30
0.0
 10
19.0858
 20
-10.1999
 30
0.0
 10
19.1427
 20
-10.1002
 30
0.0
 10
19.2236
 20
-9.9939
 30
0.0
  0
SPLINE
  5
94
330
1F
100
AcDbEntity
  8
DEFAULT_1
 62
   250
100
AcDbSpline
210
0.0
220
0.0
230
1.0
 70
    11
 71
     3
 72
    32
 73
    28
 74
     0
 42
0.0000000001
 43
0.0000000001
 40
0.0
 40
0.0
 40
0.0
 40
0.0
 40
0.125
 40
0.125
 40
0.125
 40
0.125
 40
0.25
 40
0.25
 40
0.25
 40
0.25
 40
0.375
 40
0.375
 40
0.375
 40
0.375
 40
0.5
 40
0.5
 40
0.5
 40
0.5
 40
0.625
 40
0.625
 40
0.625
 40
0.625
 40
0.75
 40
0.75
 40
0.75
 40
0.75
 40
1.0
 40
1.0
 40
1.0
 40
1.0
 10
19.4094
 20
-10.159
 30
0.0
 10
19.3417
 20
-10.2456
 30
0.0
 10
19.2951
 20
-10.3213
 30
0.0
 10
19.2702
 20
-10.3857
 30
0.0
 10
19.2702
 20
-10.3857
 30
0.0
 10
19.2457
 20
-10.4506
 30
0.0
 10
19.233
 20
-10.5268
 30
0.0
 10
19.233
 20
-10.6139
 30
0.0
 10
19.233
 20
-10.6139
 30
0.0
 10
19.233
 20
-10.8152
 30
0.0
 10
19.3012
 20
-10.9812
 30
0.0
 10
19.4376
 20
-11.1129
 30
0.0
 10
19.4376
 20
-11.1129
 30
0.0
 10
19.5741
 20
-11.2442
 30
0.0
 10
19.7777
 20
-11.31
 30
0.0
 10
20.0491
 20
-11.31
 30
0.0
 10
20.0491
 20
-11.31
 30
0.0
 10
20.1554
 20
-11.31
 30
0.0
 10
20.25
 20
-11.2997
 30
0.0
 10
20.3328
 20
-11.2794
 30
0.0
 10
20.3328
 20
-11.2794
 30
0.0
 10
20.3944
 20
-11.2648
 30
0.0
 10
20.4701
 20
-11.2343
 30
0.0
 10
20.5599
 20
-11.1872
 30
0.0
 10
20.5599
 20
-11.1872
 30
0.0
 10
20.5599
 20
-11.1872
 30
0.0
 10
19.4094
 20
-10.159
 30
0.0
 10
19.4094
 20
-10.159
 30
0.0
  0
SPLINE
  5
95
330
1F
100
AcDbEntity
  8
DEFAULT_1
 62
   250
100
AcDbSpline
210
0.0
220
0.0
230
1.0
 70
    11
 71
     3
 72
    28
 73
    24
 74
     0
 42
0.0000000001
 43
0.0000000001
 40
0.0
 40
0.0
 40
0.0
 40
0.0
 40
0.1428571428571428
 40
0.1428571428571428
 40
0.1428571428571428
 40
0.1428571428571428
 40
0.2857142857142857
 40
0.2857142857142857
 40
0.2857142857142857
 40
0.2857142857142857
 40
0.4285714285714285
 40
0.4285714285714285
 40
0.4285714285714285
 40
0.4285714285714285
 40
0.5714285714285714
 40
0.5714285714285714
 40
0.5714285714285714
 40
0.5714285714285714
 40
0.7142857142857143
 40
0.7142857142857143
 40
0.7142857142857143
 40
0.7142857142857143
 40
1.0
 40
1.0
 40
1.0
 40
1.0
 10
19.5515
 20
-10.0461
 30
0.0
 10
19.5515
 20
-10.0461
 30
0.0
 10
20.6978
 20
-11.0701
 30
0.0
 10
20.6978
 20
-11.0701
 30
0.0
 10
20.6978
 20
-11.0701
 30
0.0
 10
20.7556
 20
-10.9996
 30
0.0
 10
20.7961
 20
-10.9342
 30
0.0
 10
20.8191
 20
-10.8744
 30
0.0
 10
20.8191
 20
-10.8744
 30
0.0
 10
20.8497
 20
-10.7964
 30
0.0
 10
20.8647
 20
-10.7117
 30
0.0
 10
20.8647
 20
-10.6209
 30
0.0
 10
20.8647
 20
-10.6209
 30
0.0
 10
20.8647
 20
-10.4205
 30
0.0
 10
20.7942
 20
-10.2554
 30
0.0
 10
20.6526
 20
-10.1247
 30
0.0
 10
20.6526
 20
-10.1247
 30
0.0
 10
20.511
 20
-9.9944
 30
0.0
 10
20.3125
 20
-9.929
 30
0.0
 10
20.0571
 20
-9.929
 30
0.0
 10
20.0571
 20
-9.929
 30
0.0
 10
19.8662
 20
-9.929
 30
0.0
 10
19.6973
 20
-9.968
 30
0.0
 10
19.5515
 20
-10.0461
 30
0.0
  0
SPLINE
  5
96
330
1F
100
AcDbEntity
  8
DEFAULT_1
 62
   250
100
AcDbSpline
210
0.0
220
0.0
230
1.0
 70
    11
 71
     3
 72
    48
 73
    44
 74
     0
 42
0.0000000001
 43
0.0000000001
 40
0.0
 40
0.0
 40
0.0
 40
0.0
 40
0.0833333333333333
 40
0.0833333333333333
 40
0.0833333333333333
 40
0.0833333333333333
 40
0.1666666666666667
 40
0.1666666666666667
 40
0.1666666666666667
 40
0.1666666666666667
 40
0.25
 40
0.25
 40
0.25
 40
0.25
 40
0.3333333333333333
 40
0.3333333333333333
 40
0.3333333333333333
 40
0.3333333333333333
 40
0.4166666666666667
 40
0.4166666666666667
 40
0.4166666666666667
 40
0.4166666666666667
 40
0.5
 40
0.5
 40
0.5
 40
0.5
 40
0.5833333333333334
 40
0.5833333333333334
 40
0.5833333333333334
 40
0.5833333333333334
 40
0.6666666666666666
 40
0.6666666666666666
 40
0.6666666666666666
 40
0.6666666666666666
 40
0.75
 40
0.75
 40
0.75
 40
0.75
 40
0.8333333333333334
 40
0.8333333333333334
 40
0.8333333333333334
 40
0.8333333333333334
 40
1.0
 40
1.0
 40
1.0
 40
1.0
 10
21.059
 20
-8.6092
 30
0.0
 10
21.059
 20
-8.6092
 30
0.0
 10
20.5755
 20
-8.6092
 30
0.0
 10
20.5755
 20
-8.6092
 30
0.0
 10
20.5755
 20
-8.6092
 30
0.0
 10
20.5755
 20
-8.6092
 30
0.0
 10
20.5755
 20
-9.4855
 30
0.0
 10
20.5755
 20
-9.4855
 30
0.0
 10
20.5755
 20
-9.4855
 30
0.0
 10
20.5755
 20
-9.4855
 30
0.0
 10
20.3478
 20
-9.4855
 30
0.0
 10
20.3478
 20
-9.4855
 30
0.0
 10
20.3478
 20
-9.4855
 30
0.0
 10
20.3478
 20
-9.4855
 30
0.0
 10
19.0388
 20
-8.5635
 30
0.0
 10
19.0388
 20
-8.5635
 30
0.0
 10
19.0388
 20
-8.5635
 30
0.0
 10
19.0388
 20
-8.5635
 30
0.0
 10
19.0388
 20
-8.3608
 30
0.0
 10
19.0388
 20
-8.3608
 30
0.0
 10
19.0388
 20
-8.3608
 30
0.0
 10
19.0388
 20
-8.3608
 30
0.0
 10
20.3478
 20
-8.3608
 30
0.0
 10
20.3478
 20
-8.3608
 30
0.0
 10
20.3478
 20
-8.3608
 30
0.0
 10
20.3478
 20
-8.3608
 30
0.0
 10
20.3478
 20
-8.088
 30
0.0
 10
20.3478
 20
-8.088
 30
0.0
 10
20.3478
 20
-8.088
 30
0.0
 10
20.3478
 20
-8.088
 30
0.0
 10
20.5755
 20
-8.088
 30
0.0
 10
20.5755
 20
-8.088
 30
0.0
 10
20.5755
 20
-8.088
 30
0.0
 10
20.5755
 20
-8.088
 30
0.0
 10
20.5755
 20
-8.3608
 30
0.0
 10
20.5755
 20
-8.3608
 30
0.0
 10
20.5755
 20
-8.3608
 30
0.0
 10
20.5755
 20
-8.3608
 30
0.0
 10
21.059
 20
-8.3608
 30
0.0
 10
21.059
 20
-8.3608
 30
0.0
 10
21.059
 20
-8.3608
 30
0.0
 10
21.059
 20
-8.3608
 30
0.0
 10
21.059
 20
-8.6092
 30
0.0
 10
21.059
 20
-8.6092
 30
0.0
  0
SPLINE
  5
97
330
1F
100
AcDbEntity
  8
DEFAULT_1
 62
   250
100
AcDbSpline
210
0.0
220
0.0
230
1.0
 70
    11
 71
     3
 72
    16
 73
    12
 74
     0
 42
0.0000000001
 43
0.0000000001
 40
0.0
 40
0.0
 40
0.0
 40
0.0
 40
0.25
 40
0.25
 40
0.25
 40
0.25
 40
0.5
 40
0.5
 40
0.5
 40
0.5
 40
1.0
 40
1.0
 40
1.0
 40
1.0
 10
20.3478
 20
-8.6092
 30
0.0
 10
20.3478
 20
-8.6092
 30
0.0
 10
19.4372
 20
-8.6092
 30
0.0
 10
19.4372
 20
-8.6092
 30
0.0
 10
19.4372
 20
-8.6092
 30
0.0
 10
19.4372
 20
-8.6092
 30
0.0
 10
20.3478
 20
-9.2413
 30
0.0
 10
20.3478
 20
-9.2413
 30
0.0
 10
20.3478
 20
-9.2413
 30
0.0
 10
20.3478
 20
-9.2413
 30
0.0
 10
20.3478
 20
-8.6092
 30
0.0
 10
20.3478
 20
-8.6092
 30
0.0
  0
SPLINE
  5
98
330
1F
100
AcDbEntity
  8
DEFAULT_1
 62
   250
100
AcDbSpline
210
0.0
220
0.0
230
1.0
 70
    11
 71
     3
 72
    52
 73
    48
 74
     0
 42
0.0000000001
 43
0.0000000001
 40
0.0
 40
0.0
 40
0.0
 40
0.0
 40
0.0769230769230769
 40
0.0769230769230769
 40
0.0769230769230769
 40
0.0769230769230769
 40
0.1538461538461539
 40
0.1538461538461539
 40
0.1538461538461539
 40
0.1538461538461539
 40
0.2307692307692308
 40
0.2307692307692308
 40
0.2307692307692308
 40
0.2307692307692308
 40
0.3076923076923077
 40
0.3076923076923077
 40
0.3076923076923077
 40
0.3076923076923077
 40
0.3846153846153846
 40
0.3846153846153846
 40
0.3846153846153846
 40
0.3846153846153846
 40
0.4615384615384616
 40
0.4615384615384616
 40
0.4615384615384616
 40
0.4615384615384616
 40
0.5384615384615384
 40
0.5384615384615384
 40
0.5384615384615384
 40
0.5384615384615384
 40
0.6153846153846154
 40
0.6153846153846154
 40
0.6153846153846154
 40
0.6153846153846154
 40
0.6923076923076923
 40
0.6923076923076923
 40
0.6923076923076923
 40
0.6923076923076923
 40
0.7692307692307693
 40
0.7692307692307693
 40
0.7692307692307693
 40
0.7692307692307693
 40
0.8461538461538461
 40
0.8461538461538461
 40
0.8461538461538461
 40
0.8461538461538461
 40
1.0
 40
1.0
 40
1.0
 40
1.0
 10
20.0628
 20
-7.8345
 30
0.0
 10
19.8238
 20
-7.8345
 30
0.0
 10
19.6314
 20
-7.81
 30
0.0
 10
19.4861
 20
-7.7606
 30
0.0
 10
19.4861
 20
-7.7606
 30
0.0
 10
19.3403
 20
-7.7117
 30
0.0
 10
19.2279
 20
-7.6383
 30
0.0
 10
19.1488
 20
-7.5414
 30
0.0
 10
19.1488
 20
-7.5414
 30
0.0
 10
19.0698
 20
-7.4445
 30
0.0
 10
19.0303
 20
-7.3227
 30
0.0
 10
19.0303
 20
-7.176
 30
0.0
 10
19.0303
 20
-7.176
 30
0.0
 10
19.0303
 20
-7.0673
 30
0.0
 10
19.0524
 20
-6.9723
 30
0.0
 10
19.0962
 20
-6.8905
 30
0.0
 10
19.0962
 20
-6.8905
 30
0.0
 10
19.1394
 20
-6.8086
 30
0.0
 10
19.2025
 20
-6.7413
 30
0.0
 10
19.2848
 20
-6.6877
 30
0.0
 10
19.2848
 20
-6.6877
 30
0.0
 10
19.3671
 20
-6.6346
 30
0.0
 10
19.4673
 20
-6.5927
 30
0.0
 10
19.5853
 20
-6.5626
 30
0.0
 10
19.5853
 20
-6.5626
 30
0.0
 10
19.7034
 20
-6.532
 30
0.0
 10
19.8624
 20
-6.517
 30
0.0
 10
20.0628
 20
-6.517
 30
0.0
 10
20.0628
 20
-6.517
 30
0.0
 10
20.2998
 20
-6.517
 30
0.0
 10
20.4908
 20
-6.5414
 30
0.0
 10
20.6366
 20
-6.5899
 30
0.0
 10
20.6366
 20
-6.5899
 30
0.0
 10
20.7824
 20
-6.6388
 30
0.0
 10
20.8948
 20
-6.7117
 30
0.0
 10
20.9743
 20
-6.8086
 30
0.0
 10
20.9743
 20
-6.8086
 30
0.0
 10
21.0538
 20
-6.9055
 30
0.0
 10
21.0933
 20
-7.0278
 30
0.0
 10
21.0933
 20
-7.176
 30
0.0
 10
21.0933
 20
-7.176
 30
0.0
 10
21.0933
 20
-7.3707
 30
0.0
 10
21.0237
 20
-7.5236
 30
0.0
 10
20.884
 20
-7.6346
 30
0.0
 10
20.884
 20
-7.6346
 30
0.0
 10
20.7161
 20
-7.7677
 30
0.0
 10
20.4419
 20
-7.8345
 30
0.0
 10
20.0628
 20
-7.8345
 30
0.0
  0
SPLINE
  5
99
330
1F
100
AcDbEntity
  8
DEFAULT_1
 62
   250
100
AcDbSpline
210
0.0
220
0.0
230
1.0
 70
    11
 71
     3
 72
    36
 73
    32
 74
     0
 42
0.0000000001
 43
0.0000000001
 40
0.0
 40
0.0
 40
0.0
 40
0.0
 40
0.1111111111111111
 40
0.1111111111111111
 40
0.1111111111111111
 40
0.1111111111111111
 40
0.2222222222222222
 40
0.2222222222222222
 40
0.2222222222222222
 40
0.2222222222222222
 40
0.3333333333333333
 40
0.3333333333333333
 40
0.3333333333333333
 40
0.3333333333333333
 40
0.4444444444444444
 40
0.4444444444444444
 40
0.4444444444444444
 40
0.4444444444444444
 40
0.5555555555555556
 40
0.5555555555555556
 40
0.5555555555555556
 40
0.5555555555555556
 40
0.6666666666666666
 40
0.6666666666666666
 40
0.6666666666666666
 40
0.6666666666666666
 40
0.7777777777777778
 40
0.7777777777777778
 40
0.7777777777777778
 40
0.7777777777777778
 40
1.0
 40
1.0
 40
1.0
 40
1.0
 10
20.0628
 20
-7.5795
 30
0.0
 10
20.3944
 20
-7.5795
 30
0.0
 10
20.615
 20
-7.5405
 30
0.0
 10
20.725
 20
-7.4629
 30
0.0
 10
20.725
 20
-7.4629
 30
0.0
 10
20.8346
 20
-7.3853
 30
0.0
 10
20.8897
 20
-7.2898
 30
0.0
 10
20.8897
 20
-7.176
 30
0.0
 10
20.8897
 20
-7.176
 30
0.0
 10
20.8897
 20
-7.0617
 30
0.0
 10
20.8342
 20
-6.9662
 30
0.0
 10
20.7241
 20
-6.8886
 30
0.0
 10
20.7241
 20
-6.8886
 30
0.0
 10
20.614
 20
-6.811
 30
0.0
 10
20.3934
 20
-6.7719
 30
0.0
 10
20.0628
 20
-6.7719
 30
0.0
 10
20.0628
 20
-6.7719
 30
0.0
 10
19.7302
 20
-6.7719
 30
0.0
 10
19.5091
 20
-6.811
 30
0.0
 10
19.4
 20
-6.8886
 30
0.0
 10
19.4
 20
-6.8886
 30
0.0
 10
19.2904
 20
-6.9662
 30
0.0
 10
19.2359
 20
-7.0626
 30
0.0
 10
19.2359
 20
-7.1783
 30
0.0
 10
19.2359
 20
-7.1783
 30
0.0
 10
19.2359
 20
-7.2926
 30
0.0
 10
19.2843
 20
-7.3834
 30
0.0
 10
19.3807
 20
-7.4516
 30
0.0
 10
19.3807
 20
-7.4516
 30
0.0
 10
19.5035
 20
-7.5367
 30
0.0
 10
19.7312
 20
-7.5795
 30
0.0
 10
20.0628
 20
-7.5795
 30
0.0
  0
SPLINE
  5
9A
330
1F
100
AcDbEntity
  8
DEFAULT_1
 62
   250
100
AcDbSpline
210
0.0
220
0.0
230
1.0
 70
    24
 71
     3
 72
     8
 73
     4
 74
     0
 42
0.0000000001
 43
0.0000000001
 40
0.0
 40
0.0
 40
0.0
 40
0.0
 40
1.0
 40
1.0
 40
1.0
 40
1.0
 10
21.575
 20
-0.8853
 30
0.0
 10
21.575
 20
-0.8853
 30
0.0
 10
21.575
 20
-18.1337
 30
0.0
 10
21.575
 20
-18.1337
 30
0.0
  0
SPLINE
  5
9B
330
1F
100
AcDbEntity
  8
DEFAULT_1
 62
   250
100
AcDbSpline
210
0.0
220
0.0
230
1.0
 70
    11
 71
     3
 72
    20
 73
    16
 74
     0
 42
0.0000000001
 43
0.0000000001
 40
0.0
 40
0.0
 40
0.0
 40
0.0
 40
0.2
 40
0.2
 40
0.2
 40
0.2
 40
0.4
 40
0.4
 40
0.4
 40
0.4
 40
0.6
 40
0.6
 40
0.6
 40
0.6
 40
1.0
 40
1.0
 40
1.0
 40
1.0
 10
21.1623
 20
-17.1701
 30
0.0
 10
21.1623
 20
-17.1701
 30
0.0
 10
21.5617
 20
-14.3397
 30
0.0
 10
21.5617
 20
-14.3397
 30
0.0
 10
21.5617
 20
-14.3397
 30
0.0
 10
21.5617
 20
-14.3397
 30
0.0
 10
21.6504
 20
-14.3397
 30
0.0
 10
21.6504
 20
-14.3397
 30
0.0
 10
21.6504
 20
-14.3397
 30
0.0
 10
21.6504
 20
-14.3397
 30
0.0
 10
22.0765
 20
-17.1701
 30
0.0
 10
22.0765
 20
-17.1701
 30
0.0
 10
22.0765
 20
-17.1701
 30
0.0
 10
22.0765
 20
-17.1701
 30
0.0
 10
21.1623
 20
-17.1701
 30
0.0
 10
21.1623
 20
-17.1701
 30
0.0
  0
SPLINE
  5
9C
330
1F
100
AcDbEntity
  8
DEFAULT_1
 62
   250
100
AcDbSpline
210
0.0
220
0.0
230
1.0
 70
    11
 71
     3
 72
    20
 73
    16
 74
     0
 42
0.0000000001
 43
0.0000000001
 40
0.0
 40
0.0
 40
0.0
 40
0.0
 40
0.2
 40
0.2
 40
0.2
 40
0.2
 40
0.4
 40
0.4
 40
0.4
 40
0.4
 40
0.6
 40
0.6
 40
0.6
 40
0.6
 40
1.0
 40
1.0
 40
1.0
 40
1.0
 10
22.016
 20
-1.7417
 30
0.0
 10
22.016
 20
-1.7417
 30
0.0
 10
21.6165
 20
-4.5721
 30
0.0
 10
21.6165
 20
-4.5721
 30
0.0
 10
21.6165
 20
-4.5721
 30
0.0
 10
21.6165
 20
-4.5721
 30
0.0
 10
21.5278
 20
-4.5721
 30
0.0
 10
21.5278
 20
-4.5721
 30
0.0
 10
21.5278
 20
-4.5721
 30
0.0
 10
21.5278
 20
-4.5721
 30
0.0
 10
21.1018
 20
-1.7417
 30
0.0
 10
21.1018
 20
-1.7417
 30
0.0
 10
21.1018
 20
-1.7417
 30
0.0
 10
21.1018
 20
-1.7417
 30
0.0
 10
22.016
 20
-1.7417
 30
0.0
 10
22.016
 20
-1.7417
 30
0.0
  0
SPLINE
  5
9D
330
1F
100
AcDbEntity
  8
DEFAULT_1
 62
   250
100
AcDbSpline
210
0.0
220
0.0
230
1.0
 70
    11
 71
     3
 72
    84
 73
    80
 74
     0
 42
0.0000000001
 43
0.0000000001
 40
0.0
 40
0.0
 40
0.0
 40
0.0
 40
0.0476190476190476
 40
0.0476190476190476
 40
0.0476190476190476
 40
0.0476190476190476
 40
0.0952380952380952
 40
0.0952380952380952
 40
0.0952380952380952
 40
0.0952380952380952
 40
0.1428571428571428
 40
0.1428571428571428
 40
0.1428571428571428
 40
0.1428571428571428
 40
0.1904761904761905
 40
0.1904761904761905
 40
0.1904761904761905
 40
0.1904761904761905
 40
0.2380952380952381
 40
0.2380952380952381
 40
0.2380952380952381
 40
0.2380952380952381
 40
0.2857142857142857
 40
0.2857142857142857
 40
0.2857142857142857
 40
0.2857142857142857
 40
0.3333333333333333
 40
0.3333333333333333
 40
0.3333333333333333
 40
0.3333333333333333
 40
0.3809523809523809
 40
0.3809523809523809
 40
0.3809523809523809
 40
0.3809523809523809
 40
0.4285714285714285
 40
0.4285714285714285
 40
0.4285714285714285
 40
0.4285714285714285
 40
0.4761904761904762
 40
0.4761904761904762
 40
0.4761904761904762
 40
0.4761904761904762
 40
0.5238095238095238
 40
0.5238095238095238
 40
0.5238095238095238
 40
0.5238095238095238
 40
0.5714285714285714
 40
0.5714285714285714
 40
0.5714285714285714
 40
0.5714285714285714
 40
0.6190476190476191
 40
0.6190476190476191
 40
0.6190476190476191
 40
0.6190476190476191
 40
0.6666666666666666
 40
0.6666666666666666
 40
0.6666666666666666
 40
0.6666666666666666
 40
0.7142857142857143
 40
0.7142857142857143
 40
0.7142857142857143
 40
0.7142857142857143
 40
0.7619047619047619
 40
0.7619047619047619
 40
0.7619047619047619
 40
0.7619047619047619
 40
0.8095238095238095
 40
0.8095238095238095
 40
0.8095238095238095
 40
0.8095238095238095
 40
0.8571428571428571
 40
0.8571428571428571
 40
0.8571428571428571
 40
0.8571428571428571
 40
0.9047619047619048
 40
0.9047619047619048
 40
0.9047619047619048
 40
0.9047619047619048
 40
1.0
 40
1.0
 40
1.0
 40
1.0
 10
-29.6939
 20
21.0115
 30
0.0
 10
-29.6939
 20
21.0115
 30
0.0
 10
-29.4625
 20
21.2706
 30
0.0
 10
-29.4625
 20
21.2706
 30
0.0
 10
-29.4625
 20
21.2706
 30
0.0
 10
-29.4625
 20
21.2706
 30
0.0
 10
-29.3261
 20
21.1549
 30
0.0
 10
-29.3261
 20
21.1549
 30
0.0
 10
-29.3261
 20
21.1549
 30
0.0
 10
-29.3261
 20
21.1549
 30
0.0
 10
-29.5683
 20
20.8821
 30
0.0
 10
-29.5683
 20
20.8821
 30
0.0
 10
-29.5683
 20
20.8821
 30
0.0
 10
-29.4893
 20
20.7645
 30
0.0
 10
-29.4362
 20
20.6615
 30
0.0
 10
-29.4084
 20
20.5736
 30
0.0
 10
-29.4084
 20
20.5736
 30
0.0
 10
-29.3717
 20
20.4578
 30
0.0
 10
-29.3534
 20
20.328
 30
0.0
 10
-29.3534
 20
20.185
 30
0.0
 10
-29.3534
 20
20.185
 30
0.0
 10
-29.3534
 20
19.9781
 30
0.0
 10
-29.3952
 20
19.7937
 30
0.0
 10
-29.479
 20
19.6324
 30
0.0
 10
-29.479
 20
19.6324
 30
0.0
 10
-29.5627
 20
19.4705
 30
0.0
 10
-29.6798
 20
19.3483
 30
0.0
 10
-29.8308
 20
19.2655
 30
0.0
 10
-29.8308
 20
19.2655
 30
0.0
 10
-29.9823
 20
19.1832
 30
0.0
 10
-30.1426
 20
19.1418
 30
0.0
 10
-30.3124
 20
19.1418
 30
0.0
 10
-30.3124
 20
19.1418
 30
0.0
 10
-30.4394
 20
19.1418
 30
0.0
 10
-30.5542
 20
19.1596
 30
0.0
 10
-30.6572
 20
19.1954
 30
0.0
 10
-30.6572
 20
19.1954
 30
0.0
 10
-30.7362
 20
19.2231
 30
0.0
 10
-30.8284
 20
19.2758
 30
0.0
 10
-30.9343
 20
19.3539
 30
0.0
 10
-30.9343
 20
19.3539
 30
0.0
 10
-30.9343
 20
19.3539
 30
0.0
 10
-31.1657
 20
19.0947
 30
0.0
 10
-31.1657
 20
19.0947
 30
0.0
 10
-31.1657
 20
19.0947
 30
0.0
 10
-31.1657
 20
19.0947
 30
0.0
 10
-31.3021
 20
19.2104
 30
0.0
 10
-31.3021
 20
19.2104
 30
0.0
 10
-31.3021
 20
19.2104
 30
0.0
 10
-31.3021
 20
19.2104
 30
0.0
 10
-31.0594
 20
19.4818
 30
0.0
 10
-31.0594
 20
19.4818
 30
0.0
 10
-31.0594
 20
19.4818
 30
0.0
 10
-31.1497
 20
19.6187
 30
0.0
 10
-31.2099
 20
19.7358
 30
0.0
 10
-31.24
 20
19.8327
 30
0.0
 10
-31.24
 20
19.8327
 30
0.0
 10
-31.2701
 20
19.9296
 30
0.0
 10
-31.2856
 20
20.0463
 30
0.0
 10
-31.2856
 20
20.1822
 30
0.0
 10
-31.2856
 20
20.1822
 30
0.0
 10
-31.2856
 20
20.3896
 30
0.0
 10
-31.2442
 20
20.5745
 30
0.0
 10
-31.1615
 20
20.7368
 30
0.0
 10
-31.1615
 20
20.7368
 30
0.0
 10
-31.0787
 20
20.8991
 30
0.0
 10
-30.963
 20
21.0218
 30
0.0
 10
-30.8134
 20
21.1055
 30
0.0
 10
-30.8134
 20
21.1055
 30
0.0
 10
-30.6643
 20
21.1888
 30
0.0
 10
-30.4982
 20
21.2307
 30
0.0
 10
-30.3153
 20
21.2307
 30
0.0
 10
-30.3153
 20
21.2307
 30
0.0
 10
-30.192
 20
21.2307
 30
0.0
 10
-30.0843
 20
21.2147
 30
0.0
 10
-29.9921
 20
21.1817
 30
0.0
 10
-29.9921
 20
21.1817
 30
0.0
 10
-29.8999
 20
21.1493
 30
0.0
 10
-29.8002
 20
21.0924
 30
0.0
 10
-29.6939
 20
21.0115
 30
0.0
  0
SPLINE
  5
9E
330
1F
100
AcDbEntity
  8
DEFAULT_1
 62
   250
100
AcDbSpline
210
0.0
220
0.0
230
1.0
 70
    11
 71
     3
 72
    32
 73
    28
 74
     0
 42
0.0000000001
 43
0.0000000001
 40
0.0
 40
0.0
 40
0.0
 40
0.0
 40
0.125
 40
0.125
 40
0.125
 40
0.125
 40
0.25
 40
0.25
 40
0.25
 40
0.25
 40
0.375
 40
0.375
 40
0.375
 40
0.375
 40
0.5
 40
0.5
 40
0.5
 40
0.5
 40
0.625
 40
0.625
 40
0.625
 40
0.625
 40
0.75
 40
0.75
 40
0.75
 40
0.75
 40
1.0
 40
1.0
 40
1.0
 40
1.0
 10
-29.859
 20
20.8257
 30
0.0
 10
-29.9456
 20
20.8934
 30
0.0
 10
-30.0213
 20
20.94
 30
0.0
 10
-30.0857
 20
20.9649
 30
0.0
 10
-30.0857
 20
20.9649
 30
0.0
 10
-30.1506
 20
20.9894
 30
0.0
 10
-30.2268
 20
21.0021
 30
0.0
 10
-30.3139
 20
21.0021
 30
0.0
 10
-30.3139
 20
21.0021
 30
0.0
 10
-30.5152
 20
21.0021
 30
0.0
 10
-30.6812
 20
20.9339
 30
0.0
 10
-30.8129
 20
20.7975
 30
0.0
 10
-30.8129
 20
20.7975
 30
0.0
 10
-30.9442
 20
20.661
 30
0.0
 10
-31.01
 20
20.4574
 30
0.0
 10
-31.01
 20
20.186
 30
0.0
 10
-31.01
 20
20.186
 30
0.0
 10
-31.01
 20
20.0797
 30
0.0
 10
-30.9997
 20
19.9851
 30
0.0
 10
-30.9794
 20
19.9023
 30
0.0
 10
-30.9794
 20
19.9023
 30
0.0
 10
-30.9648
 20
19.8407
 30
0.0
 10
-30.9343
 20
19.765
 30
0.0
 10
-30.8872
 20
19.6752
 30
0.0
 10
-30.8872
 20
19.6752
 30
0.0
 10
-30.8872
 20
19.6752
 30
0.0
 10
-29.859
 20
20.8257
 30
0.0
 10
-29.859
 20
20.8257
 30
0.0
  0
SPLINE
  5
9F
330
1F
100
AcDbEntity
  8
DEFAULT_1
 62
   250
100
AcDbSpline
210
0.0
220
0.0
230
1.0
 70
    11
 71
     3
 72
    28
 73
    24
 74
     0
 42
0.0000000001
 43
0.0000000001
 40
0.0
 40
0.0
 40
0.0
 40
0.0
 40
0.1428571428571428
 40
0.1428571428571428
 40
0.1428571428571428
 40
0.1428571428571428
 40
0.2857142857142857
 40
0.2857142857142857
 40
0.2857142857142857
 40
0.2857142857142857
 40
0.4285714285714285
 40
0.4285714285714285
 40
0.4285714285714285
 40
0.4285714285714285
 40
0.5714285714285714
 40
0.5714285714285714
 40
0.5714285714285714
 40
0.5714285714285714
 40
0.7142857142857143
 40
0.7142857142857143
 40
0.7142857142857143
 40
0.7142857142857143
 40
1.0
 40
1.0
 40
1.0
 40
1.0
 10
-29.7461
 20
20.6836
 30
0.0
 10
-29.7461
 20
20.6836
 30
0.0
 10
-30.7701
 20
19.5373
 30
0.0
 10
-30.7701
 20
19.5373
 30
0.0
 10
-30.7701
 20
19.5373
 30
0.0
 10
-30.6996
 20
19.4795
 30
0.0
 10
-30.6342
 20
19.439
 30
0.0
 10
-30.5744
 20
19.416
 30
0.0
 10
-30.5744
 20
19.416
 30
0.0
 10
-30.4964
 20
19.3854
 30
0.0
 10
-30.4117
 20
19.3704
 30
0.0
 10
-30.3209
 20
19.3704
 30
0.0
 10
-30.3209
 20
19.3704
 30
0.0
 10
-30.1205
 20
19.3704
 30
0.0
 10
-29.9554
 20
19.4409
 30
0.0
 10
-29.8247
 20
19.5825
 30
0.0
 10
-29.8247
 20
19.5825
 30
0.0
 10
-29.6944
 20
19.7241
 30
0.0
 10
-29.629
 20
19.9226
 30
0.0
 10
-29.629
 20
20.178
 30
0.0
 10
-29.629
 20
20.178
 30
0.0
 10
-29.629
 20
20.3689
 30
0.0
 10
-29.668
 20
20.5378
 30
0.0
 10
-29.7461
 20
20.6836
 30
0.0
  0
SPLINE
  5
A0
330
1F
100
AcDbEntity
  8
DEFAULT_1
 62
   250
100
AcDbSpline
210
0.0
220
0.0
230
1.0
 70
    11
 71
     3
 72
    48
 73
    44
 74
     0
 42
0.0000000001
 43
0.0000000001
 40
0.0
 40
0.0
 40
0.0
 40
0.0
 40
0.0833333333333333
 40
0.0833333333333333
 40
0.0833333333333333
 40
0.0833333333333333
 40
0.1666666666666667
 40
0.1666666666666667
 40
0.1666666666666667
 40
0.1666666666666667
 40
0.25
 40
0.25
 40
0.25
 40
0.25
 40
0.3333333333333333
 40
0.3333333333333333
 40
0.3333333333333333
 40
0.3333333333333333
 40
0.4166666666666667
 40
0.4166666666666667
 40
0.4166666666666667
 40
0.4166666666666667
 40
0.5
 40
0.5
 40
0.5
 40
0.5
 40
0.5833333333333334
 40
0.5833333333333334
 40
0.5833333333333334
 40
0.5833333333333334
 40
0.6666666666666666
 40
0.6666666666666666
 40
0.6666666666666666
 40
0.6666666666666666
 40
0.75
 40
0.75
 40
0.75
 40
0.75
 40
0.8333333333333334
 40
0.8333333333333334
 40
0.8333333333333334
 40
0.8333333333333334
 40
1.0
 40
1.0
 40
1.0
 40
1.0
 10
-28.3092
 20
19.1761
 30
0.0
 10
-28.3092
 20
19.1761
 30
0.0
 10
-28.3092
 20
19.6596
 30
0.0
 10
-28.3092
 20
19.6596
 30
0.0
 10
-28.3092
 20
19.6596
 30
0.0
 10
-28.3092
 20
19.6596
 30
0.0
 10
-29.1855
 20
19.6596
 30
0.0
 10
-29.1855
 20
19.6596
 30
0.0
 10
-29.1855
 20
19.6596
 30
0.0
 10
-29.1855
 20
19.6596
 30
0.0
 10
-29.1855
 20
19.8873
 30
0.0
 10
-29.1855
 20
19.8873
 30
0.0
 10
-29.1855
 20
19.8873
 30
0.0
 10
-29.1855
 20
19.8873
 30
0.0
 10
-28.2635
 20
21.1963
 30
0.0
 10
-28.2635
 20
21.1963
 30
0.0
 10
-28.2635
 20
21.1963
 30
0.0
 10
-28.2635
 20
21.1963
 30
0.0
 10
-28.0608
 20
21.1963
 30
0.0
 10
-28.0608
 20
21.1963
 30
0.0
 10
-28.0608
 20
21.1963
 30
0.0
 10
-28.0608
 20
21.1963
 30
0.0
 10
-28.0608
 20
19.8873
 30
0.0
 10
-28.0608
 20
19.8873
 30
0.0
 10
-28.0608
 20
19.8873
 30
0.0
 10
-28.0608
 20
19.8873
 30
0.0
 10
-27.788
 20
19.8873
 30
0.0
 10
-27.788
 20
19.8873
 30
0.0
 10
-27.788
 20
19.8873
 30
0.0
 10
-27.788
 20
19.8873
 30
0.0
 10
-27.788
 20
19.6596
 30
0.0
 10
-27.788
 20
19.6596
 30
0.0
 10
-27.788
 20
19.6596
 30
0.0
 10
-27.788
 20
19.6596
 30
0.0
 10
-28.0608
 20
19.6596
 30
0.0
 10
-28.0608
 20
19.6596
 30
0.0
 10
-28.0608
 20
19.6596
 30
0.0
 10
-28.0608
 20
19.6596
 30
0.0
 10
-28.0608
 20
19.1761
 30
0.0
 10
-28.0608
 20
19.1761
 30
0.0
 10
-28.0608
 20
19.1761
 30
0.0
 10
-28.0608
 20
19.1761
 30
0.0
 10
-28.3092
 20
19.1761
 30
0.0
 10
-28.3092
 20
19.1761
 30
0.0
  0
SPLINE
  5
A1
330
1F
100
AcDbEntity
  8
DEFAULT_1
 62
   250
100
AcDbSpline
210
0.0
220
0.0
230
1.0
 70
    11
 71
     3
 72
    16
 73
    12
 74
     0
 42
0.0000000001
 43
0.0000000001
 40
0.0
 40
0.0
 40
0.0
 40
0.0
 40
0.25
 40
0.25
 40
0.25
 40
0.25
 40
0.5
 40
0.5
 40
0.5
 40
0.5
 40
1.0
 40
1.0
 40
1.0
 40
1.0
 10
-28.3092
 20
19.8873
 30
0.0
 10
-28.3092
 20
19.8873
 30
0.0
 10
-28.3092
 20
20.7979
 30
0.0
 10
-28.3092
 20
20.7979
 30
0.0
 10
-28.3092
 20
20.7979
 30
0.0
 10
-28.3092
 20
20.7979
 30
0.0
 10
-28.9413
 20
19.8873
 30
0.0
 10
-28.9413
 20
19.8873
 30
0.0
 10
-28.9413
 20
19.8873
 30
0.0
 10
-28.9413
 20
19.8873
 30
0.0
 10
-28.3092
 20
19.8873
 30
0.0
 10
-28.3092
 20
19.8873
 30
0.0
  0
SPLINE
  5
A2
330
1F
100
AcDbEntity
  8
DEFAULT_1
 62
   250
100
AcDbSpline
210
0.0
220
0.0
230
1.0
 70
    11
 71
     3
 72
    52
 73
    48
 74
     0
 42
0.0000000001
 43
0.0000000001
 40
0.0
 40
0.0
 40
0.0
 40
0.0
 40
0.0769230769230769
 40
0.0769230769230769
 40
0.0769230769230769
 40
0.0769230769230769
 40
0.1538461538461539
 40
0.1538461538461539
 40
0.1538461538461539
 40
0.1538461538461539
 40
0.2307692307692308
 40
0.2307692307692308
 40
0.2307692307692308
 40
0.2307692307692308
 40
0.3076923076923077
 40
0.3076923076923077
 40
0.3076923076923077
 40
0.3076923076923077
 40
0.3846153846153846
 40
0.3846153846153846
 40
0.3846153846153846
 40
0.3846153846153846
 40
0.4615384615384616
 40
0.4615384615384616
 40
0.4615384615384616
 40
0.4615384615384616
 40
0.5384615384615384
 40
0.5384615384615384
 40
0.5384615384615384
 40
0.5384615384615384
 40
0.6153846153846154
 40
0.6153846153846154
 40
0.6153846153846154
 40
0.6153846153846154
 40
0.6923076923076923
 40
0.6923076923076923
 40
0.6923076923076923
 40
0.6923076923076923
 40
0.7692307692307693
 40
0.7692307692307693
 40
0.7692307692307693
 40
0.7692307692307693
 40
0.8461538461538461
 40
0.8461538461538461
 40
0.8461538461538461
 40
0.8461538461538461
 40
1.0
 40
1.0
 40
1.0
 40
1.0
 10
-27.5345
 20
20.1723
 30
0.0
 10
-27.5345
 20
20.4113
 30
0.0
 10
-27.51
 20
20.6037
 30
0.0
 10
-27.4606
 20
20.749
 30
0.0
 10
-27.4606
 20
20.749
 30
0.0
 10
-27.4117
 20
20.8948
 30
0.0
 10
-27.3383
 20
21.0072
 30
0.0
 10
-27.2414
 20
21.0863
 30
0.0
 10
-27.2414
 20
21.0863
 30
0.0
 10
-27.1445
 20
21.1653
 30
0.0
 10
-27.0227
 20
21.2048
 30
0.0
 10
-26.876
 20
21.2048
 30
0.0
 10
-26.876
 20
21.2048
 30
0.0
 10
-26.7673
 20
21.2048
 30
0.0
 10
-26.6723
 20
21.1827
 30
0.0
 10
-26.5905
 20
21.1389
 30
0.0
 10
-26.5905
 20
21.1389
 30
0.0
 10
-26.5086
 20
21.0957
 30
0.0
 10
-26.4413
 20
21.0326
 30
0.0
 10
-26.3877
 20
20.9503
 30
0.0
 10
-26.3877
 20
20.9503
 30
0.0
 10
-26.3346
 20
20.868
 30
0.0
 10
-26.2927
 20
20.7678
 30
0.0
 10
-26.2626
 20
20.6498
 30
0.0
 10
-26.2626
 20
20.6498
 30
0.0
 10
-26.232
 20
20.5317
 30
0.0
 10
-26.217
 20
20.3727
 30
0.0
 10
-26.217
 20
20.1723
 30
0.0
 10
-26.217
 20
20.1723
 30
0.0
 10
-26.217
 20
19.9353
 30
0.0
 10
-26.2414
 20
19.7443
 30
0.0
 10
-26.2899
 20
19.5985
 30
0.0
 10
-26.2899
 20
19.5985
 30
0.0
 10
-26.3388
 20
19.4527
 30
0.0
 10
-26.4117
 20
19.3403
 30
0.0
 10
-26.5086
 20
19.2608
 30
0.0
 10
-26.5086
 20
19.2608
 30
0.0
 10
-26.6055
 20
19.1813
 30
0.0
 10
-26.7278
 20
19.1418
 30
0.0
 10
-26.876
 20
19.1418
 30
0.0
 10
-26.876
 20
19.1418
 30
0.0
 10
-27.0707
 20
19.1418
 30
0.0
 10
-27.2236
 20
19.2114
 30
0.0
 10
-27.3346
 20
19.3511
 30
0.0
 10
-27.3346
 20
19.3511
 30
0.0
 10
-27.4677
 20
19.519
 30
0.0
 10
-27.5345
 20
19.7932
 30
0.0
 10
-27.5345
 20
20.1723
 30
0.0
  0
SPLINE
  5
A3
330
1F
100
AcDbEntity
  8
DEFAULT_1
 62
   250
100
AcDbSpline
210
0.0
220
0.0
230
1.0
 70
    11
 71
     3
 72
    36
 73
    32
 74
     0
 42
0.0000000001
 43
0.0000000001
 40
0.0
 40
0.0
 40
0.0
 40
0.0
 40
0.1111111111111111
 40
0.1111111111111111
 40
0.1111111111111111
 40
0.1111111111111111
 40
0.2222222222222222
 40
0.2222222222222222
 40
0.2222222222222222
 40
0.2222222222222222
 40
0.3333333333333333
 40
0.3333333333333333
 40
0.3333333333333333
 40
0.3333333333333333
 40
0.4444444444444444
 40
0.4444444444444444
 40
0.4444444444444444
 40
0.4444444444444444
 40
0.5555555555555556
 40
0.5555555555555556
 40
0.5555555555555556
 40
0.5555555555555556
 40
0.6666666666666666
 40
0.6666666666666666
 40
0.6666666666666666
 40
0.6666666666666666
 40
0.7777777777777778
 40
0.7777777777777778
 40
0.7777777777777778
 40
0.7777777777777778
 40
1.0
 40
1.0
 40
1.0
 40
1.0
 10
-27.2795
 20
20.1723
 30
0.0
 10
-27.2795
 20
19.8407
 30
0.0
 10
-27.2405
 20
19.6201
 30
0.0
 10
-27.1629
 20
19.5101
 30
0.0
 10
-27.1629
 20
19.5101
 30
0.0
 10
-27.0853
 20
19.4005
 30
0.0
 10
-26.9898
 20
19.3454
 30
0.0
 10
-26.876
 20
19.3454
 30
0.0
 10
-26.876
 20
19.3454
 30
0.0
 10
-26.7617
 20
19.3454
 30
0.0
 10
-26.6662
 20
19.4009
 30
0.0
 10
-26.5886
 20
19.511
 30
0.0
 10
-26.5886
 20
19.511
 30
0.0
 10
-26.511
 20
19.6211
 30
0.0
 10
-26.4719
 20
19.8417
 30
0.0
 10
-26.4719
 20
20.1723
 30
0.0
 10
-26.4719
 20
20.1723
 30
0.0
 10
-26.4719
 20
20.5049
 30
0.0
 10
-26.511
 20
20.726
 30
0.0
 10
-26.5886
 20
20.8351
 30
0.0
 10
-26.5886
 20
20.8351
 30
0.0
 10
-26.6662
 20
20.9447
 30
0.0
 10
-26.7626
 20
20.9992
 30
0.0
 10
-26.8783
 20
20.9992
 30
0.0
 10
-26.8783
 20
20.9992
 30
0.0
 10
-26.9926
 20
20.9992
 30
0.0
 10
-27.0834
 20
20.9508
 30
0.0
 10
-27.1516
 20
20.8544
 30
0.0
 10
-27.1516
 20
20.8544
 30
0.0
 10
-27.2367
 20
20.7316
 30
0.0
 10
-27.2795
 20
20.5039
 30
0.0
 10
-27.2795
 20
20.1723
 30
0.0
  0
SPLINE
  5
A4
330
1F
100
AcDbEntity
  8
DEFAULT_1
 62
   250
100
AcDbSpline
210
0.0
220
0.0
230
1.0
 70
    24
 71
     3
 72
     8
 73
     4
 74
     0
 42
0.0000000001
 43
0.0000000001
 40
0.0
 40
0.0
 40
0.0
 40
0.0
 40
1.0
 40
1.0
 40
1.0
 40
1.0
 10
-20.8211
 20
18.7203
 30
0.0
 10
-20.8211
 20
18.7203
 30
0.0
 10
-37.6611
 20
18.7203
 30
0.0
 10
-37.6611
 20
18.7203
 30
0.0
  0
SPLINE
  5
A5
330
1F
100
AcDbEntity
  8
DEFAULT_1
 62
   250
100
AcDbSpline
210
0.0
220
0.0
230
1.0
 70
    11
 71
     3
 72
    20
 73
    16
 74
     0
 42
0.0000000001
 43
0.0000000001
 40
0.0
 40
0.0
 40
0.0
 40
0.0
 40
0.2
 40
0.2
 40
0.2
 40
0.2
 40
0.4
 40
0.4
 40
0.4
 40
0.4
 40
0.6
 40
0.6
 40
0.6
 40
0.6
 40
1.0
 40
1.0
 40
1.0
 40
1.0
 10
-21.5277
 20
18.2863
 30
0.0
 10
-21.5277
 20
18.2863
 30
0.0
 10
-24.3582
 20
18.6858
 30
0.0
 10
-24.3582
 20
18.6858
 30
0.0
 10
-24.3582
 20
18.6858
 30
0.0
 10
-24.3582
 20
18.6858
 30
0.0
 10
-24.3582
 20
18.7745
 30
0.0
 10
-24.3582
 20
18.7745
 30
0.0
 10
-24.3582
 20
18.7745
 30
0.0
 10
-24.3582
 20
18.7745
 30
0.0
 10
-21.5277
 20
19.2005
 30
0.0
 10
-21.5277
 20
19.2005
 30
0.0
 10
-21.5277
 20
19.2005
 30
0.0
 10
-21.5277
 20
19.2005
 30
0.0
 10
-21.5277
 20
18.2863
 30
0.0
 10
-21.5277
 20
18.2863
 30
0.0
  0
SPLINE
  5
A6
330
1F
100
AcDbEntity
  8
DEFAULT_1
 62
   250
100
AcDbSpline
210
0.0
220
0.0
230
1.0
 70
    11
 71
     3
 72
    20
 73
    16
 74
     0
 42
0.0000000001
 43
0.0000000001
 40
0.0
 40
0.0
 40
0.0
 40
0.0
 40
0.2
 40
0.2
 40
0.2
 40
0.2
 40
0.4
 40
0.4
 40
0.4
 40
0.4
 40
0.6
 40
0.6
 40
0.6
 40
0.6
 40
1.0
 40
1.0
 40
1.0
 40
1.0
 10
-36.869
 20
19.1386
 30
0.0
 10
-36.869
 20
19.1386
 30
0.0
 10
-34.0386
 20
18.7392
 30
0.0
 10
-34.0386
 20
18.7392
 30
0.0
 10
-34.0386
 20
18.7392
 30
0.0
 10
-34.0386
 20
18.7392
 30
0.0
 10
-34.0386
 20
18.6504
 30
0.0
 10
-34.0386
 20
18.6504
 30
0.0
 10
-34.0386
 20
18.6504
 30
0.0
 10
-34.0386
 20
18.6504
 30
0.0
 10
-36.869
 20
18.2244
 30
0.0
 10
-36.869
 20
18.2244
 30
0.0
 10
-36.869
 20
18.2244
 30
0.0
 10
-36.869
 20
18.2244
 30
0.0
 10
-36.869
 20
19.1386
 30
0.0
 10
-36.869
 20
19.1386
 30
0.0
  0
ENDSEC
  0
SECTION
  2
OBJECTS
  0
DICTIONARY
  5
C
330
0
100
AcDbDictionary
  3
ACAD_GROUP
350
D
  3
ACAD_LAYOUT
350
1A
  3
ACAD_MATERIAL
350
3B
  3
ACAD_MLEADERSTYLE
350
C9
  3
ACAD_MLINESTYLE
350
17
  3
ACAD_PLOTSETTINGS
350
19
  3
ACAD_VISUALSTYLE
350
2A
  3
ACDBHEADERROUNDTRIPXREC
350
A7
  3
ACDBVARIABLEDICTIONARY
350
C7
  0
DICTIONARY
  5
D
102
{ACAD_REACTORS
330
C
102
}
330
C
100
AcDbDictionary
  0
DICTIONARY
  5
1A
102
{ACAD_REACTORS
330
C
102
}
330
C
100
AcDbDictionary
  0
DICTIONARY
  5
3B
102
{ACAD_REACTORS
330
C
102
}
330
C
100
AcDbDictionary
  3
BYBLOCK
350
3D
  3
BYLAYER
350
3C
  3
GLOBAL
350
3E
  0
DICTIONARY
  5
C9
102
{ACAD_REACTORS
330
C
102
}
330
C
100
AcDbDictionary
  0
DICTIONARY
  5
17
102
{ACAD_REACTORS
330
C
102
}
330
C
100
AcDbDictionary
  3
STANDARD
350
18
  0
DICTIONARY
  5
19
102
{ACAD_REACTORS
330
C
102
}
330
C
100
AcDbDictionary
  0
DICTIONARY
  5
2A
102
{ACAD_REACTORS
330
C
102
}
330
C
100
AcDbDictionary
  3
2DWIREFRAME
350
2F
  3
3D_HIDDEN
350
31
  3
3DWIREFRAME
350
30
  3
BASIC
350
32
  3
BRIGHTEN
350
36
  3
COLORCHANGE
350
3A
  3
CONCEPTUAL
350
34
  3
DIM
350
35
  3
FACEPATTERN
350
39
  3
FLAT
350
2B
  3
FLATWITHEDGES
350
2C
  3
GOURAUD
350
2D
  3
GOURAUDWITHEDGES
350
2E
  3
LINEPATTERN
350
38
  3
REALISTIC
350
33
  3
THICKEN
350
37
  0
DICTIONARY
  5
A7
102
{ACAD_REACTORS
330
C
102
}
330
C
100
AcDbDictionary
  3
CEPSNTYPE
350
B0
  3
DIMSTYLEDATA
350
C6
  3
FINGERPRINTGUID
350
B1
  3
HYPERLINKBASE
350
AA
  3
INSUNITS
350
AF
  3
LAYOUTDICT
350
AC
  3
LWETCUNION
350
AE
  3
PLOTSETDICT
350
AD
  3
PSVPSCALE
350
B3
  3
PUCSBASE
350
B6
  3
PUCSORGBACK
350
BC
  3
PUCSORGBOTTOM
350
B8
  3
PUCSORGFRONT
350
BB
  3
PUCSORGLEFT
350
B9
  3
PUCSORGRIGHT
350
BA
  3
PUCSORGTOP
350
B7
  3
PUCSORTHOREF
350
B4
  3
PUCSORTHOVIEW
350
B5
  3
STYLESHEET
350
AB
  3
TSTACKALIGN
350
A8
  3
TSTACKSIZE
350
A9
  3
UCSBASE
350
BF
  3
UCSORGBACK
350
C5
  3
UCSORGBOTTOM
350
C1
  3
UCSORGFRONT
350
C4
  3
UCSORGLEFT
350
C2
  3
UCSORGRIGHT
350
C3
  3
UCSORGTOP
350
C0
  3
UCSORTHOREF
350
BD
  3
UCSORTHOVIEW
350
BE
  3
VERSIONGUID
350
B2
  0
DICTIONARY
  5
C7
102
{ACAD_REACTORS
330
C
102
}
330
C
100
AcDbDictionary
  3
DIMASSOC
350
CA
  3
HIDETEXT
350
CB
  0
MATERIAL
  5
3D
102
{ACAD_REACTORS
330
3B
102
}
102
{ACAD_XDICTIONARY
360
CE
102
}
330
3B
100
AcDbMaterial
  1
ByBlock
  0
MATERIAL
  5
3C
102
{ACAD_REACTORS
330
3B
102
}
102
{ACAD_XDICTIONARY
360
CC
102
}
330
3B
100
AcDbMaterial
  1
ByLayer
  0
MATERIAL
  5
3E
102
{ACAD_REACTORS
330
3B
102
}
102
{ACAD_XDICTIONARY
360
D0
102
}
330
3B
100
AcDbMaterial
  1
Global
  0
MLINESTYLE
  5
18
102
{ACAD_REACTORS
330
17
102
}
330
17
100
AcDbMlineStyle
  2
Standard
 70
     0
  3

 62
   256
 51
90.0
 52
90.0
 71
     2
 49
0.5
 62
   256
  6
BYLAYER
 49
-0.5
 62
   256
  6
BYLAYER
  0
ACAD_PROXY_OBJECT
  5
2F
102
{ACAD_REACTORS
330
2A
102
}
330
2A
100
AcDbProxyObject
 90
      499
 91
      501
 93
      436
310
42CC9915DA5C99599C985B595049028333333333333E3BF0000000000000FB0107901411070040501600405405064090741402480A0340
1001
ACAD
1000
AcDbSavedByObjectVersion
1070
     0
  0
ACAD_PROXY_OBJECT
  5
31
102
{ACAD_REACTORS
330
2A
102
}
330
2A
100
AcDbProxyObject
 90
      499
 91
      501
 93
      500
310
424CD108121A5919195B90640502408333333333333E3BF0000000000000FB01079024090700405020000000000001110200405405064090740C02480A0340
1001
ACAD
1000
AcDbSavedByObjectVersion
1070
     0
  0
ACAD_PROXY_OBJECT
  5
30
102
{ACAD_REACTORS
330
2A
102
}
330
2A
100
AcDbProxyObject
 90
      499
 91
      501
 93
      436
310
42CCD915DA5C99599C985B595059028333333333333E3BF0000000000000FB0107901411070040501600405405064090741402480A0340
1001
ACAD
1000
AcDbSavedByObjectVersion
1070
     0
  0
ACAD_PROXY_OBJECT
  5
32
102
{ACAD_REACTORS
330
2A
102
}
330
2A
100
AcDbProxyObject
 90
      499
 91
      501
 93
      388
310
4150985CDA58D07406404333333333333E3BF0000000000000FB0107A41107004050150841D405064090741402480A0350
1001
ACAD
1000
AcDbSavedByObjectVersion
1070
     0
  0
ACAD_PROXY_OBJECT
  5
36
102
{ACAD_REACTORS
330
2A
102
}
330
2A
100
AcDbProxyObject
 90
      499
 91
      501
 93
      428
310
42109C9A59DA1D195B90C409028333333333333E3BF0000000000000FB010790141107004050150841D405064090741402480A029950
1001
ACAD
1000
AcDbSavedByObjectVersion
1070
     0
  0
ACAD_PROXY_OBJECT
  5
3A
102
{ACAD_REACTORS
330
2A
102
}
330
2A
100
AcDbProxyObject
 90
      499
 91
      501
 93
      452
310
42D0DBDB1BDC90DA185B99D95104090240C333333333333E3BF0000000000000FB0108901411070040501508421405064090741402480A0350
1001
ACAD
1000
AcDbSavedByObjectVersion
1070
     0
  0
ACAD_PROXY_OBJECT
  5
34
102
{ACAD_REACTORS
330
2A
102
}
330
2A
100
AcDbProxyObject
 90
      499
 91
      501
 93
      500
310
4290DBDB98D95C1D1D585B10940D028333333333333E3BF0000000000000FB0107902409070040501000000000000111010841D405064090740C02480A0340
1001
ACAD
1000
AcDbSavedByObjectVersion
1070
     0
  0
ACAD_PROXY_OBJECT
  5
35
102
{ACAD_REACTORS
330
2A
102
}
330
2A
100
AcDbProxyObject
 90
      499
 91
      501
 93
      412
310
40D11A5B50B409028333333333333E3BF0000000000000FB010790141107004050150841D405064090741402480A02677FFFFFD0
1001
ACAD
1000
AcDbSavedByObjectVersion
1070
     0
  0
ACAD_PROXY_OBJECT
  5
39
102
{ACAD_REACTORS
330
2A
102
}
330
2A
100
AcDbProxyObject
 90
      499
 91
      501
 93
      444
310
42D19858D95C185D1D195C9B90F409028333333333333E3BF0000000000000FB010790141107004050150841D405064090741402480A0350
1001
ACAD
1000
AcDbSavedByObjectVersion
1070
     0
  0
ACAD_PROXY_OBJECT
  5
2B
102
{ACAD_REACTORS
330
2A
102
}
330
2A
100
AcDbProxyObject
 90
      499
 91
      501
 93
      388
310
41119B185D240901404333333333333E3BF0000000000000F9010740A41107004050150841D405064090741402480A1B50
1001
ACAD
1000
AcDbSavedByObjectVersion
1070
     0
  0
ACAD_PROXY_OBJECT
  5
2C
102
{ACAD_REACTORS
330
2A
102
}
330
2A
100
AcDbProxyObject
 90
      499
 91
      501
 93
      476
310
43519B185D15DA5D1A115919D95CD0140901404333333333333E3BF0000000000000F9010740901411070040501600405405064090741402480A1B50
1001
ACAD
1000
AcDbSavedByObjectVersion
1070
     0
  0
ACAD_PROXY_OBJECT
  5
2D
102
{ACAD_REACTORS
330
2A
102
}
330
2A
100
AcDbProxyObject
 90
      499
 91
      501
 93
      412
310
41D1DBDD5C985D5910240902404333333333333E3BF0000000000000F9010740A411070040501641D405064090741402480A1B50
1001
ACAD
1000
AcDbSavedByObjectVersion
1070
     0
  0
ACAD_PROXY_OBJECT
  5
2E
102
{ACAD_REACTORS
330
2A
102
}
330
2A
100
AcDbProxyObject
 90
      499
 91
      501
 93
      500
310
4411DBDD5C985D5915DA5D1A115919D95CD0340902404333333333333E3BF0000000000000F9010740901411070040501600405405064090741402480A1B50
1001
ACAD
1000
AcDbSavedByObjectVersion
1070
     0
  0
ACAD_PROXY_OBJECT
  5
38
102
{ACAD_REACTORS
330
2A
102
}
330
2A
100
AcDbProxyObject
 90
      499
 91
      501
 93
      444
310
42D31A5B995C185D1D195C9B90E409028333333333333E3BF0000000000000FB010790141107004050750841D405064090741402483A0350
1001
ACAD
1000
AcDbSavedByObjectVersion
1070
     0
  0
ACAD_PROXY_OBJECT
  5
33
102
{ACAD_REACTORS
330
2A
102
}
330
2A
100
AcDbProxyObject
 90
      499
 91
      501
 93
      420
310
425499585B1A5CDD1A58D08409028333333333333E3BF0000000000000FB01079019070040501508421405064090741402480A1B40
1001
ACAD
1000
AcDbSavedByObjectVersion
1070
     0
  0
ACAD_PROXY_OBJECT
  5
37
102
{ACAD_REACTORS
330
2A
102
}
330
2A
100
AcDbProxyObject
 90
      499
 91
      501
 93
      412
310
41D51A1A58DAD95B90D409028333333333333E3BF0000000000000FB010790141107004050150C41D405064090741402480A0350
1001
ACAD
1000
AcDbSavedByObjectVersion
1070
     0
  0
XRECORD
  5
B0
102
{ACAD_REACTORS
330
A7
102
}
330
A7
100
AcDbXrecord
 90
        0
  0
XRECORD
  5
C6
102
{ACAD_REACTORS
330
A7
102
}
330
A7
100
AcDbXrecord
1000
DSTYLE
1002
{
1070
   340
340
11
1002
}
  0
XRECORD
  5
B1
102
{ACAD_REACTORS
330
A7
102
}
330
A7
100
AcDbXrecord
  1
{2E483E2C-6AEF-4D0A-B1C8-462DA4E49A86}
  0
XRECORD
  5
AA
102
{ACAD_REACTORS
330
A7
102
}
330
A7
100
AcDbXrecord
  1

  0
XRECORD
  5
AF
102
{ACAD_REACTORS
330
A7
102
}
330
A7
100
AcDbXrecord
 90
        4
  0
XRECORD
  5
AC
102
{ACAD_REACTORS
330
A7
102
}
330
A7
100
AcDbXrecord
340
1A
  0
XRECORD
  5
AE
102
{ACAD_REACTORS
330
A7
102
}
330
A7
100
AcDbXrecord
 90
    10781
  0
XRECORD
  5
AD
102
{ACAD_REACTORS
330
A7
102
}
330
A7
100
AcDbXrecord
340
19
  0
XRECORD
  5
B3
102
{ACAD_REACTORS
330
A7
102
}
330
A7
100
AcDbXrecord
 40
0.0
  0
XRECORD
  5
B6
102
{ACAD_REACTORS
330
A7
102
}
330
A7
100
AcDbXrecord
340
0
  0
XRECORD
  5
BC
102
{ACAD_REACTORS
330
A7
102
}
330
A7
100
AcDbXrecord
 10
0.0
 20
0.0
 30
0.0
  0
XRECORD
  5
B8
102
{ACAD_REACTORS
330
A7
102
}
330
A7
100
AcDbXrecord
 10
0.0
 20
0.0
 30
0.0
  0
XRECORD
  5
BB
102
{ACAD_REACTORS
330
A7
102
}
330
A7
100
AcDbXrecord
 10
0.0
 20
0.0
 30
0.0
  0
XRECORD
  5
B9
102
{ACAD_REACTORS
330
A7
102
}
330
A7
100
AcDbXrecord
 10
0.0
 20
0.0
 30
0.0
  0
XRECORD
  5
BA
102
{ACAD_REACTORS
330
A7
102
}
330
A7
100
AcDbXrecord
 10
0.0
 20
0.0
 30
0.0
  0
XRECORD
  5
B7
102
{ACAD_REACTORS
330
A7
102
}
330
A7
100
AcDbXrecord
 10
0.0
 20
0.0
 30
0.0
  0
XRECORD
  5
B4
102
{ACAD_REACTORS
330
A7
102
}
330
A7
100
AcDbXrecord
340
0
  0
XRECORD
  5
B5
102
{ACAD_REACTORS
330
A7
102
}
330
A7
100
AcDbXrecord
 70
     0
  0
XRECORD
  5
AB
102
{ACAD_REACTORS
330
A7
102
}
330
A7
100
AcDbXrecord
  1

  0
XRECORD
  5
A8
102
{ACAD_REACTORS
330
A7
102
}
330
A7
100
AcDbXrecord
 90
        1
  0
XRECORD
  5
A9
102
{ACAD_REACTORS
330
A7
102
}
330
A7
100
AcDbXrecord
 90
       70
  0
XRECORD
  5
BF
102
{ACAD_REACTORS
330
A7
102
}
330
A7
100
AcDbXrecord
340
0
  0
XRECORD
  5
C5
102
{ACAD_REACTORS
330
A7
102
}
330
A7
100
AcDbXrecord
 10
0.0
 20
0.0
 30
0.0
  0
XRECORD
  5
C1
102
{ACAD_REACTORS
330
A7
102
}
330
A7
100
AcDbXrecord
 10
0.0
 20
0.0
 30
0.0
  0
XRECORD
  5
C4
102
{ACAD_REACTORS
330
A7
102
}
330
A7
100
AcDbXrecord
 10
0.0
 20
0.0
 30
0.0
  0
XRECORD
  5
C2
102
{ACAD_REACTORS
330
A7
102
}
330
A7
100
AcDbXrecord
 10
0.0
 20
0.0
 30
0.0
  0
XRECORD
  5
C3
102
{ACAD_REACTORS
330
A7
102
}
330
A7
100
AcDbXrecord
 10
0.0
 20
0.0
 30
0.0
  0
XRECORD
  5
C0
102
{ACAD_REACTORS
330
A7
102
}
330
A7
100
AcDbXrecord
 10
0.0
 20
0.0
 30
0.0
  0
XRECORD
  5
BD
102
{ACAD_REACTORS
330
A7
102
}
330
A7
100
AcDbXrecord
340
0
  0
XRECORD
  5
BE
102
{ACAD_REACTORS
330
A7
102
}
330
A7
100
AcDbXrecord
 70
     0
  0
XRECORD
  5
B2
102
{ACAD_REACTORS
330
A7
102
}
330
A7
100
AcDbXrecord
  1
{FAEB1C32-E019-11D5-929B-00C0DF256EC4}
  0
DICTIONARYVAR
  5
CA
102
{ACAD_REACTORS
330
C7
102
}
330
C7
100
DictionaryVariables
280
     0
  1
2
  0
DICTIONARYVAR
  5
CB
102
{ACAD_REACTORS
330
C7
102
}
330
C7
100
DictionaryVariables
280
     0
  1
1
  0
DICTIONARY
  5
CE
330
3D
100
AcDbDictionary
280
     1
  3
ACAD_XREC_ROUNDTRIP
360
CF
  0
DICTIONARY
  5
CC
330
3C
100
AcDbDictionary
280
     1
  3
ACAD_XREC_ROUNDTRIP
360
CD
  0
DICTIONARY
  5
D0
330
3E
100
AcDbDictionary
280
     1
  3
ACAD_XREC_ROUNDTRIP
360
D1
  0
XRECORD
  5
CF
102
{ACAD_REACTORS
330
CE
102
}
330
CE
100
AcDbXrecord
102
MATERIAL
148
0.0
149
0.0
149
0.0
 93
        0
 94
      127
282
     0
 72
     1
 77
     1
171
     1
175
     1
179
     1
273
     0
  0
XRECORD
  5
CD
102
{ACAD_REACTORS
330
CC
102
}
330
CC
100
AcDbXrecord
102
MATERIAL
148
0.0
149
0.0
149
0.0
 93
        0
 94
      127
282
     0
 72
     1
 77
     1
171
     1
175
     1
179
     1
273
     0
  0
XRECORD
  5
D1
102
{ACAD_REACTORS
330
D0
102
}
330
D0
100
AcDbXrecord
102
MATERIAL
148
0.0
149
0.0
149
0.0
 93
        0
 94
      127
282
     0
 72
     1
 77
     1
171
     1
175
     1
179
     1
273
     0
  0
ENDSEC
  0
EOF
