  0
SECTION
  2
HEADER
  9
$ACADVER
  1
AC1015
  9
$ACADMAINTVER
 70
     6
  9
$DWGCODEPAGE
  3
ANSI_1250
  9
$INSBASE
 10
0.0
 20
0.0
 30
0.0
  9
$EXTMIN
 10
-27.9859
 20
-20.5128
 30
0.0
  9
$EXTMAX
 10
28.0606
 20
20.5129
 30
0.0
  9
$LIMMIN
 10
0.0
 20
0.0
  9
$LIMMAX
 10
12.0
 20
9.0
  9
$ORTHOMODE
 70
     0
  9
$REGENMODE
 70
     1
  9
$FILLMODE
 70
     1
  9
$QTEXTMODE
 70
     0
  9
$MIRRTEXT
 70
     1
  9
$LTSCALE
 40
1.0
  9
$ATTMODE
 70
     1
  9
$TEXTSIZE
 40
0.2
  9
$TRACEWID
 40
0.05
  9
$TEXTSTYLE
  7
Standard
  9
$CLAYER
  8
0
  9
$CELTYPE
  6
ByLayer
  9
$CECOLOR
 62
   256
  9
$CELTSCALE
 40
1.0
  9
$DISPSILH
 70
     0
  9
$DIMSCALE
 40
1.0
  9
$DIMASZ
 40
0.18
  9
$DIMEXO
 40
0.0625
  9
$DIMDLI
 40
0.38
  9
$DIMRND
 40
0.0
  9
$DIMDLE
 40
0.0
  9
$DIMEXE
 40
0.18
  9
$DIMTP
 40
0.0
  9
$DIMTM
 40
0.0
  9
$DIMTXT
 40
0.18
  9
$DIMCEN
 40
0.09
  9
$DIMTSZ
 40
0.0
  9
$DIMTOL
 70
     0
  9
$DIMLIM
 70
     0
  9
$DIMTIH
 70
     1
  9
$DIMTOH
 70
     1
  9
$DIMSE1
 70
     0
  9
$DIMSE2
 70
     0
  9
$DIMTAD
 70
     0
  9
$DIMZIN
 70
     0
  9
$DIMBLK
  1

  9
$DIMASO
 70
     1
  9
$DIMSHO
 70
     1
  9
$DIMPOST
  1

  9
$DIMAPOST
  1

  9
$DIMALT
 70
     0
  9
$DIMALTD
 70
     2
  9
$DIMALTF
 40
25.4
  9
$DIMLFAC
 40
1.0
  9
$DIMTOFL
 70
     0
  9
$DIMTVP
 40
0.0
  9
$DIMTIX
 70
     0
  9
$DIMSOXD
 70
     0
  9
$DIMSAH
 70
     0
  9
$DIMBLK1
  1

  9
$DIMBLK2
  1

  9
$DIMSTYLE
  2
Standard
  9
$DIMCLRD
 70
     0
  9
$DIMCLRE
 70
     0
  9
$DIMCLRT
 70
     0
  9
$DIMTFAC
 40
1.0
  9
$DIMGAP
 40
0.09
  9
$DIMJUST
 70
     0
  9
$DIMSD1
 70
     0
  9
$DIMSD2
 70
     0
  9
$DIMTOLJ
 70
     1
  9
$DIMTZIN
 70
     0
  9
$DIMALTZ
 70
     0
  9
$DIMALTTZ
 70
     0
  9
$DIMUPT
 70
     0
  9
$DIMDEC
 70
     4
  9
$DIMTDEC
 70
     4
  9
$DIMALTU
 70
     2
  9
$DIMALTTD
 70
     2
  9
$DIMTXSTY
  7
Standard
  9
$DIMAUNIT
 70
     0
  9
$DIMADEC
 70
     0
  9
$DIMALTRND
 40
0.0
  9
$DIMAZIN
 70
     0
  9
$DIMDSEP
 70
    46
  9
$DIMATFIT
 70
     3
  9
$DIMFRAC
 70
     0
  9
$DIMLDRBLK
  1

  9
$DIMLUNIT
 70
     2
  9
$DIMLWD
 70
    -2
  9
$DIMLWE
 70
    -2
  9
$DIMTMOVE
 70
     0
  9
$LUNITS
 70
     2
  9
$LUPREC
 70
     4
  9
$SKETCHINC
 40
0.1
  9
$FILLETRAD
 40
0.5
  9
$AUNITS
 70
     0
  9
$AUPREC
 70
     0
  9
$MENU
  1
.
  9
$ELEVATION
 40
0.0
  9
$PELEVATION
 40
0.0
  9
$THICKNESS
 40
0.0
  9
$LIMCHECK
 70
     0
  9
$CHAMFERA
 40
0.5
  9
$CHAMFERB
 40
0.5
  9
$CHAMFERC
 40
1.0
  9
$CHAMFERD
 40
0.0
  9
$SKPOLY
 70
     0
  9
$TDCREATE
 40
2457637.366144306
  9
$TDUCREATE
 40
2457637.282810972
  9
$TDUPDATE
 40
2457637.366144317
  9
$TDUUPDATE
 40
2457637.282810984
  9
$TDINDWG
 40
0.0000000116
  9
$TDUSRTIMER
 40
0.0000000116
  9
$USRTIMER
 70
     1
  9
$ANGBASE
 50
0.0
  9
$ANGDIR
 70
     0
  9
$PDMODE
 70
     0
  9
$PDSIZE
 40
0.0
  9
$PLINEWID
 40
0.0
  9
$SPLFRAME
 70
     0
  9
$SPLINETYPE
 70
     6
  9
$SPLINESEGS
 70
     8
  9
$HANDSEED
  5
C0
  9
$SURFTAB1
 70
     6
  9
$SURFTAB2
 70
     6
  9
$SURFTYPE
 70
     6
  9
$SURFU
 70
     6
  9
$SURFV
 70
     6
  9
$UCSBASE
  2

  9
$UCSNAME
  2

  9
$UCSORG
 10
0.0
 20
0.0
 30
0.0
  9
$UCSXDIR
 10
1.0
 20
0.0
 30
0.0
  9
$UCSYDIR
 10
0.0
 20
1.0
 30
0.0
  9
$UCSORTHOREF
  2

  9
$UCSORTHOVIEW
 70
     0
  9
$UCSORGTOP
 10
0.0
 20
0.0
 30
0.0
  9
$UCSORGBOTTOM
 10
0.0
 20
0.0
 30
0.0
  9
$UCSORGLEFT
 10
0.0
 20
0.0
 30
0.0
  9
$UCSORGRIGHT
 10
0.0
 20
0.0
 30
0.0
  9
$UCSORGFRONT
 10
0.0
 20
0.0
 30
0.0
  9
$UCSORGBACK
 10
0.0
 20
0.0
 30
0.0
  9
$PUCSBASE
  2

  9
$PUCSNAME
  2

  9
$PUCSORG
 10
0.0
 20
0.0
 30
0.0
  9
$PUCSXDIR
 10
1.0
 20
0.0
 30
0.0
  9
$PUCSYDIR
 10
0.0
 20
1.0
 30
0.0
  9
$PUCSORTHOREF
  2

  9
$PUCSORTHOVIEW
 70
     0
  9
$PUCSORGTOP
 10
0.0
 20
0.0
 30
0.0
  9
$PUCSORGBOTTOM
 10
0.0
 20
0.0
 30
0.0
  9
$PUCSORGLEFT
 10
0.0
 20
0.0
 30
0.0
  9
$PUCSORGRIGHT
 10
0.0
 20
0.0
 30
0.0
  9
$PUCSORGFRONT
 10
0.0
 20
0.0
 30
0.0
  9
$PUCSORGBACK
 10
0.0
 20
0.0
 30
0.0
  9
$USERI1
 70
     0
  9
$USERI2
 70
     0
  9
$USERI3
 70
     0
  9
$USERI4
 70
     0
  9
$USERI5
 70
     0
  9
$USERR1
 40
0.0
  9
$USERR2
 40
0.0
  9
$USERR3
 40
0.0
  9
$USERR4
 40
0.0
  9
$USERR5
 40
0.0
  9
$WORLDVIEW
 70
     1
  9
$SHADEDGE
 70
     3
  9
$SHADEDIF
 70
    70
  9
$TILEMODE
 70
     1
  9
$MAXACTVP
 70
    64
  9
$PINSBASE
 10
0.0
 20
0.0
 30
0.0
  9
$PLIMCHECK
 70
     0
  9
$PEXTMIN
 10
1.000000000000000E+20
 20
1.000000000000000E+20
 30
1.000000000000000E+20
  9
$PEXTMAX
 10
-1.000000000000000E+20
 20
-1.000000000000000E+20
 30
-1.000000000000000E+20
  9
$PLIMMIN
 10
0.0
 20
0.0
  9
$PLIMMAX
 10
12.0
 20
9.0
  9
$UNITMODE
 70
     0
  9
$VISRETAIN
 70
     1
  9
$PLINEGEN
 70
     0
  9
$PSLTSCALE
 70
     1
  9
$TREEDEPTH
 70
  3020
  9
$CMLSTYLE
  2
Standard
  9
$CMLJUST
 70
     0
  9
$CMLSCALE
 40
1.0
  9
$PROXYGRAPHICS
 70
     1
  9
$MEASUREMENT
 70
     0
  9
$CELWEIGHT
370
    -1
  9
$ENDCAPS
280
     0
  9
$JOINSTYLE
280
     0
  9
$LWDISPLAY
290
     0
  9
$INSUNITS
 70
     4
  9
$HYPERLINKBASE
  1

  9
$STYLESHEET
  1

  9
$XEDIT
290
     1
  9
$CEPSNTYPE
380
     0
  9
$PSTYLEMODE
290
     1
  9
$FINGERPRINTGUID
  2
{8A7E9087-DAF4-4FC6-8B3A-4BB379B94BF6}
  9
$VERSIONGUID
  2
{FAEB1C32-E019-11D5-929B-00C0DF256EC4}
  9
$EXTNAMES
290
     1
  9
$PSVPSCALE
 40
0.0
  9
$OLESTARTUP
290
     0
  0
ENDSEC
  0
SECTION
  2
CLASSES
  0
CLASS
  1
ACDBDICTIONARYWDFLT
  2
AcDbDictionaryWithDefault
  3
ObjectDBX Classes
 90
        0
280
     0
281
     0
  0
CLASS
  1
VISUALSTYLE
  2
AcDbVisualStyle
  3
ObjectDBX Classes
 90
     4095
280
     0
281
     0
  0
CLASS
  1
MATERIAL
  2
AcDbMaterial
  3
ObjectDBX Classes
 90
     1153
280
     0
281
     0
  0
CLASS
  1
DICTIONARYVAR
  2
AcDbDictionaryVar
  3
ObjectDBX Classes
 90
        0
280
     0
281
     0
  0
CLASS
  1
ACDBPLACEHOLDER
  2
AcDbPlaceHolder
  3
ObjectDBX Classes
 90
        0
280
     0
281
     0
  0
CLASS
  1
LAYOUT
  2
AcDbLayout
  3
ObjectDBX Classes
 90
        0
280
     0
281
     0
  0
ENDSEC
  0
SECTION
  2
TABLES
  0
TABLE
  2
VPORT
  5
8
330
0
100
AcDbSymbolTable
 70
     1
  0
VPORT
  5
29
330
8
100
AcDbSymbolTableRecord
100
AcDbViewportTableRecord
  2
*Active
 70
     0
 10
0.0
 20
0.0
 11
1.0
 21
1.0
 12
10.42990654205607
 22
4.5
 13
0.0
 23
0.0
 14
0.5
 24
0.5
 15
0.5
 25
0.5
 16
0.0
 26
0.0
 36
1.0
 17
0.0
 27
0.0
 37
0.0
 40
9.0
 41
1.972972972850329
 42
50.0
 43
0.0
 44
0.0
 50
0.0
 51
0.0
 71
     0
 72
   100
 73
     1
 74
     3
 75
     0
 76
     0
 77
     0
 78
     0
281
     0
 65
     1
110
0.0
120
0.0
130
0.0
111
1.0
121
0.0
131
0.0
112
0.0
122
1.0
132
0.0
 79
     0
146
0.0
  0
ENDTAB
  0
TABLE
  2
LTYPE
  5
5
330
0
100
AcDbSymbolTable
 70
     1
  0
LTYPE
  5
14
330
5
100
AcDbSymbolTableRecord
100
AcDbLinetypeTableRecord
  2
ByBlock
 70
     0
  3

 72
    65
 73
     0
 40
0.0
  0
LTYPE
  5
15
330
5
100
AcDbSymbolTableRecord
100
AcDbLinetypeTableRecord
  2
ByLayer
 70
     0
  3

 72
    65
 73
     0
 40
0.0
  0
LTYPE
  5
16
330
5
100
AcDbSymbolTableRecord
100
AcDbLinetypeTableRecord
  2
Continuous
 70
     0
  3
Solid line
 72
    65
 73
     0
 40
0.0
  0
ENDTAB
  0
TABLE
  2
LAYER
  5
2
330
0
100
AcDbSymbolTable
 70
     2
  0
LAYER
  5
10
330
2
100
AcDbSymbolTableRecord
100
AcDbLayerTableRecord
  2
0
 70
     0
 62
     7
  6
Continuous
370
    -3
390
F
  0
LAYER
  5
40
330
2
100
AcDbSymbolTableRecord
100
AcDbLayerTableRecord
  2
Ilustrace
 70
     0
 62
     7
  6
Continuous
370
    -3
390
F
  0
ENDTAB
  0
TABLE
  2
STYLE
  5
3
330
0
100
AcDbSymbolTable
 70
     1
  0
STYLE
  5
11
330
3
100
AcDbSymbolTableRecord
100
AcDbTextStyleTableRecord
  2
Standard
 70
     0
 40
0.0
 41
1.0
 50
0.0
 71
     0
 42
0.2
  3
txt
  4

  0
ENDTAB
  0
TABLE
  2
VIEW
  5
6
330
0
100
AcDbSymbolTable
 70
     0
  0
ENDTAB
  0
TABLE
  2
UCS
  5
7
330
0
100
AcDbSymbolTable
 70
     0
  0
ENDTAB
  0
TABLE
  2
APPID
  5
9
330
0
100
AcDbSymbolTable
 70
     2
  0
APPID
  5
12
330
9
100
AcDbSymbolTableRecord
100
AcDbRegAppTableRecord
  2
ACAD
 70
     0
  0
APPID
  5
3F
330
9
100
AcDbSymbolTableRecord
100
AcDbRegAppTableRecord
  2
ODA
 70
     0
  0
ENDTAB
  0
TABLE
  2
DIMSTYLE
  5
A
330
0
100
AcDbSymbolTable
 70
     1
100
AcDbDimStyleTable
  0
DIMSTYLE
105
27
330
A
100
AcDbSymbolTableRecord
100
AcDbDimStyleTableRecord
  2
Standard
 70
     0
340
11
  0
ENDTAB
  0
TABLE
  2
BLOCK_RECORD
  5
1
330
0
100
AcDbSymbolTable
 70
     1
  0
BLOCK_RECORD
  5
1F
330
1
100
AcDbSymbolTableRecord
100
AcDbBlockTableRecord
  2
*Model_Space
340
22
  0
BLOCK_RECORD
  5
1B
330
1
100
AcDbSymbolTableRecord
100
AcDbBlockTableRecord
  2
*Paper_Space
340
1E
  0
BLOCK_RECORD
  5
23
330
1
100
AcDbSymbolTableRecord
100
AcDbBlockTableRecord
  2
*Paper_Space0
340
26
  0
ENDTAB
  0
ENDSEC
  0
SECTION
  2
BLOCKS
  0
BLOCK
  5
20
330
1F
100
AcDbEntity
  8
0
100
AcDbBlockBegin
  2
*Model_Space
 70
     0
 10
0.0
 20
0.0
 30
0.0
  3
*Model_Space
  1

  0
ENDBLK
  5
21
330
1F
100
AcDbEntity
  8
0
100
AcDbBlockEnd
  0
BLOCK
  5
1C
330
1B
100
AcDbEntity
 67
     1
  8
0
100
AcDbBlockBegin
  2
*Paper_Space
 70
     0
 10
0.0
 20
0.0
 30
0.0
  3
*Paper_Space
  1

  0
ENDBLK
  5
1D
330
1B
100
AcDbEntity
 67
     1
  8
0
100
AcDbBlockEnd
  0
BLOCK
  5
24
330
23
100
AcDbEntity
  8
0
100
AcDbBlockBegin
  2
*Paper_Space0
 70
     0
 10
0.0
 20
0.0
 30
0.0
  3
*Paper_Space0
  1

  0
ENDBLK
  5
25
330
23
100
AcDbEntity
  8
0
100
AcDbBlockEnd
  0
ENDSEC
  0
SECTION
  2
ENTITIES
  0
SPLINE
  5
41
330
1F
100
AcDbEntity
  8
Ilustrace
 62
   252
100
AcDbSpline
210
0.0
220
0.0
230
1.0
 70
    11
 71
     3
 72
   108
 73
   104
 74
     0
 42
0.0000000001
 43
0.0000000001
 40
0.0
 40
0.0
 40
0.0
 40
0.0
 40
0.037037037037037
 40
0.037037037037037
 40
0.037037037037037
 40
0.037037037037037
 40
0.0740740740740741
 40
0.0740740740740741
 40
0.0740740740740741
 40
0.0740740740740741
 40
0.1111111111111111
 40
0.1111111111111111
 40
0.1111111111111111
 40
0.1111111111111111
 40
0.1481481481481481
 40
0.1481481481481481
 40
0.1481481481481481
 40
0.1481481481481481
 40
0.1851851851851852
 40
0.1851851851851852
 40
0.1851851851851852
 40
0.1851851851851852
 40
0.2222222222222222
 40
0.2222222222222222
 40
0.2222222222222222
 40
0.2222222222222222
 40
0.2592592592592592
 40
0.2592592592592592
 40
0.2592592592592592
 40
0.2592592592592592
 40
0.2962962962962963
 40
0.2962962962962963
 40
0.2962962962962963
 40
0.2962962962962963
 40
0.3333333333333333
 40
0.3333333333333333
 40
0.3333333333333333
 40
0.3333333333333333
 40
0.3703703703703703
 40
0.3703703703703703
 40
0.3703703703703703
 40
0.3703703703703703
 40
0.4074074074074074
 40
0.4074074074074074
 40
0.4074074074074074
 40
0.4074074074074074
 40
0.4444444444444444
 40
0.4444444444444444
 40
0.4444444444444444
 40
0.4444444444444444
 40
0.4814814814814815
 40
0.4814814814814815
 40
0.4814814814814815
 40
0.4814814814814815
 40
0.5185185185185185
 40
0.5185185185185185
 40
0.5185185185185185
 40
0.5185185185185185
 40
0.5555555555555556
 40
0.5555555555555556
 40
0.5555555555555556
 40
0.5555555555555556
 40
0.5925925925925926
 40
0.5925925925925926
 40
0.5925925925925926
 40
0.5925925925925926
 40
0.6296296296296297
 40
0.6296296296296297
 40
0.6296296296296297
 40
0.6296296296296297
 40
0.6666666666666666
 40
0.6666666666666666
 40
0.6666666666666666
 40
0.6666666666666666
 40
0.7037037037037037
 40
0.7037037037037037
 40
0.7037037037037037
 40
0.7037037037037037
 40
0.7407407407407407
 40
0.7407407407407407
 40
0.7407407407407407
 40
0.7407407407407407
 40
0.7777777777777778
 40
0.7777777777777778
 40
0.7777777777777778
 40
0.7777777777777778
 40
0.8148148148148148
 40
0.8148148148148148
 40
0.8148148148148148
 40
0.8148148148148148
 40
0.8518518518518519
 40
0.8518518518518519
 40
0.8518518518518519
 40
0.8518518518518519
 40
0.8888888888888888
 40
0.8888888888888888
 40
0.8888888888888888
 40
0.8888888888888888
 40
0.9259259259259259
 40
0.9259259259259259
 40
0.9259259259259259
 40
0.9259259259259259
 40
1.0
 40
1.0
 40
1.0
 40
1.0
 10
-20.0413
 20
9.1762
 30
0.0
 10
-20.0413
 20
9.1762
 30
0.0
 10
25.1366
 20
9.1764
 30
0.0
 10
25.1366
 20
9.1764
 30
0.0
 10
25.1366
 20
9.1764
 30
0.0
 10
25.1366
 20
9.1764
 30
0.0
 10
27.2863
 20
9.2315
 30
0.0
 10
27.2863
 20
9.2315
 30
0.0
 10
27.2863
 20
9.2315
 30
0.0
 10
27.2863
 20
9.2315
 30
0.0
 10
26.6799
 20
9.2205
 30
0.0
 10
26.6799
 20
9.2205
 30
0.0
 10
26.6799
 20
9.2205
 30
0.0
 10
26.6799
 20
9.2205
 30
0.0
 10
26.6799
 20
8.2393
 30
0.0
 10
26.6799
 20
8.2393
 30
0.0
 10
26.6799
 20
8.2393
 30
0.0
 10
26.6799
 20
8.2393
 30
0.0
 10
24.4861
 20
8.1511
 30
0.0
 10
24.4861
 20
8.1511
 30
0.0
 10
24.4861
 20
8.1511
 30
0.0
 10
24.4861
 20
8.1511
 30
0.0
 10
4.251
 20
5.6427
 30
0.0
 10
4.251
 20
5.6427
 30
0.0
 10
4.251
 20
5.6427
 30
0.0
 10
4.251
 20
5.6427
 30
0.0
 10
4.2729
 20
4.1982
 30
0.0
 10
4.2729
 20
4.1982
 30
0.0
 10
4.2729
 20
4.1982
 30
0.0
 10
4.2729
 20
4.1982
 30
0.0
 10
4.1847
 20
3.7848
 30
0.0
 10
4.1847
 20
3.7848
 30
0.0
 10
4.1847
 20
3.7848
 30
0.0
 10
4.1847
 20
3.7848
 30
0.0
 10
4.0524
 20
3.4651
 30
0.0
 10
4.0524
 20
3.4651
 30
0.0
 10
4.0524
 20
3.4651
 30
0.0
 10
4.0524
 20
3.4651
 30
0.0
 10
3.8209
 20
3.1068
 30
0.0
 10
3.8209
 20
3.1068
 30
0.0
 10
3.8209
 20
3.1068
 30
0.0
 10
3.8209
 20
3.1068
 30
0.0
 10
9.2174
 20
-8.6514
 30
0.0
 10
9.2174
 20
-8.6514
 30
0.0
 10
9.2174
 20
-8.6514
 30
0.0
 10
9.2174
 20
-8.6514
 30
0.0
 10
9.2285
 20
-9.0703
 30
0.0
 10
9.2285
 20
-9.0703
 30
0.0
 10
9.2285
 20
-9.0703
 30
0.0
 10
9.2285
 20
-9.0703
 30
0.0
 10
8.9639
 20
-9.5885
 30
0.0
 10
8.9639
 20
-9.5885
 30
0.0
 10
8.9639
 20
-9.5885
 30
0.0
 10
8.9639
 20
-9.5885
 30
0.0
 10
8.0599
 20
-10.1287
 30
0.0
 10
8.0599
 20
-10.1287
 30
0.0
 10
8.0599
 20
-10.1287
 30
0.0
 10
8.0599
 20
-10.1287
 30
0.0
 10
8.126
 20
-10.3822
 30
0.0
 10
8.126
 20
-10.3822
 30
0.0
 10
8.126
 20
-10.3822
 30
0.0
 10
8.126
 20
-10.3822
 30
0.0
 10
-5.6877
 20
-10.4266
 30
0.0
 10
-5.6877
 20
-10.4266
 30
0.0
 10
-5.6877
 20
-10.4266
 30
0.0
 10
-5.6877
 20
-10.4266
 30
0.0
 10
-8.4438
 20
-10.14
 30
0.0
 10
-8.4438
 20
-10.14
 30
0.0
 10
-8.4438
 20
-10.14
 30
0.0
 10
-8.4438
 20
-10.14
 30
0.0
 10
-11.1558
 20
-9.1257
 30
0.0
 10
-11.1558
 20
-9.1257
 30
0.0
 10
-11.1558
 20
-9.1257
 30
0.0
 10
-11.1558
 20
-9.1257
 30
0.0
 10
-13.537
 20
-7.4941
 30
0.0
 10
-13.537
 20
-7.4941
 30
0.0
 10
-13.537
 20
-7.4941
 30
0.0
 10
-13.537
 20
-7.4941
 30
0.0
 10
-15.7419
 20
-5.0467
 30
0.0
 10
-15.7419
 20
-5.0467
 30
0.0
 10
-15.7419
 20
-5.0467
 30
0.0
 10
-15.7419
 20
-5.0467
 30
0.0
 10
-16.8664
 20
-3.1285
 30
0.0
 10
-16.8664
 20
-3.1285
 30
0.0
 10
-16.8664
 20
-3.1285
 30
0.0
 10
-16.8664
 20
-3.1285
 30
0.0
 10
-17.7483
 20
-0.5708
 30
0.0
 10
-17.7483
 20
-0.5708
 30
0.0
 10
-17.7483
 20
-0.5708
 30
0.0
 10
-17.7483
 20
-0.5708
 30
0.0
 10
-18.1452
 20
2.3396
 30
0.0
 10
-18.1452
 20
2.3396
 30
0.0
 10
-18.1452
 20
2.3396
 30
0.0
 10
-18.1452
 20
2.3396
 30
0.0
 10
-18.2444
 20
8.1937
 30
0.0
 10
-18.2444
 20
8.1937
 30
0.0
 10
-18.2444
 20
8.1937
 30
0.0
 10
-18.2444
 20
8.1937
 30
0.0
 10
-20.0745
 20
8.2819
 30
0.0
 10
-20.0745
 20
8.2819
 30
0.0
 10
-20.0745
 20
8.2819
 30
0.0
 10
-20.0745
 20
8.2819
 30
0.0
 10
-20.0413
 20
9.1762
 30
0.0
 10
-20.0413
 20
9.1762
 30
0.0
  0
SPLINE
  5
42
330
1F
100
AcDbEntity
  8
Ilustrace
 62
   251
100
AcDbSpline
210
0.0
220
0.0
230
1.0
 70
    11
 71
     3
 72
    60
 73
    56
 74
     0
 42
0.0000000001
 43
0.0000000001
 40
0.0
 40
0.0
 40
0.0
 40
0.0
 40
0.0666666666666667
 40
0.0666666666666667
 40
0.0666666666666667
 40
0.0666666666666667
 40
0.1333333333333333
 40
0.1333333333333333
 40
0.1333333333333333
 40
0.1333333333333333
 40
0.2
 40
0.2
 40
0.2
 40
0.2
 40
0.2666666666666667
 40
0.2666666666666667
 40
0.2666666666666667
 40
0.2666666666666667
 40
0.3333333333333333
 40
0.3333333333333333
 40
0.3333333333333333
 40
0.3333333333333333
 40
0.4
 40
0.4
 40
0.4
 40
0.4
 40
0.4666666666666667
 40
0.4666666666666667
 40
0.4666666666666667
 40
0.4666666666666667
 40
0.5333333333333333
 40
0.5333333333333333
 40
0.5333333333333333
 40
0.5333333333333333
 40
0.6
 40
0.6
 40
0.6
 40
0.6
 40
0.6666666666666666
 40
0.6666666666666666
 40
0.6666666666666666
 40
0.6666666666666666
 40
0.7333333333333333
 40
0.7333333333333333
 40
0.7333333333333333
 40
0.7333333333333333
 40
0.8
 40
0.8
 40
0.8
 40
0.8
 40
0.8666666666666667
 40
0.8666666666666667
 40
0.8666666666666667
 40
0.8666666666666667
 40
1.0
 40
1.0
 40
1.0
 40
1.0
 10
-20.7192
 20
11.5752
 30
0.0
 10
-20.7688
 20
11.5586
 30
0.0
 10
-21.2483
 20
11.3767
 30
0.0
 10
-21.2483
 20
11.3767
 30
0.0
 10
-21.2483
 20
11.3767
 30
0.0
 10
-21.2483
 20
11.3767
 30
0.0
 10
-20.6475
 20
11.046
 30
0.0
 10
-20.6475
 20
11.046
 30
0.0
 10
-20.6475
 20
11.046
 30
0.0
 10
-20.6475
 20
11.046
 30
0.0
 10
-20.6751
 20
10.3514
 30
0.0
 10
-20.6751
 20
10.3514
 30
0.0
 10
-20.6751
 20
10.3514
 30
0.0
 10
-20.6751
 20
10.3514
 30
0.0
 10
-21.2594
 20
10.0979
 30
0.0
 10
-21.2594
 20
10.0979
 30
0.0
 10
-21.2594
 20
10.0979
 30
0.0
 10
-21.2594
 20
10.0979
 30
0.0
 10
-20.6916
 20
9.8112
 30
0.0
 10
-20.6916
 20
9.8112
 30
0.0
 10
-20.6916
 20
9.8112
 30
0.0
 10
-20.6916
 20
9.8112
 30
0.0
 10
-20.6695
 20
9.1938
 30
0.0
 10
-20.6695
 20
9.1938
 30
0.0
 10
-20.6695
 20
9.1938
 30
0.0
 10
-20.6695
 20
9.1938
 30
0.0
 10
27.2749
 20
9.1948
 30
0.0
 10
27.2749
 20
9.1948
 30
0.0
 10
27.2749
 20
9.1948
 30
0.0
 10
27.2749
 20
9.1948
 30
0.0
 10
27.2039
 20
9.8161
 30
0.0
 10
27.2039
 20
9.8161
 30
0.0
 10
27.2039
 20
9.8161
 30
0.0
 10
27.2039
 20
9.8161
 30
0.0
 10
27.8599
 20
10.1248
 30
0.0
 10
27.8599
 20
10.1248
 30
0.0
 10
27.8599
 20
10.1248
 30
0.0
 10
27.8599
 20
10.1248
 30
0.0
 10
27.3031
 20
10.3343
 30
0.0
 10
27.3031
 20
10.3343
 30
0.0
 10
27.3031
 20
10.3343
 30
0.0
 10
27.3031
 20
10.3343
 30
0.0
 10
27.259
 20
11.0509
 30
0.0
 10
27.259
 20
11.0509
 30
0.0
 10
27.259
 20
11.0509
 30
0.0
 10
27.259
 20
11.0509
 30
0.0
 10
27.8433
 20
11.343
 30
0.0
 10
27.8433
 20
11.343
 30
0.0
 10
27.8433
 20
11.343
 30
0.0
 10
27.8433
 20
11.343
 30
0.0
 10
27.1984
 20
11.6297
 30
0.0
 10
27.1984
 20
11.6297
 30
0.0
 10
27.1984
 20
11.6297
 30
0.0
 10
27.1984
 20
11.6297
 30
0.0
 10
-20.7192
 20
11.5752
 30
0.0
 10
-20.7192
 20
11.5752
 30
0.0
  0
SPLINE
  5
43
330
1F
100
AcDbEntity
  8
Ilustrace
 62
   252
100
AcDbSpline
210
0.0
220
0.0
230
1.0
 70
    11
 71
     3
 72
    36
 73
    32
 74
     0
 42
0.0000000001
 43
0.0000000001
 40
0.0
 40
0.0
 40
0.0
 40
0.0
 40
0.1111111111111111
 40
0.1111111111111111
 40
0.1111111111111111
 40
0.1111111111111111
 40
0.2222222222222222
 40
0.2222222222222222
 40
0.2222222222222222
 40
0.2222222222222222
 40
0.3333333333333333
 40
0.3333333333333333
 40
0.3333333333333333
 40
0.3333333333333333
 40
0.4444444444444444
 40
0.4444444444444444
 40
0.4444444444444444
 40
0.4444444444444444
 40
0.5555555555555556
 40
0.5555555555555556
 40
0.5555555555555556
 40
0.5555555555555556
 40
0.6666666666666666
 40
0.6666666666666666
 40
0.6666666666666666
 40
0.6666666666666666
 40
0.7777777777777778
 40
0.7777777777777778
 40
0.7777777777777778
 40
0.7777777777777778
 40
1.0
 40
1.0
 40
1.0
 40
1.0
 10
-20.653
 20
11.6257
 30
0.0
 10
-20.653
 20
11.6257
 30
0.0
 10
-20.642
 20
12.1769
 30
0.0
 10
-20.642
 20
12.1769
 30
0.0
 10
-20.642
 20
12.1769
 30
0.0
 10
-20.642
 20
12.1769
 30
0.0
 10
-20.1404
 20
12.1604
 30
0.0
 10
-20.1404
 20
12.1604
 30
0.0
 10
-20.1404
 20
12.1604
 30
0.0
 10
-20.1404
 20
12.1604
 30
0.0
 10
-20.1349
 20
12.7282
 30
0.0
 10
-20.1349
 20
12.7282
 30
0.0
 10
-20.1349
 20
12.7282
 30
0.0
 10
-20.1349
 20
12.7282
 30
0.0
 10
26.6831
 20
12.7174
 30
0.0
 10
26.6831
 20
12.7174
 30
0.0
 10
26.6831
 20
12.7174
 30
0.0
 10
26.6831
 20
12.7174
 30
0.0
 10
26.6721
 20
12.2213
 30
0.0
 10
26.6914
 20
12.2268
 30
0.0
 10
26.6914
 20
12.2268
 30
0.0
 10
26.7107
 20
12.2323
 30
0.0
 10
27.2757
 20
12.18
 30
0.0
 10
27.2757
 20
12.18
 30
0.0
 10
27.2757
 20
12.18
 30
0.0
 10
27.2757
 20
12.18
 30
0.0
 10
27.2892
 20
11.6367
 30
0.0
 10
27.2892
 20
11.6367
 30
0.0
 10
27.2892
 20
11.6367
 30
0.0
 10
27.2892
 20
11.6367
 30
0.0
 10
-20.653
 20
11.6257
 30
0.0
 10
-20.653
 20
11.6257
 30
0.0
  0
SPLINE
  5
44
330
1F
100
AcDbEntity
  8
Ilustrace
 62
   250
370
    15
100
AcDbSpline
210
0.0
220
0.0
230
1.0
 70
    24
 71
     3
 72
     8
 73
     4
 74
     0
 42
0.0000000001
 43
0.0000000001
 40
0.0
 40
0.0
 40
0.0
 40
0.0
 40
1.0
 40
1.0
 40
1.0
 40
1.0
 10
-21.3724
 20
17.5557
 30
0.0
 10
-21.3724
 20
17.5557
 30
0.0
 10
-21.3724
 20
11.7287
 30
0.0
 10
-21.3724
 20
11.7287
 30
0.0
  0
SPLINE
  5
45
330
1F
100
AcDbEntity
  8
Ilustrace
 62
   250
370
    15
100
AcDbSpline
210
0.0
220
0.0
230
1.0
 70
    24
 71
     3
 72
     8
 73
     4
 74
     0
 42
0.0000000001
 43
0.0000000001
 40
0.0
 40
0.0
 40
0.0
 40
0.0
 40
1.0
 40
1.0
 40
1.0
 40
1.0
 10
27.9857
 20
17.4156
 30
0.0
 10
27.9857
 20
17.4156
 30
0.0
 10
27.9857
 20
11.745
 30
0.0
 10
27.9857
 20
11.745
 30
0.0
  0
SPLINE
  5
46
330
1F
100
AcDbEntity
  8
Ilustrace
 62
   250
370
    15
100
AcDbSpline
210
0.0
220
0.0
230
1.0
 70
    24
 71
     3
 72
     8
 73
     4
 74
     0
 42
0.0000000001
 43
0.0000000001
 40
0.0
 40
0.0
 40
0.0
 40
0.0
 40
1.0
 40
1.0
 40
1.0
 40
1.0
 10
27.8994
 20
16.8206
 30
0.0
 10
27.8994
 20
16.8206
 30
0.0
 10
-21.0674
 20
16.8206
 30
0.0
 10
-21.0674
 20
16.8206
 30
0.0
  0
SPLINE
  5
47
330
1F
100
AcDbEntity
  8
Ilustrace
 62
   250
370
    15
100
AcDbSpline
210
0.0
220
0.0
230
1.0
 70
    24
 71
     3
 72
     8
 73
     4
 74
     0
 42
0.0000000001
 43
0.0000000001
 40
0.0
 40
0.0
 40
0.0
 40
0.0
 40
1.0
 40
1.0
 40
1.0
 40
1.0
 10
-8.8342
 20
-10.3795
 30
0.0
 10
-8.8342
 20
-10.3795
 30
0.0
 10
-25.5465
 20
-10.3795
 30
0.0
 10
-25.5465
 20
-10.3795
 30
0.0
  0
SPLINE
  5
48
330
1F
100
AcDbEntity
  8
Ilustrace
 62
   250
370
    15
100
AcDbSpline
210
0.0
220
0.0
230
1.0
 70
    24
 71
     3
 72
     8
 73
     4
 74
     0
 42
0.0000000001
 43
0.0000000001
 40
0.0
 40
0.0
 40
0.0
 40
0.0
 40
1.0
 40
1.0
 40
1.0
 40
1.0
 10
-24.9006
 20
12.5867
 30
0.0
 10
-24.9006
 20
12.5867
 30
0.0
 10
-24.9006
 20
-10.0835
 30
0.0
 10
-24.9006
 20
-10.0835
 30
0.0
  0
SPLINE
  5
49
330
1F
100
AcDbEntity
  8
Ilustrace
 62
   250
370
    15
100
AcDbSpline
210
0.0
220
0.0
230
1.0
 70
    24
 71
     3
 72
     8
 73
     4
 74
     0
 42
0.0000000001
 43
0.0000000001
 40
0.0
 40
0.0
 40
0.0
 40
0.0
 40
1.0
 40
1.0
 40
1.0
 40
1.0
 10
-20.3181
 20
12.7585
 30
0.0
 10
-20.3181
 20
12.7585
 30
0.0
 10
-25.4414
 20
12.7585
 30
0.0
 10
-25.4414
 20
12.7585
 30
0.0
  0
SPLINE
  5
4A
330
1F
100
AcDbEntity
  8
Ilustrace
 62
   250
100
AcDbSpline
210
0.0
220
0.0
230
1.0
 70
    11
 71
     3
 72
    48
 73
    44
 74
     0
 42
0.0000000001
 43
0.0000000001
 40
0.0
 40
0.0
 40
0.0
 40
0.0
 40
0.0833333333333333
 40
0.0833333333333333
 40
0.0833333333333333
 40
0.0833333333333333
 40
0.1666666666666667
 40
0.1666666666666667
 40
0.1666666666666667
 40
0.1666666666666667
 40
0.25
 40
0.25
 40
0.25
 40
0.25
 40
0.3333333333333333
 40
0.3333333333333333
 40
0.3333333333333333
 40
0.3333333333333333
 40
0.4166666666666667
 40
0.4166666666666667
 40
0.4166666666666667
 40
0.4166666666666667
 40
0.5
 40
0.5
 40
0.5
 40
0.5
 40
0.5833333333333334
 40
0.5833333333333334
 40
0.5833333333333334
 40
0.5833333333333334
 40
0.6666666666666666
 40
0.6666666666666666
 40
0.6666666666666666
 40
0.6666666666666666
 40
0.75
 40
0.75
 40
0.75
 40
0.75
 40
0.8333333333333334
 40
0.8333333333333334
 40
0.8333333333333334
 40
0.8333333333333334
 40
1.0
 40
1.0
 40
1.0
 40
1.0
 10
-25.4248
 20
0.2722
 30
0.0
 10
-25.4248
 20
0.2722
 30
0.0
 10
-26.1155
 20
0.2722
 30
0.0
 10
-26.1155
 20
0.2722
 30
0.0
 10
-26.1155
 20
0.2722
 30
0.0
 10
-26.1155
 20
0.2722
 30
0.0
 10
-26.1155
 20
0.6253
 30
0.0
 10
-26.1155
 20
0.6253
 30
0.0
 10
-26.1155
 20
0.6253
 30
0.0
 10
-26.1155
 20
0.6253
 30
0.0
 10
-26.3794
 20
0.6253
 30
0.0
 10
-26.3794
 20
0.6253
 30
0.0
 10
-26.3794
 20
0.6253
 30
0.0
 10
-26.3794
 20
0.6253
 30
0.0
 10
-26.3794
 20
0.2722
 30
0.0
 10
-26.3794
 20
0.2722
 30
0.0
 10
-26.3794
 20
0.2722
 30
0.0
 10
-26.3794
 20
0.2722
 30
0.0
 10
-27.9471
 20
0.2722
 30
0.0
 10
-27.9471
 20
0.2722
 30
0.0
 10
-27.9471
 20
0.2722
 30
0.0
 10
-27.9471
 20
0.2722
 30
0.0
 10
-27.9471
 20
-0.0964
 30
0.0
 10
-27.9471
 20
-0.0964
 30
0.0
 10
-27.9471
 20
-0.0964
 30
0.0
 10
-27.9471
 20
-0.0964
 30
0.0
 10
-26.3367
 20
-1.2218
 30
0.0
 10
-26.3367
 20
-1.2218
 30
0.0
 10
-26.3367
 20
-1.2218
 30
0.0
 10
-26.3367
 20
-1.2218
 30
0.0
 10
-26.1155
 20
-1.2218
 30
0.0
 10
-26.1155
 20
-1.2218
 30
0.0
 10
-26.1155
 20
-1.2218
 30
0.0
 10
-26.1155
 20
-1.2218
 30
0.0
 10
-26.1155
 20
-0.0499
 30
0.0
 10
-26.1155
 20
-0.0499
 30
0.0
 10
-26.1155
 20
-0.0499
 30
0.0
 10
-26.1155
 20
-0.0499
 30
0.0
 10
-25.4248
 20
-0.0499
 30
0.0
 10
-25.4248
 20
-0.0499
 30
0.0
 10
-25.4248
 20
-0.0499
 30
0.0
 10
-25.4248
 20
-0.0499
 30
0.0
 10
-25.4248
 20
0.2722
 30
0.0
 10
-25.4248
 20
0.2722
 30
0.0
  0
SPLINE
  5
4B
330
1F
100
AcDbEntity
  8
Ilustrace
 62
   250
100
AcDbSpline
210
0.0
220
0.0
230
1.0
 70
    11
 71
     3
 72
    36
 73
    32
 74
     0
 42
0.0000000001
 43
0.0000000001
 40
0.0
 40
0.0
 40
0.0
 40
0.0
 40
0.1111111111111111
 40
0.1111111111111111
 40
0.1111111111111111
 40
0.1111111111111111
 40
0.2222222222222222
 40
0.2222222222222222
 40
0.2222222222222222
 40
0.2222222222222222
 40
0.3333333333333333
 40
0.3333333333333333
 40
0.3333333333333333
 40
0.3333333333333333
 40
0.4444444444444444
 40
0.4444444444444444
 40
0.4444444444444444
 40
0.4444444444444444
 40
0.5555555555555556
 40
0.5555555555555556
 40
0.5555555555555556
 40
0.5555555555555556
 40
0.6666666666666666
 40
0.6666666666666666
 40
0.6666666666666666
 40
0.6666666666666666
 40
0.7777777777777778
 40
0.7777777777777778
 40
0.7777777777777778
 40
0.7777777777777778
 40
1.0
 40
1.0
 40
1.0
 40
1.0
 10
-26.3794
 20
-0.8764
 30
0.0
 10
-26.3794
 20
-0.8764
 30
0.0
 10
-26.3872
 20
-0.8764
 30
0.0
 10
-26.3872
 20
-0.8764
 30
0.0
 10
-26.3872
 20
-0.8764
 30
0.0
 10
-26.3872
 20
-0.8764
 30
0.0
 10
-27.2448
 20
-0.2594
 30
0.0
 10
-27.2448
 20
-0.2594
 30
0.0
 10
-27.2448
 20
-0.2594
 30
0.0
 10
-27.3023
 20
-0.2252
 30
0.0
 10
-27.3605
 20
-0.1909
 30
0.0
 10
-27.4194
 20
-0.1572
 30
0.0
 10
-27.4194
 20
-0.1572
 30
0.0
 10
-27.4789
 20
-0.1243
 30
0.0
 10
-27.5448
 20
-0.088
 30
0.0
 10
-27.6173
 20
-0.0499
 30
0.0
 10
-27.6173
 20
-0.0499
 30
0.0
 10
-27.6173
 20
-0.0499
 30
0.0
 10
-27.6173
 20
-0.0382
 30
0.0
 10
-27.6173
 20
-0.0382
 30
0.0
 10
-27.6173
 20
-0.0382
 30
0.0
 10
-27.4853
 20
-0.046
 30
0.0
 10
-27.3534
 20
-0.0499
 30
0.0
 10
-27.2215
 20
-0.0499
 30
0.0
 10
-27.2215
 20
-0.0499
 30
0.0
 10
-27.2215
 20
-0.0499
 30
0.0
 10
-26.3794
 20
-0.0499
 30
0.0
 10
-26.3794
 20
-0.0499
 30
0.0
 10
-26.3794
 20
-0.0499
 30
0.0
 10
-26.3794
 20
-0.0499
 30
0.0
 10
-26.3794
 20
-0.8764
 30
0.0
 10
-26.3794
 20
-0.8764
 30
0.0
  0
SPLINE
  5
4C
330
1F
100
AcDbEntity
  8
Ilustrace
 62
   250
100
AcDbSpline
210
0.0
220
0.0
230
1.0
 70
    11
 71
     3
 72
   124
 73
   120
 74
     0
 42
0.0000000001
 43
0.0000000001
 40
0.0
 40
0.0
 40
0.0
 40
0.0
 40
0.032258064516129
 40
0.032258064516129
 40
0.032258064516129
 40
0.032258064516129
 40
0.0645161290322581
 40
0.0645161290322581
 40
0.0645161290322581
 40
0.0645161290322581
 40
0.0967741935483871
 40
0.0967741935483871
 40
0.0967741935483871
 40
0.0967741935483871
 40
0.1290322580645161
 40
0.1290322580645161
 40
0.1290322580645161
 40
0.1290322580645161
 40
0.1612903225806452
 40
0.1612903225806452
 40
0.1612903225806452
 40
0.1612903225806452
 40
0.1935483870967742
 40
0.1935483870967742
 40
0.1935483870967742
 40
0.1935483870967742
 40
0.2258064516129032
 40
0.2258064516129032
 40
0.2258064516129032
 40
0.2258064516129032
 40
0.2580645161290323
 40
0.2580645161290323
 40
0.2580645161290323
 40
0.2580645161290323
 40
0.2903225806451613
 40
0.2903225806451613
 40
0.2903225806451613
 40
0.2903225806451613
 40
0.3225806451612903
 40
0.3225806451612903
 40
0.3225806451612903
 40
0.3225806451612903
 40
0.3548387096774194
 40
0.3548387096774194
 40
0.3548387096774194
 40
0.3548387096774194
 40
0.3870967741935484
 40
0.3870967741935484
 40
0.3870967741935484
 40
0.3870967741935484
 40
0.4193548387096774
 40
0.4193548387096774
 40
0.4193548387096774
 40
0.4193548387096774
 40
0.4516129032258064
 40
0.4516129032258064
 40
0.4516129032258064
 40
0.4516129032258064
 40
0.4838709677419355
 40
0.4838709677419355
 40
0.4838709677419355
 40
0.4838709677419355
 40
0.5161290322580645
 40
0.5161290322580645
 40
0.5161290322580645
 40
0.5161290322580645
 40
0.5483870967741935
 40
0.5483870967741935
 40
0.5483870967741935
 40
0.5483870967741935
 40
0.5806451612903226
 40
0.5806451612903226
 40
0.5806451612903226
 40
0.5806451612903226
 40
0.6129032258064516
 40
0.6129032258064516
 40
0.6129032258064516
 40
0.6129032258064516
 40
0.6451612903225806
 40
0.6451612903225806
 40
0.6451612903225806
 40
0.6451612903225806
 40
0.6774193548387096
 40
0.6774193548387096
 40
0.6774193548387096
 40
0.6774193548387096
 40
0.7096774193548387
 40
0.7096774193548387
 40
0.7096774193548387
 40
0.7096774193548387
 40
0.7419354838709677
 40
0.7419354838709677
 40
0.7419354838709677
 40
0.7419354838709677
 40
0.7741935483870968
 40
0.7741935483870968
 40
0.7741935483870968
 40
0.7741935483870968
 40
0.8064516129032258
 40
0.8064516129032258
 40
0.8064516129032258
 40
0.8064516129032258
 40
0.8387096774193549
 40
0.8387096774193549
 40
0.8387096774193549
 40
0.8387096774193549
 40
0.8709677419354839
 40
0.8709677419354839
 40
0.8709677419354839
 40
0.8709677419354839
 40
0.9032258064516129
 40
0.9032258064516129
 40
0.9032258064516129
 40
0.9032258064516129
 40
0.9354838709677419
 40
0.9354838709677419
 40
0.9354838709677419
 40
0.9354838709677419
 40
1.0
 40
1.0
 40
1.0
 40
1.0
 10
-27.9859
 20
2.325
 30
0.0
 10
-27.9859
 20
2.2939
 30
0.0
 10
-27.9846
 20
2.2571
 30
0.0
 10
-27.982
 20
2.2157
 30
0.0
 10
-27.982
 20
2.2157
 30
0.0
 10
-27.9795
 20
2.1736
 30
0.0
 10
-27.9743
 20
2.1271
 30
0.0
 10
-27.9665
 20
2.0766
 30
0.0
 10
-27.9665
 20
2.0766
 30
0.0
 10
-27.9471
 20
1.9169
 30
0.0
 10
-27.9057
 20
1.7688
 30
0.0
 10
-27.843
 20
1.6323
 30
0.0
 10
-27.843
 20
1.6323
 30
0.0
 10
-27.7803
 20
1.4959
 30
0.0
 10
-27.6975
 20
1.3749
 30
0.0
 10
-27.594
 20
1.2695
 30
0.0
 10
-27.594
 20
1.2695
 30
0.0
 10
-27.5112
 20
1.1848
 30
0.0
 10
-27.4129
 20
1.1104
 30
0.0
 10
-27.2991
 20
1.047
 30
0.0
 10
-27.2991
 20
1.047
 30
0.0
 10
-27.1859
 20
0.983
 30
0.0
 10
-27.0585
 20
0.9332
 30
0.0
 10
-26.9175
 20
0.897
 30
0.0
 10
-26.9175
 20
0.897
 30
0.0
 10
-26.7765
 20
0.8614
 30
0.0
 10
-26.6226
 20
0.8433
 30
0.0
 10
-26.457
 20
0.8426
 30
0.0
 10
-26.457
 20
0.8426
 30
0.0
 10
-26.2927
 20
0.8433
 30
0.0
 10
-26.1446
 20
0.8646
 30
0.0
 10
-26.0127
 20
0.906
 30
0.0
 10
-26.0127
 20
0.906
 30
0.0
 10
-25.8801
 20
0.9481
 30
0.0
 10
-25.7676
 20
1.0082
 30
0.0
 10
-25.6738
 20
1.0865
 30
0.0
 10
-25.6738
 20
1.0865
 30
0.0
 10
-25.58
 20
1.1641
 30
0.0
 10
-25.5076
 20
1.2579
 30
0.0
 10
-25.4578
 20
1.3665
 30
0.0
 10
-25.4578
 20
1.3665
 30
0.0
 10
-25.408
 20
1.4752
 30
0.0
 10
-25.3828
 20
1.5967
 30
0.0
 10
-25.3821
 20
1.7313
 30
0.0
 10
-25.3821
 20
1.7313
 30
0.0
 10
-25.3834
 20
1.8632
 30
0.0
 10
-25.408
 20
1.9816
 30
0.0
 10
-25.4558
 20
2.0857
 30
0.0
 10
-25.4558
 20
2.0857
 30
0.0
 10
-25.5044
 20
2.1892
 30
0.0
 10
-25.5703
 20
2.2778
 30
0.0
 10
-25.6537
 20
2.3502
 30
0.0
 10
-25.6537
 20
2.3502
 30
0.0
 10
-25.7372
 20
2.4226
 30
0.0
 10
-25.8323
 20
2.4783
 30
0.0
 10
-25.939
 20
2.5158
 30
0.0
 10
-25.939
 20
2.5158
 30
0.0
 10
-26.045
 20
2.5539
 30
0.0
 10
-26.1569
 20
2.5733
 30
0.0
 10
-26.2746
 20
2.5733
 30
0.0
 10
-26.2746
 20
2.5733
 30
0.0
 10
-26.3975
 20
2.5727
 30
0.0
 10
-26.5088
 20
2.5539
 30
0.0
 10
-26.6084
 20
2.5171
 30
0.0
 10
-26.6084
 20
2.5171
 30
0.0
 10
-26.708
 20
2.4802
 30
0.0
 10
-26.794
 20
2.4278
 30
0.0
 10
-26.8658
 20
2.3606
 30
0.0
 10
-26.8658
 20
2.3606
 30
0.0
 10
-26.9369
 20
2.2927
 30
0.0
 10
-26.9925
 20
2.2125
 30
0.0
 10
-27.0307
 20
2.12
 30
0.0
 10
-27.0307
 20
2.12
 30
0.0
 10
-27.0695
 20
2.0275
 30
0.0
 10
-27.0889
 20
1.9246
 30
0.0
 10
-27.0895
 20
1.8128
 30
0.0
 10
-27.0895
 20
1.8128
 30
0.0
 10
-27.0889
 20
1.7196
 30
0.0
 10
-27.0753
 20
1.6343
 30
0.0
 10
-27.0494
 20
1.5566
 30
0.0
 10
-27.0494
 20
1.5566
 30
0.0
 10
-27.0229
 20
1.479
 30
0.0
 10
-26.988
 20
1.4098
 30
0.0
 10
-26.9434
 20
1.3497
 30
0.0
 10
-26.9434
 20
1.3497
 30
0.0
 10
-26.8994
 20
1.2902
 30
0.0
 10
-26.8496
 20
1.2397
 30
0.0
 10
-26.7946
 20
1.1996
 30
0.0
 10
-26.7946
 20
1.1996
 30
0.0
 10
-26.7946
 20
1.1996
 30
0.0
 10
-26.7946
 20
1.1919
 30
0.0
 10
-26.7946
 20
1.1919
 30
0.0
 10
-26.7946
 20
1.1919
 30
0.0
 10
-26.9
 20
1.2061
 30
0.0
 10
-27.0016
 20
1.2346
 30
0.0
 10
-27.0992
 20
1.2779
 30
0.0
 10
-27.0992
 20
1.2779
 30
0.0
 10
-27.1962
 20
1.3206
 30
0.0
 10
-27.2855
 20
1.3775
 30
0.0
 10
-27.3663
 20
1.4499
 30
0.0
 10
-27.3663
 20
1.4499
 30
0.0
 10
-27.4465
 20
1.5224
 30
0.0
 10
-27.5151
 20
1.6097
 30
0.0
 10
-27.5707
 20
1.7125
 30
0.0
 10
-27.5707
 20
1.7125
 30
0.0
 10
-27.6263
 20
1.8153
 30
0.0
 10
-27.6651
 20
1.9344
 30
0.0
 10
-27.6871
 20
2.0689
 30
0.0
 10
-27.6871
 20
2.0689
 30
0.0
 10
-27.6949
 20
2.1174
 30
0.0
 10
-27.7007
 20
2.1639
 30
0.0
 10
-27.7039
 20
2.2073
 30
0.0
 10
-27.7039
 20
2.2073
 30
0.0
 10
-27.7078
 20
2.2506
 30
0.0
 10
-27.7085
 20
2.2901
 30
0.0
 10
-27.7065
 20
2.325
 30
0.0
 10
-27.7065
 20
2.325
 30
0.0
 10
-27.7065
 20
2.325
 30
0.0
 10
-27.9859
 20
2.325
 30
0.0
 10
-27.9859
 20
2.325
 30
0.0
  0
SPLINE
  5
4D
330
1F
100
AcDbEntity
  8
Ilustrace
 62
   250
100
AcDbSpline
210
0.0
220
0.0
230
1.0
 70
    11
 71
     3
 72
    64
 73
    60
 74
     0
 42
0.0000000001
 43
0.0000000001
 40
0.0
 40
0.0
 40
0.0
 40
0.0
 40
0.0625
 40
0.0625
 40
0.0625
 40
0.0625
 40
0.125
 40
0.125
 40
0.125
 40
0.125
 40
0.1875
 40
0.1875
 40
0.1875
 40
0.1875
 40
0.25
 40
0.25
 40
0.25
 40
0.25
 40
0.3125
 40
0.3125
 40
0.3125
 40
0.3125
 40
0.375
 40
0.375
 40
0.375
 40
0.375
 40
0.4375
 40
0.4375
 40
0.4375
 40
0.4375
 40
0.5
 40
0.5
 40
0.5
 40
0.5
 40
0.5625
 40
0.5625
 40
0.5625
 40
0.5625
 40
0.625
 40
0.625
 40
0.625
 40
0.625
 40
0.6875
 40
0.6875
 40
0.6875
 40
0.6875
 40
0.75
 40
0.75
 40
0.75
 40
0.75
 40
0.8125
 40
0.8125
 40
0.8125
 40
0.8125
 40
0.875
 40
0.875
 40
0.875
 40
0.875
 40
1.0
 40
1.0
 40
1.0
 40
1.0
 10
-25.646
 20
1.739
 30
0.0
 10
-25.6466
 20
1.6485
 30
0.0
 10
-25.6647
 20
1.5689
 30
0.0
 10
-25.701
 20
1.4997
 30
0.0
 10
-25.701
 20
1.4997
 30
0.0
 10
-25.7372
 20
1.4312
 30
0.0
 10
-25.7876
 20
1.373
 30
0.0
 10
-25.8529
 20
1.3258
 30
0.0
 10
-25.8529
 20
1.3258
 30
0.0
 10
-25.9183
 20
1.2785
 30
0.0
 10
-25.9952
 20
1.243
 30
0.0
 10
-26.0832
 20
1.2184
 30
0.0
 10
-26.0832
 20
1.2184
 30
0.0
 10
-26.1711
 20
1.1938
 30
0.0
 10
-26.2675
 20
1.1815
 30
0.0
 10
-26.3716
 20
1.1802
 30
0.0
 10
-26.3716
 20
1.1802
 30
0.0
 10
-26.4027
 20
1.1802
 30
0.0
 10
-26.4298
 20
1.1841
 30
0.0
 10
-26.4544
 20
1.1906
 30
0.0
 10
-26.4544
 20
1.1906
 30
0.0
 10
-26.4784
 20
1.1971
 30
0.0
 10
-26.4997
 20
1.2055
 30
0.0
 10
-26.5191
 20
1.2152
 30
0.0
 10
-26.5191
 20
1.2152
 30
0.0
 10
-26.5818
 20
1.2469
 30
0.0
 10
-26.6362
 20
1.2876
 30
0.0
 10
-26.6827
 20
1.3387
 30
0.0
 10
-26.6827
 20
1.3387
 30
0.0
 10
-26.7286
 20
1.3891
 30
0.0
 10
-26.7649
 20
1.4461
 30
0.0
 10
-26.7907
 20
1.5094
 30
0.0
 10
-26.7907
 20
1.5094
 30
0.0
 10
-26.816
 20
1.5728
 30
0.0
 10
-26.8295
 20
1.6388
 30
0.0
 10
-26.8295
 20
1.708
 30
0.0
 10
-26.8295
 20
1.708
 30
0.0
 10
-26.8289
 20
1.8134
 30
0.0
 10
-26.8056
 20
1.9046
 30
0.0
 10
-26.7597
 20
1.9829
 30
0.0
 10
-26.7597
 20
1.9829
 30
0.0
 10
-26.7138
 20
2.0605
 30
0.0
 10
-26.6478
 20
2.1206
 30
0.0
 10
-26.5618
 20
2.1633
 30
0.0
 10
-26.5618
 20
2.1633
 30
0.0
 10
-26.4758
 20
2.206
 30
0.0
 10
-26.3723
 20
2.2273
 30
0.0
 10
-26.2513
 20
2.228
 30
0.0
 10
-26.2513
 20
2.228
 30
0.0
 10
-26.1304
 20
2.2273
 30
0.0
 10
-26.0243
 20
2.2066
 30
0.0
 10
-25.9338
 20
2.1659
 30
0.0
 10
-25.9338
 20
2.1659
 30
0.0
 10
-25.8432
 20
2.1251
 30
0.0
 10
-25.7734
 20
2.0682
 30
0.0
 10
-25.723
 20
1.9951
 30
0.0
 10
-25.723
 20
1.9951
 30
0.0
 10
-25.6725
 20
1.9221
 30
0.0
 10
-25.6466
 20
1.8367
 30
0.0
 10
-25.646
 20
1.739
 30
0.0
  0
SPLINE
  5
4E
330
1F
100
AcDbEntity
  8
Ilustrace
 62
   250
100
AcDbSpline
210
0.0
220
0.0
230
1.0
 70
    11
 71
     3
 72
    68
 73
    64
 74
     0
 42
0.0000000001
 43
0.0000000001
 40
0.0
 40
0.0
 40
0.0
 40
0.0
 40
0.0588235294117647
 40
0.0588235294117647
 40
0.0588235294117647
 40
0.0588235294117647
 40
0.1176470588235294
 40
0.1176470588235294
 40
0.1176470588235294
 40
0.1176470588235294
 40
0.1764705882352941
 40
0.1764705882352941
 40
0.1764705882352941
 40
0.1764705882352941
 40
0.2352941176470588
 40
0.2352941176470588
 40
0.2352941176470588
 40
0.2352941176470588
 40
0.2941176470588235
 40
0.2941176470588235
 40
0.2941176470588235
 40
0.2941176470588235
 40
0.3529411764705883
 40
0.3529411764705883
 40
0.3529411764705883
 40
0.3529411764705883
 40
0.4117647058823529
 40
0.4117647058823529
 40
0.4117647058823529
 40
0.4117647058823529
 40
0.4705882352941176
 40
0.4705882352941176
 40
0.4705882352941176
 40
0.4705882352941176
 40
0.5294117647058824
 40
0.5294117647058824
 40
0.5294117647058824
 40
0.5294117647058824
 40
0.5882352941176471
 40
0.5882352941176471
 40
0.5882352941176471
 40
0.5882352941176471
 40
0.6470588235294118
 40
0.6470588235294118
 40
0.6470588235294118
 40
0.6470588235294118
 40
0.7058823529411765
 40
0.7058823529411765
 40
0.7058823529411765
 40
0.7058823529411765
 40
0.7647058823529411
 40
0.7647058823529411
 40
0.7647058823529411
 40
0.7647058823529411
 40
0.8235294117647058
 40
0.8235294117647058
 40
0.8235294117647058
 40
0.8235294117647058
 40
0.8823529411764706
 40
0.8823529411764706
 40
0.8823529411764706
 40
0.8823529411764706
 40
1.0
 40
1.0
 40
1.0
 40
1.0
 10
0.1044
 20
20.4392
 30
0.0
 10
0.0423
 20
20.3577
 30
0.0
 10
-0.0178
 20
20.2652
 30
0.0
 10
-0.0773
 20
20.1604
 30
0.0
 10
-0.0773
 20
20.1604
 30
0.0
 10
-0.1368
 20
20.0563
 30
0.0
 10
-0.1912
 20
19.9386
 30
0.0
 10
-0.2397
 20
19.8086
 30
0.0
 10
-0.2397
 20
19.8086
 30
0.0
 10
-0.2888
 20
19.6786
 30
0.0
 10
-0.3276
 20
19.5337
 30
0.0
 10
-0.3574
 20
19.3753
 30
0.0
 10
-0.3574
 20
19.3753
 30
0.0
 10
-0.3865
 20
19.2162
 30
0.0
 10
-0.402
 20
19.0422
 30
0.0
 10
-0.4039
 20
18.852
 30
0.0
 10
-0.4039
 20
18.852
 30
0.0
 10
-0.4033
 20
18.6632
 30
0.0
 10
-0.3884
 20
18.4899
 30
0.0
 10
-0.3587
 20
18.3321
 30
0.0
 10
-0.3587
 20
18.3321
 30
0.0
 10
-0.3296
 20
18.1742
 30
0.0
 10
-0.2901
 20
18.0307
 30
0.0
 10
-0.2416
 20
17.9013
 30
0.0
 10
-0.2416
 20
17.9013
 30
0.0
 10
-0.1925
 20
17.772
 30
0.0
 10
-0.1381
 20
17.6556
 30
0.0
 10
-0.078
 20
17.5521
 30
0.0
 10
-0.078
 20
17.5521
 30
0.0
 10
-0.0185
 20
17.4486
 30
0.0
 10
0.0423
 20
17.3568
 30
0.0
 10
0.1044
 20
17.2766
 30
0.0
 10
0.1044
 20
17.2766
 30
0.0
 10
0.1044
 20
17.2766
 30
0.0
 10
0.3683
 20
17.2766
 30
0.0
 10
0.3683
 20
17.2766
 30
0.0
 10
0.3683
 20
17.2766
 30
0.0
 10
0.2764
 20
17.4053
 30
0.0
 10
0.1943
 20
17.5475
 30
0.0
 10
0.1219
 20
17.7028
 30
0.0
 10
0.1219
 20
17.7028
 30
0.0
 10
0.0488
 20
17.8586
 30
0.0
 10
-0.0088
 20
18.0307
 30
0.0
 10
-0.0515
 20
18.2202
 30
0.0
 10
-0.0515
 20
18.2202
 30
0.0
 10
-0.0942
 20
18.409
 30
0.0
 10
-0.1161
 20
18.6186
 30
0.0
 10
-0.1168
 20
18.8482
 30
0.0
 10
-0.1168
 20
18.8482
 30
0.0
 10
-0.1161
 20
19.0829
 30
0.0
 10
-0.0954
 20
19.297
 30
0.0
 10
-0.0541
 20
19.4891
 30
0.0
 10
-0.0541
 20
19.4891
 30
0.0
 10
-0.0127
 20
19.6818
 30
0.0
 10
0.0442
 20
19.8564
 30
0.0
 10
0.1167
 20
20.013
 30
0.0
 10
0.1167
 20
20.013
 30
0.0
 10
0.1891
 20
20.1695
 30
0.0
 10
0.2732
 20
20.3118
 30
0.0
 10
0.3683
 20
20.4392
 30
0.0
 10
0.3683
 20
20.4392
 30
0.0
 10
0.3683
 20
20.4392
 30
0.0
 10
0.1044
 20
20.4392
 30
0.0
 10
0.1044
 20
20.4392
 30
0.0
  0
SPLINE
  5
4F
330
1F
100
AcDbEntity
  8
Ilustrace
 62
   250
100
AcDbSpline
210
0.0
220
0.0
230
1.0
 70
    11
 71
     3
 72
   104
 73
   100
 74
     0
 42
0.0000000001
 43
0.0000000001
 40
0.0
 40
0.0
 40
0.0
 40
0.0
 40
0.0384615384615385
 40
0.0384615384615385
 40
0.0384615384615385
 40
0.0384615384615385
 40
0.0769230769230769
 40
0.0769230769230769
 40
0.0769230769230769
 40
0.0769230769230769
 40
0.1153846153846154
 40
0.1153846153846154
 40
0.1153846153846154
 40
0.1153846153846154
 40
0.1538461538461539
 40
0.1538461538461539
 40
0.1538461538461539
 40
0.1538461538461539
 40
0.1923076923076923
 40
0.1923076923076923
 40
0.1923076923076923
 40
0.1923076923076923
 40
0.2307692307692308
 40
0.2307692307692308
 40
0.2307692307692308
 40
0.2307692307692308
 40
0.2692307692307692
 40
0.2692307692307692
 40
0.2692307692307692
 40
0.2692307692307692
 40
0.3076923076923077
 40
0.3076923076923077
 40
0.3076923076923077
 40
0.3076923076923077
 40
0.3461538461538461
 40
0.3461538461538461
 40
0.3461538461538461
 40
0.3461538461538461
 40
0.3846153846153846
 40
0.3846153846153846
 40
0.3846153846153846
 40
0.3846153846153846
 40
0.4230769230769231
 40
0.4230769230769231
 40
0.4230769230769231
 40
0.4230769230769231
 40
0.4615384615384616
 40
0.4615384615384616
 40
0.4615384615384616
 40
0.4615384615384616
 40
0.5
 40
0.5
 40
0.5
 40
0.5
 40
0.5384615384615384
 40
0.5384615384615384
 40
0.5384615384615384
 40
0.5384615384615384
 40
0.5769230769230769
 40
0.5769230769230769
 40
0.5769230769230769
 40
0.5769230769230769
 40
0.6153846153846154
 40
0.6153846153846154
 40
0.6153846153846154
 40
0.6153846153846154
 40
0.6538461538461539
 40
0.6538461538461539
 40
0.6538461538461539
 40
0.6538461538461539
 40
0.6923076923076923
 40
0.6923076923076923
 40
0.6923076923076923
 40
0.6923076923076923
 40
0.7307692307692307
 40
0.7307692307692307
 40
0.7307692307692307
 40
0.7307692307692307
 40
0.7692307692307693
 40
0.7692307692307693
 40
0.7692307692307693
 40
0.7692307692307693
 40
0.8076923076923077
 40
0.8076923076923077
 40
0.8076923076923077
 40
0.8076923076923077
 40
0.8461538461538461
 40
0.8461538461538461
 40
0.8461538461538461
 40
0.8461538461538461
 40
0.8846153846153846
 40
0.8846153846153846
 40
0.8846153846153846
 40
0.8846153846153846
 40
0.9230769230769231
 40
0.9230769230769231
 40
0.9230769230769231
 40
0.9230769230769231
 40
1.0
 40
1.0
 40
1.0
 40
1.0
 10
1.7071
 20
17.5792
 30
0.0
 10
1.7071
 20
17.5792
 30
0.0
 10
1.9516
 20
17.913
 30
0.0
 10
1.9516
 20
17.913
 30
0.0
 10
1.9516
 20
17.913
 30
0.0
 10
2.0454
 20
17.8451
 30
0.0
 10
2.1482
 20
17.7927
 30
0.0
 10
2.2594
 20
17.7571
 30
0.0
 10
2.2594
 20
17.7571
 30
0.0
 10
2.3713
 20
17.7215
 30
0.0
 10
2.4884
 20
17.7034
 30
0.0
 10
2.6113
 20
17.7034
 30
0.0
 10
2.6113
 20
17.7034
 30
0.0
 10
2.7374
 20
17.7034
 30
0.0
 10
2.8596
 20
17.7222
 30
0.0
 10
2.9767
 20
17.759
 30
0.0
 10
2.9767
 20
17.759
 30
0.0
 10
3.0937
 20
17.7959
 30
0.0
 10
3.2024
 20
17.8509
 30
0.0
 10
3.302
 20
17.9246
 30
0.0
 10
3.302
 20
17.9246
 30
0.0
 10
3.4022
 20
17.9977
 30
0.0
 10
3.4896
 20
18.0895
 30
0.0
 10
3.5646
 20
18.1995
 30
0.0
 10
3.5646
 20
18.1995
 30
0.0
 10
3.639
 20
18.3094
 30
0.0
 10
3.6972
 20
18.4375
 30
0.0
 10
3.7392
 20
18.5843
 30
0.0
 10
3.7392
 20
18.5843
 30
0.0
 10
3.7806
 20
18.7305
 30
0.0
 10
3.8019
 20
18.8947
 30
0.0
 10
3.8026
 20
19.0771
 30
0.0
 10
3.8026
 20
19.0771
 30
0.0
 10
3.8026
 20
19.2058
 30
0.0
 10
3.7897
 20
19.3281
 30
0.0
 10
3.7631
 20
19.4445
 30
0.0
 10
3.7631
 20
19.4445
 30
0.0
 10
3.7373
 20
19.5615
 30
0.0
 10
3.6991
 20
19.6702
 30
0.0
 10
3.6493
 20
19.7704
 30
0.0
 10
3.6493
 20
19.7704
 30
0.0
 10
3.5989
 20
19.8707
 30
0.0
 10
3.5374
 20
19.9599
 30
0.0
 10
3.465
 20
20.0395
 30
0.0
 10
3.465
 20
20.0395
 30
0.0
 10
3.465
 20
20.0395
 30
0.0
 10
3.7056
 20
20.3732
 30
0.0
 10
3.7056
 20
20.3732
 30
0.0
 10
3.7056
 20
20.3732
 30
0.0
 10
3.7056
 20
20.3732
 30
0.0
 10
3.4999
 20
20.5129
 30
0.0
 10
3.4999
 20
20.5129
 30
0.0
 10
3.4999
 20
20.5129
 30
0.0
 10
3.4999
 20
20.5129
 30
0.0
 10
3.271
 20
20.1986
 30
0.0
 10
3.271
 20
20.1986
 30
0.0
 10
3.271
 20
20.1986
 30
0.0
 10
3.1772
 20
20.2684
 30
0.0
 10
3.0756
 20
20.3208
 30
0.0
 10
2.9657
 20
20.3557
 30
0.0
 10
2.9657
 20
20.3557
 30
0.0
 10
2.8551
 20
20.3907
 30
0.0
 10
2.74
 20
20.4081
 30
0.0
 10
2.619
 20
20.4081
 30
0.0
 10
2.619
 20
20.4081
 30
0.0
 10
2.4464
 20
20.4075
 30
0.0
 10
2.2873
 20
20.3751
 30
0.0
 10
2.1404
 20
20.3111
 30
0.0
 10
2.1404
 20
20.3111
 30
0.0
 10
1.9943
 20
20.2471
 30
0.0
 10
1.8669
 20
20.1546
 30
0.0
 10
1.7582
 20
20.0349
 30
0.0
 10
1.7582
 20
20.0349
 30
0.0
 10
1.6489
 20
19.9153
 30
0.0
 10
1.5648
 20
19.7717
 30
0.0
 10
1.504
 20
19.6042
 30
0.0
 10
1.504
 20
19.6042
 30
0.0
 10
1.4439
 20
19.4367
 30
0.0
 10
1.4128
 20
19.2498
 30
0.0
 10
1.4122
 20
19.0422
 30
0.0
 10
1.4122
 20
19.0422
 30
0.0
 10
1.4122
 20
18.9115
 30
0.0
 10
1.4264
 20
18.7867
 30
0.0
 10
1.4536
 20
18.669
 30
0.0
 10
1.4536
 20
18.669
 30
0.0
 10
1.4808
 20
18.5513
 30
0.0
 10
1.5202
 20
18.442
 30
0.0
 10
1.5713
 20
18.3418
 30
0.0
 10
1.5713
 20
18.3418
 30
0.0
 10
1.623
 20
18.2415
 30
0.0
 10
1.6851
 20
18.1516
 30
0.0
 10
1.7576
 20
18.0721
 30
0.0
 10
1.7576
 20
18.0721
 30
0.0
 10
1.7576
 20
18.0721
 30
0.0
 10
1.517
 20
17.7345
 30
0.0
 10
1.517
 20
17.7345
 30
0.0
 10
1.517
 20
17.7345
 30
0.0
 10
1.517
 20
17.7345
 30
0.0
 10
1.7071
 20
17.5792
 30
0.0
 10
1.7071
 20
17.5792
 30
0.0
  0
SPLINE
  5
50
330
1F
100
AcDbEntity
  8
Ilustrace
 62
   250
100
AcDbSpline
210
0.0
220
0.0
230
1.0
 70
    11
 71
     3
 72
    52
 73
    48
 74
     0
 42
0.0000000001
 43
0.0000000001
 40
0.0
 40
0.0
 40
0.0
 40
0.0
 40
0.0769230769230769
 40
0.0769230769230769
 40
0.0769230769230769
 40
0.0769230769230769
 40
0.1538461538461539
 40
0.1538461538461539
 40
0.1538461538461539
 40
0.1538461538461539
 40
0.2307692307692308
 40
0.2307692307692308
 40
0.2307692307692308
 40
0.2307692307692308
 40
0.3076923076923077
 40
0.3076923076923077
 40
0.3076923076923077
 40
0.3076923076923077
 40
0.3846153846153846
 40
0.3846153846153846
 40
0.3846153846153846
 40
0.3846153846153846
 40
0.4615384615384616
 40
0.4615384615384616
 40
0.4615384615384616
 40
0.4615384615384616
 40
0.5384615384615384
 40
0.5384615384615384
 40
0.5384615384615384
 40
0.5384615384615384
 40
0.6153846153846154
 40
0.6153846153846154
 40
0.6153846153846154
 40
0.6153846153846154
 40
0.6923076923076923
 40
0.6923076923076923
 40
0.6923076923076923
 40
0.6923076923076923
 40
0.7692307692307693
 40
0.7692307692307693
 40
0.7692307692307693
 40
0.7692307692307693
 40
0.8461538461538461
 40
0.8461538461538461
 40
0.8461538461538461
 40
0.8461538461538461
 40
1.0
 40
1.0
 40
1.0
 40
1.0
 10
1.9555
 20
18.3592
 30
0.0
 10
1.9555
 20
18.3592
 30
0.0
 10
1.9477
 20
18.3553
 30
0.0
 10
1.9477
 20
18.3553
 30
0.0
 10
1.9477
 20
18.3553
 30
0.0
 10
1.9089
 20
18.422
 30
0.0
 10
1.8753
 20
18.4912
 30
0.0
 10
1.8468
 20
18.5623
 30
0.0
 10
1.8468
 20
18.5623
 30
0.0
 10
1.8184
 20
18.6341
 30
0.0
 10
1.7964
 20
18.7098
 30
0.0
 10
1.7808
 20
18.7912
 30
0.0
 10
1.7808
 20
18.7912
 30
0.0
 10
1.7653
 20
18.8721
 30
0.0
 10
1.7576
 20
18.9613
 30
0.0
 10
1.7576
 20
19.0577
 30
0.0
 10
1.7576
 20
19.0577
 30
0.0
 10
1.7576
 20
19.169
 30
0.0
 10
1.7692
 20
19.2763
 30
0.0
 10
1.7918
 20
19.3817
 30
0.0
 10
1.7918
 20
19.3817
 30
0.0
 10
1.8151
 20
19.4865
 30
0.0
 10
1.8494
 20
19.5848
 30
0.0
 10
1.8947
 20
19.6754
 30
0.0
 10
1.8947
 20
19.6754
 30
0.0
 10
1.9406
 20
19.7665
 30
0.0
 10
1.9975
 20
19.8467
 30
0.0
 10
2.0661
 20
19.9153
 30
0.0
 10
2.0661
 20
19.9153
 30
0.0
 10
2.1346
 20
19.9845
 30
0.0
 10
2.2142
 20
20.0382
 30
0.0
 10
2.3047
 20
20.077
 30
0.0
 10
2.3047
 20
20.077
 30
0.0
 10
2.3959
 20
20.1164
 30
0.0
 10
2.4981
 20
20.1358
 30
0.0
 10
2.6113
 20
20.1365
 30
0.0
 10
2.6113
 20
20.1365
 30
0.0
 10
2.7102
 20
20.1358
 30
0.0
 10
2.8008
 20
20.1197
 30
0.0
 10
2.8823
 20
20.0873
 30
0.0
 10
2.8823
 20
20.0873
 30
0.0
 10
2.9644
 20
20.0556
 30
0.0
 10
3.0381
 20
20.011
 30
0.0
 10
3.1041
 20
19.9541
 30
0.0
 10
3.1041
 20
19.9541
 30
0.0
 10
3.1041
 20
19.9541
 30
0.0
 10
1.9555
 20
18.3592
 30
0.0
 10
1.9555
 20
18.3592
 30
0.0
  0
SPLINE
  5
51
330
1F
100
AcDbEntity
  8
Ilustrace
 62
   250
100
AcDbSpline
210
0.0
220
0.0
230
1.0
 70
    11
 71
     3
 72
    48
 73
    44
 74
     0
 42
0.0000000001
 43
0.0000000001
 40
0.0
 40
0.0
 40
0.0
 40
0.0
 40
0.0833333333333333
 40
0.0833333333333333
 40
0.0833333333333333
 40
0.0833333333333333
 40
0.1666666666666667
 40
0.1666666666666667
 40
0.1666666666666667
 40
0.1666666666666667
 40
0.25
 40
0.25
 40
0.25
 40
0.25
 40
0.3333333333333333
 40
0.3333333333333333
 40
0.3333333333333333
 40
0.3333333333333333
 40
0.4166666666666667
 40
0.4166666666666667
 40
0.4166666666666667
 40
0.4166666666666667
 40
0.5
 40
0.5
 40
0.5
 40
0.5
 40
0.5833333333333334
 40
0.5833333333333334
 40
0.5833333333333334
 40
0.5833333333333334
 40
0.6666666666666666
 40
0.6666666666666666
 40
0.6666666666666666
 40
0.6666666666666666
 40
0.75
 40
0.75
 40
0.75
 40
0.75
 40
0.8333333333333334
 40
0.8333333333333334
 40
0.8333333333333334
 40
0.8333333333333334
 40
1.0
 40
1.0
 40
1.0
 40
1.0
 10
3.2632
 20
19.7484
 30
0.0
 10
3.2632
 20
19.7484
 30
0.0
 10
3.2748
 20
19.7484
 30
0.0
 10
3.2748
 20
19.7484
 30
0.0
 10
3.2748
 20
19.7484
 30
0.0
 10
3.3421
 20
19.6359
 30
0.0
 10
3.3893
 20
19.5221
 30
0.0
 10
3.4171
 20
19.407
 30
0.0
 10
3.4171
 20
19.407
 30
0.0
 10
3.4449
 20
19.2925
 30
0.0
 10
3.4585
 20
19.1787
 30
0.0
 10
3.4572
 20
19.0655
 30
0.0
 10
3.4572
 20
19.0655
 30
0.0
 10
3.4572
 20
18.9478
 30
0.0
 10
3.4449
 20
18.8352
 30
0.0
 10
3.421
 20
18.7272
 30
0.0
 10
3.421
 20
18.7272
 30
0.0
 10
3.3971
 20
18.6192
 30
0.0
 10
3.3615
 20
18.5196
 30
0.0
 10
3.3149
 20
18.4284
 30
0.0
 10
3.3149
 20
18.4284
 30
0.0
 10
3.2677
 20
18.3372
 30
0.0
 10
3.2102
 20
18.2577
 30
0.0
 10
3.1416
 20
18.1904
 30
0.0
 10
3.1416
 20
18.1904
 30
0.0
 10
3.0724
 20
18.1225
 30
0.0
 10
2.9935
 20
18.0695
 30
0.0
 10
2.9043
 20
18.032
 30
0.0
 10
2.9043
 20
18.032
 30
0.0
 10
2.815
 20
17.9945
 30
0.0
 10
2.716
 20
17.9757
 30
0.0
 10
2.6074
 20
17.975
 30
0.0
 10
2.6074
 20
17.975
 30
0.0
 10
2.502
 20
17.975
 30
0.0
 10
2.4095
 20
17.9912
 30
0.0
 10
2.3312
 20
18.0229
 30
0.0
 10
2.3312
 20
18.0229
 30
0.0
 10
2.2523
 20
18.0546
 30
0.0
 10
2.1818
 20
18.1012
 30
0.0
 10
2.1184
 20
18.1613
 30
0.0
 10
2.1184
 20
18.1613
 30
0.0
 10
2.1184
 20
18.1613
 30
0.0
 10
3.2632
 20
19.7484
 30
0.0
 10
3.2632
 20
19.7484
 30
0.0
  0
SPLINE
  5
52
330
1F
100
AcDbEntity
  8
Ilustrace
 62
   250
100
AcDbSpline
210
0.0
220
0.0
230
1.0
 70
    11
 71
     3
 72
   124
 73
   120
 74
     0
 42
0.0000000001
 43
0.0000000001
 40
0.0
 40
0.0
 40
0.0
 40
0.0
 40
0.032258064516129
 40
0.032258064516129
 40
0.032258064516129
 40
0.032258064516129
 40
0.0645161290322581
 40
0.0645161290322581
 40
0.0645161290322581
 40
0.0645161290322581
 40
0.0967741935483871
 40
0.0967741935483871
 40
0.0967741935483871
 40
0.0967741935483871
 40
0.1290322580645161
 40
0.1290322580645161
 40
0.1290322580645161
 40
0.1290322580645161
 40
0.1612903225806452
 40
0.1612903225806452
 40
0.1612903225806452
 40
0.1612903225806452
 40
0.1935483870967742
 40
0.1935483870967742
 40
0.1935483870967742
 40
0.1935483870967742
 40
0.2258064516129032
 40
0.2258064516129032
 40
0.2258064516129032
 40
0.2258064516129032
 40
0.2580645161290323
 40
0.2580645161290323
 40
0.2580645161290323
 40
0.2580645161290323
 40
0.2903225806451613
 40
0.2903225806451613
 40
0.2903225806451613
 40
0.2903225806451613
 40
0.3225806451612903
 40
0.3225806451612903
 40
0.3225806451612903
 40
0.3225806451612903
 40
0.3548387096774194
 40
0.3548387096774194
 40
0.3548387096774194
 40
0.3548387096774194
 40
0.3870967741935484
 40
0.3870967741935484
 40
0.3870967741935484
 40
0.3870967741935484
 40
0.4193548387096774
 40
0.4193548387096774
 40
0.4193548387096774
 40
0.4193548387096774
 40
0.4516129032258064
 40
0.4516129032258064
 40
0.4516129032258064
 40
0.4516129032258064
 40
0.4838709677419355
 40
0.4838709677419355
 40
0.4838709677419355
 40
0.4838709677419355
 40
0.5161290322580645
 40
0.5161290322580645
 40
0.5161290322580645
 40
0.5161290322580645
 40
0.5483870967741935
 40
0.5483870967741935
 40
0.5483870967741935
 40
0.5483870967741935
 40
0.5806451612903226
 40
0.5806451612903226
 40
0.5806451612903226
 40
0.5806451612903226
 40
0.6129032258064516
 40
0.6129032258064516
 40
0.6129032258064516
 40
0.6129032258064516
 40
0.6451612903225806
 40
0.6451612903225806
 40
0.6451612903225806
 40
0.6451612903225806
 40
0.6774193548387096
 40
0.6774193548387096
 40
0.6774193548387096
 40
0.6774193548387096
 40
0.7096774193548387
 40
0.7096774193548387
 40
0.7096774193548387
 40
0.7096774193548387
 40
0.7419354838709677
 40
0.7419354838709677
 40
0.7419354838709677
 40
0.7419354838709677
 40
0.7741935483870968
 40
0.7741935483870968
 40
0.7741935483870968
 40
0.7741935483870968
 40
0.8064516129032258
 40
0.8064516129032258
 40
0.8064516129032258
 40
0.8064516129032258
 40
0.8387096774193549
 40
0.8387096774193549
 40
0.8387096774193549
 40
0.8387096774193549
 40
0.8709677419354839
 40
0.8709677419354839
 40
0.8709677419354839
 40
0.8709677419354839
 40
0.9032258064516129
 40
0.9032258064516129
 40
0.9032258064516129
 40
0.9032258064516129
 40
0.9354838709677419
 40
0.9354838709677419
 40
0.9354838709677419
 40
0.9354838709677419
 40
1.0
 40
1.0
 40
1.0
 40
1.0
 10
4.3187
 20
17.7073
 30
0.0
 10
4.3595
 20
17.7054
 30
0.0
 10
4.4067
 20
17.7054
 30
0.0
 10
4.4597
 20
17.7086
 30
0.0
 10
4.4597
 20
17.7086
 30
0.0
 10
4.5128
 20
17.7112
 30
0.0
 10
4.571
 20
17.717
 30
0.0
 10
4.633
 20
17.7267
 30
0.0
 10
4.633
 20
17.7267
 30
0.0
 10
4.7242
 20
17.737
 30
0.0
 10
4.8135
 20
17.7571
 30
0.0
 10
4.9008
 20
17.7856
 30
0.0
 10
4.9008
 20
17.7856
 30
0.0
 10
4.9881
 20
17.8147
 30
0.0
 10
5.0715
 20
17.8528
 30
0.0
 10
5.1504
 20
17.8994
 30
0.0
 10
5.1504
 20
17.8994
 30
0.0
 10
5.2294
 20
17.9459
 30
0.0
 10
5.3011
 20
18.0009
 30
0.0
 10
5.3665
 20
18.0643
 30
0.0
 10
5.3665
 20
18.0643
 30
0.0
 10
5.4499
 20
18.1445
 30
0.0
 10
5.5243
 20
18.2409
 30
0.0
 10
5.5896
 20
18.3547
 30
0.0
 10
5.5896
 20
18.3547
 30
0.0
 10
5.6549
 20
18.4679
 30
0.0
 10
5.706
 20
18.5985
 30
0.0
 10
5.7435
 20
18.7466
 30
0.0
 10
5.7435
 20
18.7466
 30
0.0
 10
5.781
 20
18.8947
 30
0.0
 10
5.8004
 20
19.0603
 30
0.0
 10
5.8011
 20
19.244
 30
0.0
 10
5.8011
 20
19.244
 30
0.0
 10
5.8011
 20
19.4076
 30
0.0
 10
5.7817
 20
19.5544
 30
0.0
 10
5.7435
 20
19.6857
 30
0.0
 10
5.7435
 20
19.6857
 30
0.0
 10
5.7054
 20
19.817
 30
0.0
 10
5.6497
 20
19.9289
 30
0.0
 10
5.5773
 20
20.022
 30
0.0
 10
5.5773
 20
20.022
 30
0.0
 10
5.5049
 20
20.1151
 30
0.0
 10
5.4176
 20
20.1863
 30
0.0
 10
5.3147
 20
20.2361
 30
0.0
 10
5.3147
 20
20.2361
 30
0.0
 10
5.2119
 20
20.2859
 30
0.0
 10
5.0961
 20
20.3105
 30
0.0
 10
4.9668
 20
20.3111
 30
0.0
 10
4.9668
 20
20.3111
 30
0.0
 10
4.8374
 20
20.3105
 30
0.0
 10
4.7197
 20
20.2859
 30
0.0
 10
4.6143
 20
20.238
 30
0.0
 10
4.6143
 20
20.238
 30
0.0
 10
4.5089
 20
20.1908
 30
0.0
 10
4.4183
 20
20.1248
 30
0.0
 10
4.3427
 20
20.0421
 30
0.0
 10
4.3427
 20
20.0421
 30
0.0
 10
4.2663
 20
19.9586
 30
0.0
 10
4.2081
 20
19.8636
 30
0.0
 10
4.1674
 20
19.7562
 30
0.0
 10
4.1674
 20
19.7562
 30
0.0
 10
4.1266
 20
19.6488
 30
0.0
 10
4.1059
 20
19.535
 30
0.0
 10
4.1053
 20
19.4147
 30
0.0
 10
4.1053
 20
19.4147
 30
0.0
 10
4.1059
 20
19.3067
 30
0.0
 10
4.1234
 20
19.2058
 30
0.0
 10
4.1577
 20
19.1127
 30
0.0
 10
4.1577
 20
19.1127
 30
0.0
 10
4.1926
 20
19.0189
 30
0.0
 10
4.2424
 20
18.9374
 30
0.0
 10
4.3071
 20
18.8669
 30
0.0
 10
4.3071
 20
18.8669
 30
0.0
 10
4.3718
 20
18.7971
 30
0.0
 10
4.45
 20
18.7421
 30
0.0
 10
4.5406
 20
18.7026
 30
0.0
 10
4.5406
 20
18.7026
 30
0.0
 10
4.6318
 20
18.6632
 30
0.0
 10
4.7333
 20
18.6431
 30
0.0
 10
4.8465
 20
18.6425
 30
0.0
 10
4.8465
 20
18.6425
 30
0.0
 10
4.9745
 20
18.6431
 30
0.0
 10
5.089
 20
18.6664
 30
0.0
 10
5.1893
 20
18.7123
 30
0.0
 10
5.1893
 20
18.7123
 30
0.0
 10
5.2889
 20
18.7583
 30
0.0
 10
5.3742
 20
18.8242
 30
0.0
 10
5.4441
 20
18.9103
 30
0.0
 10
5.4441
 20
18.9103
 30
0.0
 10
5.4441
 20
18.9103
 30
0.0
 10
5.4557
 20
18.9103
 30
0.0
 10
5.4557
 20
18.9103
 30
0.0
 10
5.4557
 20
18.9103
 30
0.0
 10
5.4318
 20
18.7628
 30
0.0
 10
5.391
 20
18.6334
 30
0.0
 10
5.3341
 20
18.5228
 30
0.0
 10
5.3341
 20
18.5228
 30
0.0
 10
5.2766
 20
18.4116
 30
0.0
 10
5.2061
 20
18.3185
 30
0.0
 10
5.122
 20
18.2428
 30
0.0
 10
5.122
 20
18.2428
 30
0.0
 10
5.0496
 20
18.173
 30
0.0
 10
4.9687
 20
18.1186
 30
0.0
 10
4.8788
 20
18.0785
 30
0.0
 10
4.8788
 20
18.0785
 30
0.0
 10
4.7889
 20
18.0384
 30
0.0
 10
4.6938
 20
18.0119
 30
0.0
 10
4.5942
 20
17.9983
 30
0.0
 10
4.5942
 20
17.9983
 30
0.0
 10
4.5367
 20
17.9925
 30
0.0
 10
4.4849
 20
17.988
 30
0.0
 10
4.4403
 20
17.9854
 30
0.0
 10
4.4403
 20
17.9854
 30
0.0
 10
4.3957
 20
17.9828
 30
0.0
 10
4.3549
 20
17.9828
 30
0.0
 10
4.3187
 20
17.9867
 30
0.0
 10
4.3187
 20
17.9867
 30
0.0
 10
4.3187
 20
17.9867
 30
0.0
 10
4.3187
 20
17.7073
 30
0.0
 10
4.3187
 20
17.7073
 30
0.0
  0
SPLINE
  5
53
330
1F
100
AcDbEntity
  8
Ilustrace
 62
   250
100
AcDbSpline
210
0.0
220
0.0
230
1.0
 70
    11
 71
     3
 72
    64
 73
    60
 74
     0
 42
0.0000000001
 43
0.0000000001
 40
0.0
 40
0.0
 40
0.0
 40
0.0
 40
0.0625
 40
0.0625
 40
0.0625
 40
0.0625
 40
0.125
 40
0.125
 40
0.125
 40
0.125
 40
0.1875
 40
0.1875
 40
0.1875
 40
0.1875
 40
0.25
 40
0.25
 40
0.25
 40
0.25
 40
0.3125
 40
0.3125
 40
0.3125
 40
0.3125
 40
0.375
 40
0.375
 40
0.375
 40
0.375
 40
0.4375
 40
0.4375
 40
0.4375
 40
0.4375
 40
0.5
 40
0.5
 40
0.5
 40
0.5
 40
0.5625
 40
0.5625
 40
0.5625
 40
0.5625
 40
0.625
 40
0.625
 40
0.625
 40
0.625
 40
0.6875
 40
0.6875
 40
0.6875
 40
0.6875
 40
0.75
 40
0.75
 40
0.75
 40
0.75
 40
0.8125
 40
0.8125
 40
0.8125
 40
0.8125
 40
0.875
 40
0.875
 40
0.875
 40
0.875
 40
1.0
 40
1.0
 40
1.0
 40
1.0
 10
4.9357
 20
20.0511
 30
0.0
 10
5.0256
 20
20.0505
 30
0.0
 10
5.1039
 20
20.0311
 30
0.0
 10
5.1692
 20
19.9929
 30
0.0
 10
5.1692
 20
19.9929
 30
0.0
 10
5.2345
 20
19.9548
 30
0.0
 10
5.2889
 20
19.9011
 30
0.0
 10
5.3309
 20
19.8325
 30
0.0
 10
5.3309
 20
19.8325
 30
0.0
 10
5.3736
 20
19.764
 30
0.0
 10
5.4046
 20
19.6831
 30
0.0
 10
5.4253
 20
19.5913
 30
0.0
 10
5.4253
 20
19.5913
 30
0.0
 10
5.446
 20
19.4988
 30
0.0
 10
5.4557
 20
19.3985
 30
0.0
 10
5.4557
 20
19.2905
 30
0.0
 10
5.4557
 20
19.2905
 30
0.0
 10
5.4557
 20
19.2621
 30
0.0
 10
5.4531
 20
19.2375
 30
0.0
 10
5.4473
 20
19.2181
 30
0.0
 10
5.4473
 20
19.2181
 30
0.0
 10
5.4421
 20
19.1981
 30
0.0
 10
5.4344
 20
19.1793
 30
0.0
 10
5.4247
 20
19.1625
 30
0.0
 10
5.4247
 20
19.1625
 30
0.0
 10
5.3949
 20
19.1114
 30
0.0
 10
5.3555
 20
19.0661
 30
0.0
 10
5.307
 20
19.0267
 30
0.0
 10
5.307
 20
19.0267
 30
0.0
 10
5.2591
 20
18.9872
 30
0.0
 10
5.2028
 20
18.9562
 30
0.0
 10
5.1388
 20
18.9335
 30
0.0
 10
5.1388
 20
18.9335
 30
0.0
 10
5.0748
 20
18.9109
 30
0.0
 10
5.0043
 20
18.8993
 30
0.0
 10
4.928
 20
18.8986
 30
0.0
 10
4.928
 20
18.8986
 30
0.0
 10
4.829
 20
18.8993
 30
0.0
 10
4.7436
 20
18.9225
 30
0.0
 10
4.6712
 20
18.9678
 30
0.0
 10
4.6712
 20
18.9678
 30
0.0
 10
4.5988
 20
19.0131
 30
0.0
 10
4.5425
 20
19.0752
 30
0.0
 10
4.5031
 20
19.1554
 30
0.0
 10
4.5031
 20
19.1554
 30
0.0
 10
4.4636
 20
19.2356
 30
0.0
 10
4.4436
 20
19.3287
 30
0.0
 10
4.4429
 20
19.4341
 30
0.0
 10
4.4429
 20
19.4341
 30
0.0
 10
4.4436
 20
19.5557
 30
0.0
 10
4.4649
 20
19.6624
 30
0.0
 10
4.5069
 20
19.7543
 30
0.0
 10
4.5069
 20
19.7543
 30
0.0
 10
4.549
 20
19.8467
 30
0.0
 10
4.6065
 20
19.9192
 30
0.0
 10
4.6803
 20
19.9716
 30
0.0
 10
4.6803
 20
19.9716
 30
0.0
 10
4.754
 20
20.024
 30
0.0
 10
4.8394
 20
20.0505
 30
0.0
 10
4.9357
 20
20.0511
 30
0.0
  0
SPLINE
  5
54
330
1F
100
AcDbEntity
  8
Ilustrace
 62
   250
100
AcDbSpline
210
0.0
220
0.0
230
1.0
 70
    11
 71
     3
 72
    36
 73
    32
 74
     0
 42
0.0000000001
 43
0.0000000001
 40
0.0
 40
0.0
 40
0.0
 40
0.0
 40
0.1111111111111111
 40
0.1111111111111111
 40
0.1111111111111111
 40
0.1111111111111111
 40
0.2222222222222222
 40
0.2222222222222222
 40
0.2222222222222222
 40
0.2222222222222222
 40
0.3333333333333333
 40
0.3333333333333333
 40
0.3333333333333333
 40
0.3333333333333333
 40
0.4444444444444444
 40
0.4444444444444444
 40
0.4444444444444444
 40
0.4444444444444444
 40
0.5555555555555556
 40
0.5555555555555556
 40
0.5555555555555556
 40
0.5555555555555556
 40
0.6666666666666666
 40
0.6666666666666666
 40
0.6666666666666666
 40
0.6666666666666666
 40
0.7777777777777778
 40
0.7777777777777778
 40
0.7777777777777778
 40
0.7777777777777778
 40
1.0
 40
1.0
 40
1.0
 40
1.0
 10
6.1581
 20
20.2684
 30
0.0
 10
6.1581
 20
20.2684
 30
0.0
 10
6.1581
 20
19.9851
 30
0.0
 10
6.1581
 20
19.9851
 30
0.0
 10
6.1581
 20
19.9851
 30
0.0
 10
6.1581
 20
19.9851
 30
0.0
 10
7.3921
 20
19.9851
 30
0.0
 10
7.3921
 20
19.9851
 30
0.0
 10
7.3921
 20
19.9851
 30
0.0
 10
7.3921
 20
19.9851
 30
0.0
 10
7.3921
 20
19.9774
 30
0.0
 10
7.3921
 20
19.9774
 30
0.0
 10
7.3921
 20
19.9774
 30
0.0
 10
7.3921
 20
19.9774
 30
0.0
 10
6.2978
 20
17.7461
 30
0.0
 10
6.2978
 20
17.7461
 30
0.0
 10
6.2978
 20
17.7461
 30
0.0
 10
6.2978
 20
17.7461
 30
0.0
 10
6.6509
 20
17.7461
 30
0.0
 10
6.6509
 20
17.7461
 30
0.0
 10
6.6509
 20
17.7461
 30
0.0
 10
6.6509
 20
17.7461
 30
0.0
 10
7.7491
 20
20.0434
 30
0.0
 10
7.7491
 20
20.0434
 30
0.0
 10
7.7491
 20
20.0434
 30
0.0
 10
7.7491
 20
20.0434
 30
0.0
 10
7.7491
 20
20.2684
 30
0.0
 10
7.7491
 20
20.2684
 30
0.0
 10
7.7491
 20
20.2684
 30
0.0
 10
7.7491
 20
20.2684
 30
0.0
 10
6.1581
 20
20.2684
 30
0.0
 10
6.1581
 20
20.2684
 30
0.0
  0
SPLINE
  5
55
330
1F
100
AcDbEntity
  8
Ilustrace
 62
   250
100
AcDbSpline
210
0.0
220
0.0
230
1.0
 70
    11
 71
     3
 72
    68
 73
    64
 74
     0
 42
0.0000000001
 43
0.0000000001
 40
0.0
 40
0.0
 40
0.0
 40
0.0
 40
0.0588235294117647
 40
0.0588235294117647
 40
0.0588235294117647
 40
0.0588235294117647
 40
0.1176470588235294
 40
0.1176470588235294
 40
0.1176470588235294
 40
0.1176470588235294
 40
0.1764705882352941
 40
0.1764705882352941
 40
0.1764705882352941
 40
0.1764705882352941
 40
0.2352941176470588
 40
0.2352941176470588
 40
0.2352941176470588
 40
0.2352941176470588
 40
0.2941176470588235
 40
0.2941176470588235
 40
0.2941176470588235
 40
0.2941176470588235
 40
0.3529411764705883
 40
0.3529411764705883
 40
0.3529411764705883
 40
0.3529411764705883
 40
0.4117647058823529
 40
0.4117647058823529
 40
0.4117647058823529
 40
0.4117647058823529
 40
0.4705882352941176
 40
0.4705882352941176
 40
0.4705882352941176
 40
0.4705882352941176
 40
0.5294117647058824
 40
0.5294117647058824
 40
0.5294117647058824
 40
0.5294117647058824
 40
0.5882352941176471
 40
0.5882352941176471
 40
0.5882352941176471
 40
0.5882352941176471
 40
0.6470588235294118
 40
0.6470588235294118
 40
0.6470588235294118
 40
0.6470588235294118
 40
0.7058823529411765
 40
0.7058823529411765
 40
0.7058823529411765
 40
0.7058823529411765
 40
0.7647058823529411
 40
0.7647058823529411
 40
0.7647058823529411
 40
0.7647058823529411
 40
0.8235294117647058
 40
0.8235294117647058
 40
0.8235294117647058
 40
0.8235294117647058
 40
0.8823529411764706
 40
0.8823529411764706
 40
0.8823529411764706
 40
0.8823529411764706
 40
1.0
 40
1.0
 40
1.0
 40
1.0
 10
9.0918
 20
17.2766
 30
0.0
 10
9.1539
 20
17.358
 30
0.0
 10
9.214
 20
17.4505
 30
0.0
 10
9.2742
 20
17.5547
 30
0.0
 10
9.2742
 20
17.5547
 30
0.0
 10
9.3337
 20
17.6588
 30
0.0
 10
9.3873
 20
17.7752
 30
0.0
 10
9.4365
 20
17.9052
 30
0.0
 10
9.4365
 20
17.9052
 30
0.0
 10
9.485
 20
18.0352
 30
0.0
 10
9.5238
 20
18.1788
 30
0.0
 10
9.5536
 20
18.3372
 30
0.0
 10
9.5536
 20
18.3372
 30
0.0
 10
9.5827
 20
18.4957
 30
0.0
 10
9.5982
 20
18.6697
 30
0.0
 10
9.6001
 20
18.8598
 30
0.0
 10
9.6001
 20
18.8598
 30
0.0
 10
9.5995
 20
19.0499
 30
0.0
 10
9.5846
 20
19.2239
 30
0.0
 10
9.5549
 20
19.383
 30
0.0
 10
9.5549
 20
19.383
 30
0.0
 10
9.5258
 20
19.5415
 30
0.0
 10
9.4869
 20
19.6857
 30
0.0
 10
9.4378
 20
19.8157
 30
0.0
 10
9.4378
 20
19.8157
 30
0.0
 10
9.3886
 20
19.9451
 30
0.0
 10
9.3343
 20
20.0615
 30
0.0
 10
9.2742
 20
20.1649
 30
0.0
 10
9.2742
 20
20.1649
 30
0.0
 10
9.2147
 20
20.2684
 30
0.0
 10
9.1539
 20
20.3596
 30
0.0
 10
9.0918
 20
20.4392
 30
0.0
 10
9.0918
 20
20.4392
 30
0.0
 10
9.0918
 20
20.4392
 30
0.0
 10
8.8279
 20
20.4392
 30
0.0
 10
8.8279
 20
20.4392
 30
0.0
 10
8.8279
 20
20.4392
 30
0.0
 10
8.9204
 20
20.3105
 30
0.0
 10
9.0032
 20
20.1682
 30
0.0
 10
9.0763
 20
20.0123
 30
0.0
 10
9.0763
 20
20.0123
 30
0.0
 10
9.1487
 20
19.8564
 30
0.0
 10
9.2063
 20
19.6838
 30
0.0
 10
9.2483
 20
19.4936
 30
0.0
 10
9.2483
 20
19.4936
 30
0.0
 10
9.2903
 20
19.3035
 30
0.0
 10
9.3123
 20
19.092
 30
0.0
 10
9.313
 20
18.8598
 30
0.0
 10
9.313
 20
18.8598
 30
0.0
 10
9.3123
 20
18.6276
 30
0.0
 10
9.2903
 20
18.4155
 30
0.0
 10
9.2477
 20
18.224
 30
0.0
 10
9.2477
 20
18.224
 30
0.0
 10
9.205
 20
18.0326
 30
0.0
 10
9.1474
 20
17.8593
 30
0.0
 10
9.0743
 20
17.7028
 30
0.0
 10
9.0743
 20
17.7028
 30
0.0
 10
9.0019
 20
17.5463
 30
0.0
 10
8.9197
 20
17.404
 30
0.0
 10
8.8279
 20
17.2766
 30
0.0
 10
8.8279
 20
17.2766
 30
0.0
 10
8.8279
 20
17.2766
 30
0.0
 10
9.0918
 20
17.2766
 30
0.0
 10
9.0918
 20
17.2766
 30
0.0
  0
SPLINE
  5
56
330
1F
100
AcDbEntity
  8
Ilustrace
 62
   250
370
    15
100
AcDbSpline
210
0.0
220
0.0
230
1.0
 70
    24
 71
     3
 72
     8
 73
     4
 74
     0
 42
0.0000000001
 43
0.0000000001
 40
0.0
 40
0.0
 40
0.0
 40
0.0
 40
1.0
 40
1.0
 40
1.0
 40
1.0
 10
-19.9326
 20
7.6354
 30
0.0
 10
-19.9326
 20
7.6354
 30
0.0
 10
-19.9326
 20
-20.4522
 30
0.0
 10
-19.9326
 20
-20.4522
 30
0.0
  0
SPLINE
  5
57
330
1F
100
AcDbEntity
  8
Ilustrace
 62
   250
370
    15
100
AcDbSpline
210
0.0
220
0.0
230
1.0
 70
    24
 71
     3
 72
     8
 73
     4
 74
     0
 42
0.0000000001
 43
0.0000000001
 40
0.0
 40
0.0
 40
0.0
 40
0.0
 40
1.0
 40
1.0
 40
1.0
 40
1.0
 10
26.6293
 20
7.5031
 30
0.0
 10
26.6293
 20
7.5031
 30
0.0
 10
26.6293
 20
-20.5128
 30
0.0
 10
26.6293
 20
-20.5128
 30
0.0
  0
SPLINE
  5
58
330
1F
100
AcDbEntity
  8
Ilustrace
 62
   250
370
    15
100
AcDbSpline
210
0.0
220
0.0
230
1.0
 70
    24
 71
     3
 72
     8
 73
     4
 74
     0
 42
0.0000000001
 43
0.0000000001
 40
0.0
 40
0.0
 40
0.0
 40
0.0
 40
1.0
 40
1.0
 40
1.0
 40
1.0
 10
25.7087
 20
-19.93
 30
0.0
 10
25.7087
 20
-19.93
 30
0.0
 10
-18.8175
 20
-19.93
 30
0.0
 10
-18.8175
 20
-19.93
 30
0.0
  0
SPLINE
  5
59
330
1F
100
AcDbEntity
  8
Ilustrace
 62
   250
100
AcDbSpline
210
0.0
220
0.0
230
1.0
 70
    11
 71
     3
 72
   104
 73
   100
 74
     0
 42
0.0000000001
 43
0.0000000001
 40
0.0
 40
0.0
 40
0.0
 40
0.0
 40
0.0384615384615385
 40
0.0384615384615385
 40
0.0384615384615385
 40
0.0384615384615385
 40
0.0769230769230769
 40
0.0769230769230769
 40
0.0769230769230769
 40
0.0769230769230769
 40
0.1153846153846154
 40
0.1153846153846154
 40
0.1153846153846154
 40
0.1153846153846154
 40
0.1538461538461539
 40
0.1538461538461539
 40
0.1538461538461539
 40
0.1538461538461539
 40
0.1923076923076923
 40
0.1923076923076923
 40
0.1923076923076923
 40
0.1923076923076923
 40
0.2307692307692308
 40
0.2307692307692308
 40
0.2307692307692308
 40
0.2307692307692308
 40
0.2692307692307692
 40
0.2692307692307692
 40
0.2692307692307692
 40
0.2692307692307692
 40
0.3076923076923077
 40
0.3076923076923077
 40
0.3076923076923077
 40
0.3076923076923077
 40
0.3461538461538461
 40
0.3461538461538461
 40
0.3461538461538461
 40
0.3461538461538461
 40
0.3846153846153846
 40
0.3846153846153846
 40
0.3846153846153846
 40
0.3846153846153846
 40
0.4230769230769231
 40
0.4230769230769231
 40
0.4230769230769231
 40
0.4230769230769231
 40
0.4615384615384616
 40
0.4615384615384616
 40
0.4615384615384616
 40
0.4615384615384616
 40
0.5
 40
0.5
 40
0.5
 40
0.5
 40
0.5384615384615384
 40
0.5384615384615384
 40
0.5384615384615384
 40
0.5384615384615384
 40
0.5769230769230769
 40
0.5769230769230769
 40
0.5769230769230769
 40
0.5769230769230769
 40
0.6153846153846154
 40
0.6153846153846154
 40
0.6153846153846154
 40
0.6153846153846154
 40
0.6538461538461539
 40
0.6538461538461539
 40
0.6538461538461539
 40
0.6538461538461539
 40
0.6923076923076923
 40
0.6923076923076923
 40
0.6923076923076923
 40
0.6923076923076923
 40
0.7307692307692307
 40
0.7307692307692307
 40
0.7307692307692307
 40
0.7307692307692307
 40
0.7692307692307693
 40
0.7692307692307693
 40
0.7692307692307693
 40
0.7692307692307693
 40
0.8076923076923077
 40
0.8076923076923077
 40
0.8076923076923077
 40
0.8076923076923077
 40
0.8461538461538461
 40
0.8461538461538461
 40
0.8461538461538461
 40
0.8461538461538461
 40
0.8846153846153846
 40
0.8846153846153846
 40
0.8846153846153846
 40
0.8846153846153846
 40
0.9230769230769231
 40
0.9230769230769231
 40
0.9230769230769231
 40
0.9230769230769231
 40
1.0
 40
1.0
 40
1.0
 40
1.0
 10
0.5561
 20
-19.2056
 30
0.0
 10
0.5561
 20
-19.2056
 30
0.0
 10
0.8006
 20
-18.8718
 30
0.0
 10
0.8006
 20
-18.8718
 30
0.0
 10
0.8006
 20
-18.8718
 30
0.0
 10
0.8944
 20
-18.9397
 30
0.0
 10
0.9972
 20
-18.9921
 30
0.0
 10
1.1084
 20
-19.0277
 30
0.0
 10
1.1084
 20
-19.0277
 30
0.0
 10
1.2203
 20
-19.0633
 30
0.0
 10
1.3374
 20
-19.0814
 30
0.0
 10
1.4603
 20
-19.0814
 30
0.0
 10
1.4603
 20
-19.0814
 30
0.0
 10
1.5864
 20
-19.0814
 30
0.0
 10
1.7086
 20
-19.0626
 30
0.0
 10
1.8257
 20
-19.0258
 30
0.0
 10
1.8257
 20
-19.0258
 30
0.0
 10
1.9427
 20
-18.9889
 30
0.0
 10
2.0514
 20
-18.9339
 30
0.0
 10
2.151
 20
-18.8602
 30
0.0
 10
2.151
 20
-18.8602
 30
0.0
 10
2.2512
 20
-18.7871
 30
0.0
 10
2.3386
 20
-18.6953
 30
0.0
 10
2.4136
 20
-18.5853
 30
0.0
 10
2.4136
 20
-18.5853
 30
0.0
 10
2.488
 20
-18.4754
 30
0.0
 10
2.5462
 20
-18.3473
 30
0.0
 10
2.5882
 20
-18.2005
 30
0.0
 10
2.5882
 20
-18.2005
 30
0.0
 10
2.6296
 20
-18.0543
 30
0.0
 10
2.6509
 20
-17.8901
 30
0.0
 10
2.6516
 20
-17.7077
 30
0.0
 10
2.6516
 20
-17.7077
 30
0.0
 10
2.6516
 20
-17.579
 30
0.0
 10
2.6387
 20
-17.4567
 30
0.0
 10
2.6121
 20
-17.3403
 30
0.0
 10
2.6121
 20
-17.3403
 30
0.0
 10
2.5863
 20
-17.2233
 30
0.0
 10
2.5481
 20
-17.1146
 30
0.0
 10
2.4983
 20
-17.0144
 30
0.0
 10
2.4983
 20
-17.0144
 30
0.0
 10
2.4479
 20
-16.9141
 30
0.0
 10
2.3864
 20
-16.8249
 30
0.0
 10
2.314
 20
-16.7453
 30
0.0
 10
2.314
 20
-16.7453
 30
0.0
 10
2.314
 20
-16.7453
 30
0.0
 10
2.5546
 20
-16.4116
 30
0.0
 10
2.5546
 20
-16.4116
 30
0.0
 10
2.5546
 20
-16.4116
 30
0.0
 10
2.5546
 20
-16.4116
 30
0.0
 10
2.3489
 20
-16.2719
 30
0.0
 10
2.3489
 20
-16.2719
 30
0.0
 10
2.3489
 20
-16.2719
 30
0.0
 10
2.3489
 20
-16.2719
 30
0.0
 10
2.12
 20
-16.5862
 30
0.0
 10
2.12
 20
-16.5862
 30
0.0
 10
2.12
 20
-16.5862
 30
0.0
 10
2.0262
 20
-16.5164
 30
0.0
 10
1.9246
 20
-16.464
 30
0.0
 10
1.8147
 20
-16.4291
 30
0.0
 10
1.8147
 20
-16.4291
 30
0.0
 10
1.7041
 20
-16.3941
 30
0.0
 10
1.589
 20
-16.3767
 30
0.0
 10
1.468
 20
-16.3767
 30
0.0
 10
1.468
 20
-16.3767
 30
0.0
 10
1.2954
 20
-16.3773
 30
0.0
 10
1.1363
 20
-16.4097
 30
0.0
 10
0.9894
 20
-16.4737
 30
0.0
 10
0.9894
 20
-16.4737
 30
0.0
 10
0.8433
 20
-16.5377
 30
0.0
 10
0.7159
 20
-16.6302
 30
0.0
 10
0.6072
 20
-16.7499
 30
0.0
 10
0.6072
 20
-16.7499
 30
0.0
 10
0.4979
 20
-16.8695
 30
0.0
 10
0.4138
 20
-17.0131
 30
0.0
 10
0.353
 20
-17.1806
 30
0.0
 10
0.353
 20
-17.1806
 30
0.0
 10
0.2929
 20
-17.3481
 30
0.0
 10
0.2618
 20
-17.535
 30
0.0
 10
0.2612
 20
-17.7426
 30
0.0
 10
0.2612
 20
-17.7426
 30
0.0
 10
0.2612
 20
-17.8733
 30
0.0
 10
0.2754
 20
-17.9981
 30
0.0
 10
0.3026
 20
-18.1158
 30
0.0
 10
0.3026
 20
-18.1158
 30
0.0
 10
0.3298
 20
-18.2335
 30
0.0
 10
0.3692
 20
-18.3428
 30
0.0
 10
0.4203
 20
-18.443
 30
0.0
 10
0.4203
 20
-18.443
 30
0.0
 10
0.472
 20
-18.5433
 30
0.0
 10
0.5341
 20
-18.6332
 30
0.0
 10
0.6066
 20
-18.7127
 30
0.0
 10
0.6066
 20
-18.7127
 30
0.0
 10
0.6066
 20
-18.7127
 30
0.0
 10
0.366
 20
-19.0503
 30
0.0
 10
0.366
 20
-19.0503
 30
0.0
 10
0.366
 20
-19.0503
 30
0.0
 10
0.366
 20
-19.0503
 30
0.0
 10
0.5561
 20
-19.2056
 30
0.0
 10
0.5561
 20
-19.2056
 30
0.0
  0
SPLINE
  5
5A
330
1F
100
AcDbEntity
  8
Ilustrace
 62
   250
100
AcDbSpline
210
0.0
220
0.0
230
1.0
 70
    11
 71
     3
 72
    52
 73
    48
 74
     0
 42
0.0000000001
 43
0.0000000001
 40
0.0
 40
0.0
 40
0.0
 40
0.0
 40
0.0769230769230769
 40
0.0769230769230769
 40
0.0769230769230769
 40
0.0769230769230769
 40
0.1538461538461539
 40
0.1538461538461539
 40
0.1538461538461539
 40
0.1538461538461539
 40
0.2307692307692308
 40
0.2307692307692308
 40
0.2307692307692308
 40
0.2307692307692308
 40
0.3076923076923077
 40
0.3076923076923077
 40
0.3076923076923077
 40
0.3076923076923077
 40
0.3846153846153846
 40
0.3846153846153846
 40
0.3846153846153846
 40
0.3846153846153846
 40
0.4615384615384616
 40
0.4615384615384616
 40
0.4615384615384616
 40
0.4615384615384616
 40
0.5384615384615384
 40
0.5384615384615384
 40
0.5384615384615384
 40
0.5384615384615384
 40
0.6153846153846154
 40
0.6153846153846154
 40
0.6153846153846154
 40
0.6153846153846154
 40
0.6923076923076923
 40
0.6923076923076923
 40
0.6923076923076923
 40
0.6923076923076923
 40
0.7692307692307693
 40
0.7692307692307693
 40
0.7692307692307693
 40
0.7692307692307693
 40
0.8461538461538461
 40
0.8461538461538461
 40
0.8461538461538461
 40
0.8461538461538461
 40
1.0
 40
1.0
 40
1.0
 40
1.0
 10
0.8045
 20
-18.4256
 30
0.0
 10
0.8045
 20
-18.4256
 30
0.0
 10
0.7967
 20
-18.4295
 30
0.0
 10
0.7967
 20
-18.4295
 30
0.0
 10
0.7967
 20
-18.4295
 30
0.0
 10
0.7579
 20
-18.3628
 30
0.0
 10
0.7243
 20
-18.2936
 30
0.0
 10
0.6958
 20
-18.2225
 30
0.0
 10
0.6958
 20
-18.2225
 30
0.0
 10
0.6674
 20
-18.1507
 30
0.0
 10
0.6454
 20
-18.075
 30
0.0
 10
0.6298
 20
-17.9936
 30
0.0
 10
0.6298
 20
-17.9936
 30
0.0
 10
0.6143
 20
-17.9127
 30
0.0
 10
0.6066
 20
-17.8235
 30
0.0
 10
0.6066
 20
-17.7271
 30
0.0
 10
0.6066
 20
-17.7271
 30
0.0
 10
0.6066
 20
-17.6158
 30
0.0
 10
0.6182
 20
-17.5085
 30
0.0
 10
0.6408
 20
-17.4031
 30
0.0
 10
0.6408
 20
-17.4031
 30
0.0
 10
0.6641
 20
-17.2983
 30
0.0
 10
0.6984
 20
-17.2
 30
0.0
 10
0.7437
 20
-17.1094
 30
0.0
 10
0.7437
 20
-17.1094
 30
0.0
 10
0.7896
 20
-17.0183
 30
0.0
 10
0.8465
 20
-16.9381
 30
0.0
 10
0.9151
 20
-16.8695
 30
0.0
 10
0.9151
 20
-16.8695
 30
0.0
 10
0.9836
 20
-16.8003
 30
0.0
 10
1.0632
 20
-16.7466
 30
0.0
 10
1.1537
 20
-16.7078
 30
0.0
 10
1.1537
 20
-16.7078
 30
0.0
 10
1.2449
 20
-16.6684
 30
0.0
 10
1.3471
 20
-16.649
 30
0.0
 10
1.4603
 20
-16.6483
 30
0.0
 10
1.4603
 20
-16.6483
 30
0.0
 10
1.5592
 20
-16.649
 30
0.0
 10
1.6498
 20
-16.6651
 30
0.0
 10
1.7313
 20
-16.6975
 30
0.0
 10
1.7313
 20
-16.6975
 30
0.0
 10
1.8134
 20
-16.7292
 30
0.0
 10
1.8871
 20
-16.7738
 30
0.0
 10
1.9531
 20
-16.8307
 30
0.0
 10
1.9531
 20
-16.8307
 30
0.0
 10
1.9531
 20
-16.8307
 30
0.0
 10
0.8045
 20
-18.4256
 30
0.0
 10
0.8045
 20
-18.4256
 30
0.0
  0
SPLINE
  5
5B
330
1F
100
AcDbEntity
  8
Ilustrace
 62
   250
100
AcDbSpline
210
0.0
220
0.0
230
1.0
 70
    11
 71
     3
 72
    48
 73
    44
 74
     0
 42
0.0000000001
 43
0.0000000001
 40
0.0
 40
0.0
 40
0.0
 40
0.0
 40
0.0833333333333333
 40
0.0833333333333333
 40
0.0833333333333333
 40
0.0833333333333333
 40
0.1666666666666667
 40
0.1666666666666667
 40
0.1666666666666667
 40
0.1666666666666667
 40
0.25
 40
0.25
 40
0.25
 40
0.25
 40
0.3333333333333333
 40
0.3333333333333333
 40
0.3333333333333333
 40
0.3333333333333333
 40
0.4166666666666667
 40
0.4166666666666667
 40
0.4166666666666667
 40
0.4166666666666667
 40
0.5
 40
0.5
 40
0.5
 40
0.5
 40
0.5833333333333334
 40
0.5833333333333334
 40
0.5833333333333334
 40
0.5833333333333334
 40
0.6666666666666666
 40
0.6666666666666666
 40
0.6666666666666666
 40
0.6666666666666666
 40
0.75
 40
0.75
 40
0.75
 40
0.75
 40
0.8333333333333334
 40
0.8333333333333334
 40
0.8333333333333334
 40
0.8333333333333334
 40
1.0
 40
1.0
 40
1.0
 40
1.0
 10
2.1122
 20
-17.0364
 30
0.0
 10
2.1122
 20
-17.0364
 30
0.0
 10
2.1238
 20
-17.0364
 30
0.0
 10
2.1238
 20
-17.0364
 30
0.0
 10
2.1238
 20
-17.0364
 30
0.0
 10
2.1911
 20
-17.1489
 30
0.0
 10
2.2383
 20
-17.2627
 30
0.0
 10
2.2661
 20
-17.3778
 30
0.0
 10
2.2661
 20
-17.3778
 30
0.0
 10
2.2939
 20
-17.4923
 30
0.0
 10
2.3075
 20
-17.6061
 30
0.0
 10
2.3062
 20
-17.7193
 30
0.0
 10
2.3062
 20
-17.7193
 30
0.0
 10
2.3062
 20
-17.837
 30
0.0
 10
2.2939
 20
-17.9496
 30
0.0
 10
2.27
 20
-18.0576
 30
0.0
 10
2.27
 20
-18.0576
 30
0.0
 10
2.2461
 20
-18.1656
 30
0.0
 10
2.2105
 20
-18.2652
 30
0.0
 10
2.1639
 20
-18.3564
 30
0.0
 10
2.1639
 20
-18.3564
 30
0.0
 10
2.1167
 20
-18.4476
 30
0.0
 10
2.0592
 20
-18.5271
 30
0.0
 10
1.9906
 20
-18.5944
 30
0.0
 10
1.9906
 20
-18.5944
 30
0.0
 10
1.9214
 20
-18.6623
 30
0.0
 10
1.8425
 20
-18.7153
 30
0.0
 10
1.7533
 20
-18.7528
 30
0.0
 10
1.7533
 20
-18.7528
 30
0.0
 10
1.664
 20
-18.7903
 30
0.0
 10
1.565
 20
-18.8091
 30
0.0
 10
1.4564
 20
-18.8098
 30
0.0
 10
1.4564
 20
-18.8098
 30
0.0
 10
1.351
 20
-18.8098
 30
0.0
 10
1.2585
 20
-18.7936
 30
0.0
 10
1.1802
 20
-18.7619
 30
0.0
 10
1.1802
 20
-18.7619
 30
0.0
 10
1.1013
 20
-18.7302
 30
0.0
 10
1.0308
 20
-18.6836
 30
0.0
 10
0.9674
 20
-18.6235
 30
0.0
 10
0.9674
 20
-18.6235
 30
0.0
 10
0.9674
 20
-18.6235
 30
0.0
 10
2.1122
 20
-17.0364
 30
0.0
 10
2.1122
 20
-17.0364
 30
0.0
  0
SPLINE
  5
5C
330
1F
100
AcDbEntity
  8
Ilustrace
 62
   250
100
AcDbSpline
210
0.0
220
0.0
230
1.0
 70
    11
 71
     3
 72
   124
 73
   120
 74
     0
 42
0.0000000001
 43
0.0000000001
 40
0.0
 40
0.0
 40
0.0
 40
0.0
 40
0.032258064516129
 40
0.032258064516129
 40
0.032258064516129
 40
0.032258064516129
 40
0.0645161290322581
 40
0.0645161290322581
 40
0.0645161290322581
 40
0.0645161290322581
 40
0.0967741935483871
 40
0.0967741935483871
 40
0.0967741935483871
 40
0.0967741935483871
 40
0.1290322580645161
 40
0.1290322580645161
 40
0.1290322580645161
 40
0.1290322580645161
 40
0.1612903225806452
 40
0.1612903225806452
 40
0.1612903225806452
 40
0.1612903225806452
 40
0.1935483870967742
 40
0.1935483870967742
 40
0.1935483870967742
 40
0.1935483870967742
 40
0.2258064516129032
 40
0.2258064516129032
 40
0.2258064516129032
 40
0.2258064516129032
 40
0.2580645161290323
 40
0.2580645161290323
 40
0.2580645161290323
 40
0.2580645161290323
 40
0.2903225806451613
 40
0.2903225806451613
 40
0.2903225806451613
 40
0.2903225806451613
 40
0.3225806451612903
 40
0.3225806451612903
 40
0.3225806451612903
 40
0.3225806451612903
 40
0.3548387096774194
 40
0.3548387096774194
 40
0.3548387096774194
 40
0.3548387096774194
 40
0.3870967741935484
 40
0.3870967741935484
 40
0.3870967741935484
 40
0.3870967741935484
 40
0.4193548387096774
 40
0.4193548387096774
 40
0.4193548387096774
 40
0.4193548387096774
 40
0.4516129032258064
 40
0.4516129032258064
 40
0.4516129032258064
 40
0.4516129032258064
 40
0.4838709677419355
 40
0.4838709677419355
 40
0.4838709677419355
 40
0.4838709677419355
 40
0.5161290322580645
 40
0.5161290322580645
 40
0.5161290322580645
 40
0.5161290322580645
 40
0.5483870967741935
 40
0.5483870967741935
 40
0.5483870967741935
 40
0.5483870967741935
 40
0.5806451612903226
 40
0.5806451612903226
 40
0.5806451612903226
 40
0.5806451612903226
 40
0.6129032258064516
 40
0.6129032258064516
 40
0.6129032258064516
 40
0.6129032258064516
 40
0.6451612903225806
 40
0.6451612903225806
 40
0.6451612903225806
 40
0.6451612903225806
 40
0.6774193548387096
 40
0.6774193548387096
 40
0.6774193548387096
 40
0.6774193548387096
 40
0.7096774193548387
 40
0.7096774193548387
 40
0.7096774193548387
 40
0.7096774193548387
 40
0.7419354838709677
 40
0.7419354838709677
 40
0.7419354838709677
 40
0.7419354838709677
 40
0.7741935483870968
 40
0.7741935483870968
 40
0.7741935483870968
 40
0.7741935483870968
 40
0.8064516129032258
 40
0.8064516129032258
 40
0.8064516129032258
 40
0.8064516129032258
 40
0.8387096774193549
 40
0.8387096774193549
 40
0.8387096774193549
 40
0.8387096774193549
 40
0.8709677419354839
 40
0.8709677419354839
 40
0.8709677419354839
 40
0.8709677419354839
 40
0.9032258064516129
 40
0.9032258064516129
 40
0.9032258064516129
 40
0.9032258064516129
 40
0.9354838709677419
 40
0.9354838709677419
 40
0.9354838709677419
 40
0.9354838709677419
 40
1.0
 40
1.0
 40
1.0
 40
1.0
 10
3.1677
 20
-19.0775
 30
0.0
 10
3.2085
 20
-19.0794
 30
0.0
 10
3.2557
 20
-19.0794
 30
0.0
 10
3.3087
 20
-19.0762
 30
0.0
 10
3.3087
 20
-19.0762
 30
0.0
 10
3.3618
 20
-19.0736
 30
0.0
 10
3.42
 20
-19.0678
 30
0.0
 10
3.482
 20
-19.0581
 30
0.0
 10
3.482
 20
-19.0581
 30
0.0
 10
3.5732
 20
-19.0478
 30
0.0
 10
3.6625
 20
-19.0277
 30
0.0
 10
3.7498
 20
-18.9992
 30
0.0
 10
3.7498
 20
-18.9992
 30
0.0
 10
3.8371
 20
-18.9701
 30
0.0
 10
3.9205
 20
-18.932
 30
0.0
 10
3.9994
 20
-18.8854
 30
0.0
 10
3.9994
 20
-18.8854
 30
0.0
 10
4.0784
 20
-18.8389
 30
0.0
 10
4.1501
 20
-18.7839
 30
0.0
 10
4.2155
 20
-18.7205
 30
0.0
 10
4.2155
 20
-18.7205
 30
0.0
 10
4.2989
 20
-18.6403
 30
0.0
 10
4.3733
 20
-18.5439
 30
0.0
 10
4.4386
 20
-18.4301
 30
0.0
 10
4.4386
 20
-18.4301
 30
0.0
 10
4.5039
 20
-18.3169
 30
0.0
 10
4.555
 20
-18.1863
 30
0.0
 10
4.5925
 20
-18.0382
 30
0.0
 10
4.5925
 20
-18.0382
 30
0.0
 10
4.63
 20
-17.8901
 30
0.0
 10
4.6494
 20
-17.7245
 30
0.0
 10
4.6501
 20
-17.5408
 30
0.0
 10
4.6501
 20
-17.5408
 30
0.0
 10
4.6501
 20
-17.3772
 30
0.0
 10
4.6307
 20
-17.2304
 30
0.0
 10
4.5925
 20
-17.0991
 30
0.0
 10
4.5925
 20
-17.0991
 30
0.0
 10
4.5544
 20
-16.9678
 30
0.0
 10
4.4987
 20
-16.8559
 30
0.0
 10
4.4263
 20
-16.7628
 30
0.0
 10
4.4263
 20
-16.7628
 30
0.0
 10
4.3539
 20
-16.6697
 30
0.0
 10
4.2666
 20
-16.5985
 30
0.0
 10
4.1637
 20
-16.5487
 30
0.0
 10
4.1637
 20
-16.5487
 30
0.0
 10
4.0609
 20
-16.4989
 30
0.0
 10
3.9451
 20
-16.4743
 30
0.0
 10
3.8158
 20
-16.4737
 30
0.0
 10
3.8158
 20
-16.4737
 30
0.0
 10
3.6864
 20
-16.4743
 30
0.0
 10
3.5687
 20
-16.4989
 30
0.0
 10
3.4633
 20
-16.5468
 30
0.0
 10
3.4633
 20
-16.5468
 30
0.0
 10
3.3579
 20
-16.594
 30
0.0
 10
3.2673
 20
-16.66
 30
0.0
 10
3.1917
 20
-16.7427
 30
0.0
 10
3.1917
 20
-16.7427
 30
0.0
 10
3.1153
 20
-16.8262
 30
0.0
 10
3.0571
 20
-16.9212
 30
0.0
 10
3.0164
 20
-17.0286
 30
0.0
 10
3.0164
 20
-17.0286
 30
0.0
 10
2.9756
 20
-17.136
 30
0.0
 10
2.9549
 20
-17.2498
 30
0.0
 10
2.9543
 20
-17.3701
 30
0.0
 10
2.9543
 20
-17.3701
 30
0.0
 10
2.9549
 20
-17.4781
 30
0.0
 10
2.9724
 20
-17.579
 30
0.0
 10
3.0067
 20
-17.6721
 30
0.0
 10
3.0067
 20
-17.6721
 30
0.0
 10
3.0416
 20
-17.7659
 30
0.0
 10
3.0914
 20
-17.8474
 30
0.0
 10
3.1561
 20
-17.9179
 30
0.0
 10
3.1561
 20
-17.9179
 30
0.0
 10
3.2208
 20
-17.9877
 30
0.0
 10
3.299
 20
-18.0427
 30
0.0
 10
3.3896
 20
-18.0822
 30
0.0
 10
3.3896
 20
-18.0822
 30
0.0
 10
3.4808
 20
-18.1216
 30
0.0
 10
3.5823
 20
-18.1417
 30
0.0
 10
3.6955
 20
-18.1423
 30
0.0
 10
3.6955
 20
-18.1423
 30
0.0
 10
3.8235
 20
-18.1417
 30
0.0
 10
3.938
 20
-18.1184
 30
0.0
 10
4.0383
 20
-18.0725
 30
0.0
 10
4.0383
 20
-18.0725
 30
0.0
 10
4.1379
 20
-18.0265
 30
0.0
 10
4.2232
 20
-17.9606
 30
0.0
 10
4.2931
 20
-17.8745
 30
0.0
 10
4.2931
 20
-17.8745
 30
0.0
 10
4.2931
 20
-17.8745
 30
0.0
 10
4.3047
 20
-17.8745
 30
0.0
 10
4.3047
 20
-17.8745
 30
0.0
 10
4.3047
 20
-17.8745
 30
0.0
 10
4.2808
 20
-18.022
 30
0.0
 10
4.24
 20
-18.1514
 30
0.0
 10
4.1831
 20
-18.262
 30
0.0
 10
4.1831
 20
-18.262
 30
0.0
 10
4.1256
 20
-18.3732
 30
0.0
 10
4.0551
 20
-18.4663
 30
0.0
 10
3.971
 20
-18.542
 30
0.0
 10
3.971
 20
-18.542
 30
0.0
 10
3.8986
 20
-18.6118
 30
0.0
 10
3.8177
 20
-18.6662
 30
0.0
 10
3.7278
 20
-18.7063
 30
0.0
 10
3.7278
 20
-18.7063
 30
0.0
 10
3.6379
 20
-18.7464
 30
0.0
 10
3.5428
 20
-18.7729
 30
0.0
 10
3.4432
 20
-18.7865
 30
0.0
 10
3.4432
 20
-18.7865
 30
0.0
 10
3.3857
 20
-18.7923
 30
0.0
 10
3.3339
 20
-18.7968
 30
0.0
 10
3.2893
 20
-18.7994
 30
0.0
 10
3.2893
 20
-18.7994
 30
0.0
 10
3.2447
 20
-18.802
 30
0.0
 10
3.2039
 20
-18.802
 30
0.0
 10
3.1677
 20
-18.7981
 30
0.0
 10
3.1677
 20
-18.7981
 30
0.0
 10
3.1677
 20
-18.7981
 30
0.0
 10
3.1677
 20
-19.0775
 30
0.0
 10
3.1677
 20
-19.0775
 30
0.0
  0
SPLINE
  5
5D
330
1F
100
AcDbEntity
  8
Ilustrace
 62
   250
100
AcDbSpline
210
0.0
220
0.0
230
1.0
 70
    11
 71
     3
 72
    64
 73
    60
 74
     0
 42
0.0000000001
 43
0.0000000001
 40
0.0
 40
0.0
 40
0.0
 40
0.0
 40
0.0625
 40
0.0625
 40
0.0625
 40
0.0625
 40
0.125
 40
0.125
 40
0.125
 40
0.125
 40
0.1875
 40
0.1875
 40
0.1875
 40
0.1875
 40
0.25
 40
0.25
 40
0.25
 40
0.25
 40
0.3125
 40
0.3125
 40
0.3125
 40
0.3125
 40
0.375
 40
0.375
 40
0.375
 40
0.375
 40
0.4375
 40
0.4375
 40
0.4375
 40
0.4375
 40
0.5
 40
0.5
 40
0.5
 40
0.5
 40
0.5625
 40
0.5625
 40
0.5625
 40
0.5625
 40
0.625
 40
0.625
 40
0.625
 40
0.625
 40
0.6875
 40
0.6875
 40
0.6875
 40
0.6875
 40
0.75
 40
0.75
 40
0.75
 40
0.75
 40
0.8125
 40
0.8125
 40
0.8125
 40
0.8125
 40
0.875
 40
0.875
 40
0.875
 40
0.875
 40
1.0
 40
1.0
 40
1.0
 40
1.0
 10
3.7847
 20
-16.7337
 30
0.0
 10
3.8746
 20
-16.7343
 30
0.0
 10
3.9529
 20
-16.7537
 30
0.0
 10
4.0182
 20
-16.7919
 30
0.0
 10
4.0182
 20
-16.7919
 30
0.0
 10
4.0835
 20
-16.83
 30
0.0
 10
4.1379
 20
-16.8837
 30
0.0
 10
4.1799
 20
-16.9523
 30
0.0
 10
4.1799
 20
-16.9523
 30
0.0
 10
4.2226
 20
-17.0208
 30
0.0
 10
4.2536
 20
-17.1017
 30
0.0
 10
4.2743
 20
-17.1935
 30
0.0
 10
4.2743
 20
-17.1935
 30
0.0
 10
4.295
 20
-17.286
 30
0.0
 10
4.3047
 20
-17.3863
 30
0.0
 10
4.3047
 20
-17.4943
 30
0.0
 10
4.3047
 20
-17.4943
 30
0.0
 10
4.3047
 20
-17.5227
 30
0.0
 10
4.3021
 20
-17.5473
 30
0.0
 10
4.2963
 20
-17.5667
 30
0.0
 10
4.2963
 20
-17.5667
 30
0.0
 10
4.2911
 20
-17.5867
 30
0.0
 10
4.2834
 20
-17.6055
 30
0.0
 10
4.2737
 20
-17.6223
 30
0.0
 10
4.2737
 20
-17.6223
 30
0.0
 10
4.2439
 20
-17.6734
 30
0.0
 10
4.2045
 20
-17.7187
 30
0.0
 10
4.156
 20
-17.7581
 30
0.0
 10
4.156
 20
-17.7581
 30
0.0
 10
4.1081
 20
-17.7976
 30
0.0
 10
4.0518
 20
-17.8286
 30
0.0
 10
3.9878
 20
-17.8513
 30
0.0
 10
3.9878
 20
-17.8513
 30
0.0
 10
3.9238
 20
-17.8739
 30
0.0
 10
3.8533
 20
-17.8855
 30
0.0
 10
3.777
 20
-17.8862
 30
0.0
 10
3.777
 20
-17.8862
 30
0.0
 10
3.678
 20
-17.8855
 30
0.0
 10
3.5926
 20
-17.8623
 30
0.0
 10
3.5202
 20
-17.817
 30
0.0
 10
3.5202
 20
-17.817
 30
0.0
 10
3.4478
 20
-17.7717
 30
0.0
 10
3.3915
 20
-17.7096
 30
0.0
 10
3.3521
 20
-17.6294
 30
0.0
 10
3.3521
 20
-17.6294
 30
0.0
 10
3.3126
 20
-17.5492
 30
0.0
 10
3.2926
 20
-17.4561
 30
0.0
 10
3.2919
 20
-17.3507
 30
0.0
 10
3.2919
 20
-17.3507
 30
0.0
 10
3.2926
 20
-17.2291
 30
0.0
 10
3.3139
 20
-17.1224
 30
0.0
 10
3.3559
 20
-17.0305
 30
0.0
 10
3.3559
 20
-17.0305
 30
0.0
 10
3.398
 20
-16.9381
 30
0.0
 10
3.4555
 20
-16.8656
 30
0.0
 10
3.5293
 20
-16.8132
 30
0.0
 10
3.5293
 20
-16.8132
 30
0.0
 10
3.603
 20
-16.7608
 30
0.0
 10
3.6884
 20
-16.7343
 30
0.0
 10
3.7847
 20
-16.7337
 30
0.0
  0
SPLINE
  5
5E
330
1F
100
AcDbEntity
  8
Ilustrace
 62
   250
100
AcDbSpline
210
0.0
220
0.0
230
1.0
 70
    11
 71
     3
 72
   196
 73
   192
 74
     0
 42
0.0000000001
 43
0.0000000001
 40
0.0
 40
0.0
 40
0.0
 40
0.0
 40
0.0204081632653061
 40
0.0204081632653061
 40
0.0204081632653061
 40
0.0204081632653061
 40
0.0408163265306122
 40
0.0408163265306122
 40
0.0408163265306122
 40
0.0408163265306122
 40
0.0612244897959184
 40
0.0612244897959184
 40
0.0612244897959184
 40
0.0612244897959184
 40
0.0816326530612245
 40
0.0816326530612245
 40
0.0816326530612245
 40
0.0816326530612245
 40
0.1020408163265306
 40
0.1020408163265306
 40
0.1020408163265306
 40
0.1020408163265306
 40
0.1224489795918367
 40
0.1224489795918367
 40
0.1224489795918367
 40
0.1224489795918367
 40
0.1428571428571428
 40
0.1428571428571428
 40
0.1428571428571428
 40
0.1428571428571428
 40
0.163265306122449
 40
0.163265306122449
 40
0.163265306122449
 40
0.163265306122449
 40
0.1836734693877551
 40
0.1836734693877551
 40
0.1836734693877551
 40
0.1836734693877551
 40
0.2040816326530612
 40
0.2040816326530612
 40
0.2040816326530612
 40
0.2040816326530612
 40
0.2244897959183673
 40
0.2244897959183673
 40
0.2244897959183673
 40
0.2244897959183673
 40
0.2448979591836735
 40
0.2448979591836735
 40
0.2448979591836735
 40
0.2448979591836735
 40
0.2653061224489796
 40
0.2653061224489796
 40
0.2653061224489796
 40
0.2653061224489796
 40
0.2857142857142857
 40
0.2857142857142857
 40
0.2857142857142857
 40
0.2857142857142857
 40
0.3061224489795918
 40
0.3061224489795918
 40
0.3061224489795918
 40
0.3061224489795918
 40
0.3265306122448979
 40
0.3265306122448979
 40
0.3265306122448979
 40
0.3265306122448979
 40
0.3469387755102041
 40
0.3469387755102041
 40
0.3469387755102041
 40
0.3469387755102041
 40
0.3673469387755102
 40
0.3673469387755102
 40
0.3673469387755102
 40
0.3673469387755102
 40
0.3877551020408163
 40
0.3877551020408163
 40
0.3877551020408163
 40
0.3877551020408163
 40
0.4081632653061225
 40
0.4081632653061225
 40
0.4081632653061225
 40
0.4081632653061225
 40
0.4285714285714285
 40
0.4285714285714285
 40
0.4285714285714285
 40
0.4285714285714285
 40
0.4489795918367347
 40
0.4489795918367347
 40
0.4489795918367347
 40
0.4489795918367347
 40
0.4693877551020408
 40
0.4693877551020408
 40
0.4693877551020408
 40
0.4693877551020408
 40
0.4897959183673469
 40
0.4897959183673469
 40
0.4897959183673469
 40
0.4897959183673469
 40
0.5102040816326531
 40
0.5102040816326531
 40
0.5102040816326531
 40
0.5102040816326531
 40
0.5306122448979592
 40
0.5306122448979592
 40
0.5306122448979592
 40
0.5306122448979592
 40
0.5510204081632653
 40
0.5510204081632653
 40
0.5510204081632653
 40
0.5510204081632653
 40
0.5714285714285714
 40
0.5714285714285714
 40
0.5714285714285714
 40
0.5714285714285714
 40
0.5918367346938775
 40
0.5918367346938775
 40
0.5918367346938775
 40
0.5918367346938775
 40
0.6122448979591837
 40
0.6122448979591837
 40
0.6122448979591837
 40
0.6122448979591837
 40
0.6326530612244898
 40
0.6326530612244898
 40
0.6326530612244898
 40
0.6326530612244898
 40
0.6530612244897959
 40
0.6530612244897959
 40
0.6530612244897959
 40
0.6530612244897959
 40
0.673469387755102
 40
0.673469387755102
 40
0.673469387755102
 40
0.673469387755102
 40
0.6938775510204082
 40
0.6938775510204082
 40
0.6938775510204082
 40
0.6938775510204082
 40
0.7142857142857143
 40
0.7142857142857143
 40
0.7142857142857143
 40
0.7142857142857143
 40
0.7346938775510204
 40
0.7346938775510204
 40
0.7346938775510204
 40
0.7346938775510204
 40
0.7551020408163265
 40
0.7551020408163265
 40
0.7551020408163265
 40
0.7551020408163265
 40
0.7755102040816326
 40
0.7755102040816326
 40
0.7755102040816326
 40
0.7755102040816326
 40
0.7959183673469388
 40
0.7959183673469388
 40
0.7959183673469388
 40
0.7959183673469388
 40
0.8163265306122449
 40
0.8163265306122449
 40
0.8163265306122449
 40
0.8163265306122449
 40
0.8367346938775511
 40
0.8367346938775511
 40
0.8367346938775511
 40
0.8367346938775511
 40
0.8571428571428571
 40
0.8571428571428571
 40
0.8571428571428571
 40
0.8571428571428571
 40
0.8775510204081632
 40
0.8775510204081632
 40
0.8775510204081632
 40
0.8775510204081632
 40
0.8979591836734694
 40
0.8979591836734694
 40
0.8979591836734694
 40
0.8979591836734694
 40
0.9183673469387755
 40
0.9183673469387755
 40
0.9183673469387755
 40
0.9183673469387755
 40
0.9387755102040817
 40
0.9387755102040817
 40
0.9387755102040817
 40
0.9387755102040817
 40
0.9591836734693877
 40
0.9591836734693877
 40
0.9591836734693877
 40
0.9591836734693877
 40
1.0
 40
1.0
 40
1.0
 40
1.0
 10
4.9489
 20
-18.9106
 30
0.0
 10
4.9909
 20
-18.9385
 30
0.0
 10
5.0452
 20
-18.965
 30
0.0
 10
5.1112
 20
-18.9908
 30
0.0
 10
5.1112
 20
-18.9908
 30
0.0
 10
5.1772
 20
-19.0167
 30
0.0
 10
5.2522
 20
-19.0381
 30
0.0
 10
5.3363
 20
-19.0555
 30
0.0
 10
5.3363
 20
-19.0555
 30
0.0
 10
5.4204
 20
-19.0723
 30
0.0
 10
5.5096
 20
-19.0807
 30
0.0
 10
5.6047
 20
-19.0814
 30
0.0
 10
5.6047
 20
-19.0814
 30
0.0
 10
5.7554
 20
-19.0807
 30
0.0
 10
5.888
 20
-19.06
 30
0.0
 10
6.0024
 20
-19.0199
 30
0.0
 10
6.0024
 20
-19.0199
 30
0.0
 10
6.1169
 20
-18.9798
 30
0.0
 10
6.2126
 20
-18.9242
 30
0.0
 10
6.2902
 20
-18.8544
 30
0.0
 10
6.2902
 20
-18.8544
 30
0.0
 10
6.3679
 20
-18.7845
 30
0.0
 10
6.4261
 20
-18.7037
 30
0.0
 10
6.4655
 20
-18.6131
 30
0.0
 10
6.4655
 20
-18.6131
 30
0.0
 10
6.5043
 20
-18.5226
 30
0.0
 10
6.5244
 20
-18.4262
 30
0.0
 10
6.5244
 20
-18.3247
 30
0.0
 10
6.5244
 20
-18.3247
 30
0.0
 10
6.5231
 20
-18.2361
 30
0.0
 10
6.5075
 20
-18.1559
 30
0.0
 10
6.4784
 20
-18.0835
 30
0.0
 10
6.4784
 20
-18.0835
 30
0.0
 10
6.4493
 20
-18.0104
 30
0.0
 10
6.4092
 20
-17.947
 30
0.0
 10
6.3581
 20
-17.892
 30
0.0
 10
6.3581
 20
-17.892
 30
0.0
 10
6.3071
 20
-17.837
 30
0.0
 10
6.2476
 20
-17.7918
 30
0.0
 10
6.1803
 20
-17.7562
 30
0.0
 10
6.1803
 20
-17.7562
 30
0.0
 10
6.1124
 20
-17.7206
 30
0.0
 10
6.0399
 20
-17.6954
 30
0.0
 10
5.9617
 20
-17.6805
 30
0.0
 10
5.9617
 20
-17.6805
 30
0.0
 10
5.9617
 20
-17.6805
 30
0.0
 10
5.9617
 20
-17.6728
 30
0.0
 10
5.9617
 20
-17.6728
 30
0.0
 10
5.9617
 20
-17.6728
 30
0.0
 10
6.0639
 20
-17.6346
 30
0.0
 10
6.1499
 20
-17.5861
 30
0.0
 10
6.2185
 20
-17.5266
 30
0.0
 10
6.2185
 20
-17.5266
 30
0.0
 10
6.2877
 20
-17.4671
 30
0.0
 10
6.34
 20
-17.3985
 30
0.0
 10
6.375
 20
-17.3222
 30
0.0
 10
6.375
 20
-17.3222
 30
0.0
 10
6.4099
 20
-17.2459
 30
0.0
 10
6.4274
 20
-17.1638
 30
0.0
 10
6.4274
 20
-17.0752
 30
0.0
 10
6.4274
 20
-17.0752
 30
0.0
 10
6.4274
 20
-16.9976
 30
0.0
 10
6.4131
 20
-16.9232
 30
0.0
 10
6.3847
 20
-16.852
 30
0.0
 10
6.3847
 20
-16.852
 30
0.0
 10
6.3556
 20
-16.7802
 30
0.0
 10
6.3116
 20
-16.7162
 30
0.0
 10
6.2527
 20
-16.6593
 30
0.0
 10
6.2527
 20
-16.6593
 30
0.0
 10
6.1939
 20
-16.6024
 30
0.0
 10
6.1189
 20
-16.5578
 30
0.0
 10
6.0277
 20
-16.5248
 30
0.0
 10
6.0277
 20
-16.5248
 30
0.0
 10
5.9371
 20
-16.4912
 30
0.0
 10
5.8298
 20
-16.4743
 30
0.0
 10
5.7056
 20
-16.4737
 30
0.0
 10
5.7056
 20
-16.4737
 30
0.0
 10
5.6144
 20
-16.4743
 30
0.0
 10
5.5271
 20
-16.484
 30
0.0
 10
5.443
 20
-16.5021
 30
0.0
 10
5.443
 20
-16.5021
 30
0.0
 10
5.3589
 20
-16.5209
 30
0.0
 10
5.2826
 20
-16.5448
 30
0.0
 10
5.214
 20
-16.5739
 30
0.0
 10
5.214
 20
-16.5739
 30
0.0
 10
5.1455
 20
-16.6037
 30
0.0
 10
5.0879
 20
-16.6347
 30
0.0
 10
5.042
 20
-16.6677
 30
0.0
 10
5.042
 20
-16.6677
 30
0.0
 10
5.042
 20
-16.6677
 30
0.0
 10
5.1351
 20
-16.9161
 30
0.0
 10
5.1351
 20
-16.9161
 30
0.0
 10
5.1351
 20
-16.9161
 30
0.0
 10
5.172
 20
-16.8895
 30
0.0
 10
5.2166
 20
-16.8637
 30
0.0
 10
5.2697
 20
-16.8385
 30
0.0
 10
5.2697
 20
-16.8385
 30
0.0
 10
5.3221
 20
-16.8126
 30
0.0
 10
5.3803
 20
-16.7919
 30
0.0
 10
5.4436
 20
-16.7751
 30
0.0
 10
5.4436
 20
-16.7751
 30
0.0
 10
5.5064
 20
-16.7583
 30
0.0
 10
5.5717
 20
-16.7499
 30
0.0
 10
5.6396
 20
-16.7492
 30
0.0
 10
5.6396
 20
-16.7492
 30
0.0
 10
5.7444
 20
-16.7499
 30
0.0
 10
5.8291
 20
-16.768
 30
0.0
 10
5.8938
 20
-16.8029
 30
0.0
 10
5.8938
 20
-16.8029
 30
0.0
 10
5.9591
 20
-16.8378
 30
0.0
 10
6.007
 20
-16.8837
 30
0.0
 10
6.0374
 20
-16.9413
 30
0.0
 10
6.0374
 20
-16.9413
 30
0.0
 10
6.0678
 20
-16.9982
 30
0.0
 10
6.0826
 20
-17.0609
 30
0.0
 10
6.082
 20
-17.1295
 30
0.0
 10
6.082
 20
-17.1295
 30
0.0
 10
6.0813
 20
-17.2039
 30
0.0
 10
6.0632
 20
-17.2685
 30
0.0
 10
6.029
 20
-17.3222
 30
0.0
 10
6.029
 20
-17.3222
 30
0.0
 10
5.9947
 20
-17.3759
 30
0.0
 10
5.9494
 20
-17.4205
 30
0.0
 10
5.8938
 20
-17.4548
 30
0.0
 10
5.8938
 20
-17.4548
 30
0.0
 10
5.8382
 20
-17.4897
 30
0.0
 10
5.7774
 20
-17.515
 30
0.0
 10
5.712
 20
-17.5318
 30
0.0
 10
5.712
 20
-17.5318
 30
0.0
 10
5.6467
 20
-17.5479
 30
0.0
 10
5.5827
 20
-17.5563
 30
0.0
 10
5.5193
 20
-17.5563
 30
0.0
 10
5.5193
 20
-17.5563
 30
0.0
 10
5.5193
 20
-17.5563
 30
0.0
 10
5.3292
 20
-17.5563
 30
0.0
 10
5.3292
 20
-17.5563
 30
0.0
 10
5.3292
 20
-17.5563
 30
0.0
 10
5.3292
 20
-17.5563
 30
0.0
 10
5.3292
 20
-17.8125
 30
0.0
 10
5.3292
 20
-17.8125
 30
0.0
 10
5.3292
 20
-17.8125
 30
0.0
 10
5.3292
 20
-17.8125
 30
0.0
 10
5.5193
 20
-17.8125
 30
0.0
 10
5.5193
 20
-17.8125
 30
0.0
 10
5.5193
 20
-17.8125
 30
0.0
 10
5.6027
 20
-17.8125
 30
0.0
 10
5.6829
 20
-17.8222
 30
0.0
 10
5.7599
 20
-17.8416
 30
0.0
 10
5.7599
 20
-17.8416
 30
0.0
 10
5.8369
 20
-17.861
 30
0.0
 10
5.9061
 20
-17.8914
 30
0.0
 10
5.9675
 20
-17.9321
 30
0.0
 10
5.9675
 20
-17.9321
 30
0.0
 10
6.029
 20
-17.9729
 30
0.0
 10
6.0781
 20
-18.0252
 30
0.0
 10
6.1143
 20
-18.0893
 30
0.0
 10
6.1143
 20
-18.0893
 30
0.0
 10
6.1505
 20
-18.1527
 30
0.0
 10
6.1693
 20
-18.229
 30
0.0
 10
6.1712
 20
-18.3169
 30
0.0
 10
6.1712
 20
-18.3169
 30
0.0
 10
6.1725
 20
-18.3713
 30
0.0
 10
6.1641
 20
-18.4269
 30
0.0
 10
6.1447
 20
-18.4831
 30
0.0
 10
6.1447
 20
-18.4831
 30
0.0
 10
6.126
 20
-18.5401
 30
0.0
 10
6.0943
 20
-18.5931
 30
0.0
 10
6.0503
 20
-18.6416
 30
0.0
 10
6.0503
 20
-18.6416
 30
0.0
 10
6.0063
 20
-18.6901
 30
0.0
 10
5.9475
 20
-18.7296
 30
0.0
 10
5.8737
 20
-18.7593
 30
0.0
 10
5.8737
 20
-18.7593
 30
0.0
 10
5.8
 20
-18.7897
 30
0.0
 10
5.7095
 20
-18.8052
 30
0.0
 10
5.6008
 20
-18.8059
 30
0.0
 10
5.6008
 20
-18.8059
 30
0.0
 10
5.52
 20
-18.8052
 30
0.0
 10
5.443
 20
-18.7962
 30
0.0
 10
5.3706
 20
-18.7787
 30
0.0
 10
5.3706
 20
-18.7787
 30
0.0
 10
5.2981
 20
-18.7612
 30
0.0
 10
5.2335
 20
-18.7405
 30
0.0
 10
5.1765
 20
-18.7166
 30
0.0
 10
5.1765
 20
-18.7166
 30
0.0
 10
5.1196
 20
-18.6927
 30
0.0
 10
5.075
 20
-18.6707
 30
0.0
 10
5.042
 20
-18.6506
 30
0.0
 10
5.042
 20
-18.6506
 30
0.0
 10
5.042
 20
-18.6506
 30
0.0
 10
4.9489
 20
-18.9106
 30
0.0
 10
4.9489
 20
-18.9106
 30
0.0
  0
SPLINE
  5
5F
330
1F
100
AcDbEntity
  8
Ilustrace
 62
   250
370
    30
100
AcDbSpline
210
0.0
220
0.0
230
1.0
 70
    24
 71
     3
 72
     8
 73
     4
 74
     0
 42
0.0000000001
 43
0.0000000001
 40
0.0
 40
0.0
 40
0.0
 40
0.0
 40
1.0
 40
1.0
 40
1.0
 40
1.0
 10
26.7253
 20
12.7342
 30
0.0
 10
26.7253
 20
12.7342
 30
0.0
 10
-20.1006
 20
12.7342
 30
0.0
 10
-20.1006
 20
12.7342
 30
0.0
  0
SPLINE
  5
60
330
1F
100
AcDbEntity
  8
Ilustrace
 62
   250
370
    30
100
AcDbSpline
210
0.0
220
0.0
230
1.0
 70
    24
 71
     3
 72
     8
 73
     4
 74
     0
 42
0.0000000001
 43
0.0000000001
 40
0.0
 40
0.0
 40
0.0
 40
0.0
 40
1.0
 40
1.0
 40
1.0
 40
1.0
 10
-20.1006
 20
12.2308
 30
0.0
 10
-20.1006
 20
12.2308
 30
0.0
 10
-20.1006
 20
12.7342
 30
0.0
 10
-20.1006
 20
12.7342
 30
0.0
  0
SPLINE
  5
61
330
1F
100
AcDbEntity
  8
Ilustrace
 62
   250
370
    30
100
AcDbSpline
210
0.0
220
0.0
230
1.0
 70
    24
 71
     3
 72
     8
 73
     4
 74
     0
 42
0.0000000001
 43
0.0000000001
 40
0.0
 40
0.0
 40
0.0
 40
0.0
 40
1.0
 40
1.0
 40
1.0
 40
1.0
 10
26.7253
 20
12.2308
 30
0.0
 10
26.7253
 20
12.2308
 30
0.0
 10
26.7253
 20
12.7342
 30
0.0
 10
26.7253
 20
12.7342
 30
0.0
  0
SPLINE
  5
62
330
1F
100
AcDbEntity
  8
Ilustrace
 62
   250
370
    30
100
AcDbSpline
210
0.0
220
0.0
230
1.0
 70
    24
 71
     3
 72
     8
 73
     4
 74
     0
 42
0.0000000001
 43
0.0000000001
 40
0.0
 40
0.0
 40
0.0
 40
0.0
 40
1.0
 40
1.0
 40
1.0
 40
1.0
 10
-20.0787
 20
9.2098
 30
0.0
 10
-20.0787
 20
9.2098
 30
0.0
 10
-20.0787
 20
8.2027
 30
0.0
 10
-20.0787
 20
8.2027
 30
0.0
  0
SPLINE
  5
63
330
1F
100
AcDbEntity
  8
Ilustrace
 62
   250
370
    30
100
AcDbSpline
210
0.0
220
0.0
230
1.0
 70
    24
 71
     3
 72
     8
 73
     4
 74
     0
 42
0.0000000001
 43
0.0000000001
 40
0.0
 40
0.0
 40
0.0
 40
0.0
 40
1.0
 40
1.0
 40
1.0
 40
1.0
 10
2.3053
 20
8.2027
 30
0.0
 10
2.3053
 20
8.2027
 30
0.0
 10
-20.0787
 20
8.2027
 30
0.0
 10
-20.0787
 20
8.2027
 30
0.0
  0
SPLINE
  5
64
330
1F
100
AcDbEntity
  8
Ilustrace
 62
   250
370
    30
100
AcDbSpline
210
0.0
220
0.0
230
1.0
 70
    24
 71
     3
 72
     8
 73
     4
 74
     0
 42
0.0000000001
 43
0.0000000001
 40
0.0
 40
0.0
 40
0.0
 40
0.0
 40
1.0
 40
1.0
 40
1.0
 40
1.0
 10
2.3053
 20
9.2098
 30
0.0
 10
2.3053
 20
9.2098
 30
0.0
 10
2.3053
 20
8.2027
 30
0.0
 10
2.3053
 20
8.2027
 30
0.0
  0
SPLINE
  5
65
330
1F
100
AcDbEntity
  8
Ilustrace
 62
   250
370
    30
100
AcDbSpline
210
0.0
220
0.0
230
1.0
 70
    24
 71
     3
 72
     8
 73
     4
 74
     0
 42
0.0000000001
 43
0.0000000001
 40
0.0
 40
0.0
 40
0.0
 40
0.0
 40
1.0
 40
1.0
 40
1.0
 40
1.0
 10
0.7948
 20
2.7445
 30
0.0
 10
0.7948
 20
2.7445
 30
0.0
 10
0.7948
 20
-1.1482
 30
0.0
 10
0.7948
 20
-1.1482
 30
0.0
  0
SPLINE
  5
66
330
1F
100
AcDbEntity
  8
Ilustrace
 62
   250
370
    30
100
AcDbSpline
210
0.0
220
0.0
230
1.0
 70
    24
 71
     3
 72
     8
 73
     4
 74
     0
 42
0.0000000001
 43
0.0000000001
 40
0.0
 40
0.0
 40
0.0
 40
0.0
 40
1.0
 40
1.0
 40
1.0
 40
1.0
 10
3.9159
 20
5.6284
 30
0.0
 10
3.9159
 20
5.6284
 30
0.0
 10
24.8837
 20
8.2027
 30
0.0
 10
24.8837
 20
8.2027
 30
0.0
  0
SPLINE
  5
67
330
1F
100
AcDbEntity
  8
Ilustrace
 62
   250
370
    30
100
AcDbSpline
210
0.0
220
0.0
230
1.0
 70
    24
 71
     3
 72
     8
 73
     4
 74
     0
 42
0.0000000001
 43
0.0000000001
 40
0.0
 40
0.0
 40
0.0
 40
0.0
 40
1.0
 40
1.0
 40
1.0
 40
1.0
 10
-16.8538
 20
9.2098
 30
0.0
 10
-16.8538
 20
9.2098
 30
0.0
 10
-16.8538
 20
8.2027
 30
0.0
 10
-16.8538
 20
8.2027
 30
0.0
  0
SPLINE
  5
68
330
1F
100
AcDbEntity
  8
Ilustrace
 62
   250
370
    30
100
AcDbSpline
210
0.0
220
0.0
230
1.0
 70
    24
 71
     3
 72
     8
 73
     4
 74
     0
 42
0.0000000001
 43
0.0000000001
 40
0.0
 40
0.0
 40
0.0
 40
0.0
 40
1.0
 40
1.0
 40
1.0
 40
1.0
 10
-15.7566
 20
9.2098
 30
0.0
 10
-15.7566
 20
9.2098
 30
0.0
 10
-15.7566
 20
8.2027
 30
0.0
 10
-15.7566
 20
8.2027
 30
0.0
  0
SPLINE
  5
69
330
1F
100
AcDbEntity
  8
Ilustrace
 62
   250
370
    30
100
AcDbSpline
210
0.0
220
0.0
230
1.0
 70
    24
 71
     3
 72
     8
 73
     4
 74
     0
 42
0.0000000001
 43
0.0000000001
 40
0.0
 40
0.0
 40
0.0
 40
0.0
 40
1.0
 40
1.0
 40
1.0
 40
1.0
 10
26.7253
 20
8.2027
 30
0.0
 10
26.7253
 20
8.2027
 30
0.0
 10
4.3194
 20
8.2027
 30
0.0
 10
4.3194
 20
8.2027
 30
0.0
  0
SPLINE
  5
6A
330
1F
100
AcDbEntity
  8
Ilustrace
 62
   250
370
    30
100
AcDbSpline
210
0.0
220
0.0
230
1.0
 70
    24
 71
     3
 72
     8
 73
     4
 74
     0
 42
0.0000000001
 43
0.0000000001
 40
0.0
 40
0.0
 40
0.0
 40
0.0
 40
1.0
 40
1.0
 40
1.0
 40
1.0
 10
4.3194
 20
9.2098
 30
0.0
 10
4.3194
 20
9.2098
 30
0.0
 10
4.3194
 20
8.2027
 30
0.0
 10
4.3194
 20
8.2027
 30
0.0
  0
SPLINE
  5
6B
330
1F
100
AcDbEntity
  8
Ilustrace
 62
   250
370
    30
100
AcDbSpline
210
0.0
220
0.0
230
1.0
 70
    24
 71
     3
 72
     8
 73
     4
 74
     0
 42
0.0000000001
 43
0.0000000001
 40
0.0
 40
0.0
 40
0.0
 40
0.0
 40
1.0
 40
1.0
 40
1.0
 40
1.0
 10
26.7253
 20
9.2098
 30
0.0
 10
26.7253
 20
9.2098
 30
0.0
 10
26.7253
 20
8.2027
 30
0.0
 10
26.7253
 20
8.2027
 30
0.0
  0
SPLINE
  5
6C
330
1F
100
AcDbEntity
  8
Ilustrace
 62
   250
370
    30
100
AcDbSpline
210
0.0
220
0.0
230
1.0
 70
    24
 71
     3
 72
     8
 73
     4
 74
     0
 42
0.0000000001
 43
0.0000000001
 40
0.0
 40
0.0
 40
0.0
 40
0.0
 40
1.0
 40
1.0
 40
1.0
 40
1.0
 10
6.9655
 20
-7.9881
 30
0.0
 10
6.9655
 20
-7.9881
 30
0.0
 10
6.2051
 20
-6.131
 30
0.0
 10
6.2051
 20
-6.131
 30
0.0
  0
SPLINE
  5
6D
330
1F
100
AcDbEntity
  8
Ilustrace
 62
   250
370
    30
100
AcDbSpline
210
0.0
220
0.0
230
1.0
 70
    24
 71
     3
 72
     8
 73
     4
 74
     0
 42
0.0000000001
 43
0.0000000001
 40
0.0
 40
0.0
 40
0.0
 40
0.0
 40
1.0
 40
1.0
 40
1.0
 40
1.0
 10
22.3815
 20
9.2098
 30
0.0
 10
22.3815
 20
9.2098
 30
0.0
 10
22.3815
 20
8.2027
 30
0.0
 10
22.3815
 20
8.2027
 30
0.0
  0
SPLINE
  5
6E
330
1F
100
AcDbEntity
  8
Ilustrace
 62
   250
370
    30
100
AcDbSpline
210
0.0
220
0.0
230
1.0
 70
    24
 71
     3
 72
     8
 73
     4
 74
     0
 42
0.0000000001
 43
0.0000000001
 40
0.0
 40
0.0
 40
0.0
 40
0.0
 40
1.0
 40
1.0
 40
1.0
 40
1.0
 10
24.0378
 20
9.2098
 30
0.0
 10
24.0378
 20
9.2098
 30
0.0
 10
24.0378
 20
8.2027
 30
0.0
 10
24.0378
 20
8.2027
 30
0.0
  0
SPLINE
  5
6F
330
1F
100
AcDbEntity
  8
Ilustrace
 62
   250
370
    30
100
AcDbSpline
210
0.0
220
0.0
230
1.0
 70
     8
 71
     3
 72
   112
 73
   108
 74
     0
 42
0.0000000001
 43
0.0000000001
 40
0.0
 40
0.0
 40
0.0
 40
0.0
 40
0.0357142857142857
 40
0.0357142857142857
 40
0.0357142857142857
 40
0.0357142857142857
 40
0.0714285714285714
 40
0.0714285714285714
 40
0.0714285714285714
 40
0.0714285714285714
 40
0.1071428571428571
 40
0.1071428571428571
 40
0.1071428571428571
 40
0.1071428571428571
 40
0.1428571428571428
 40
0.1428571428571428
 40
0.1428571428571428
 40
0.1428571428571428
 40
0.1785714285714286
 40
0.1785714285714286
 40
0.1785714285714286
 40
0.1785714285714286
 40
0.2142857142857143
 40
0.2142857142857143
 40
0.2142857142857143
 40
0.2142857142857143
 40
0.25
 40
0.25
 40
0.25
 40
0.25
 40
0.2857142857142857
 40
0.2857142857142857
 40
0.2857142857142857
 40
0.2857142857142857
 40
0.3214285714285715
 40
0.3214285714285715
 40
0.3214285714285715
 40
0.3214285714285715
 40
0.3571428571428572
 40
0.3571428571428572
 40
0.3571428571428572
 40
0.3571428571428572
 40
0.3928571428571428
 40
0.3928571428571428
 40
0.3928571428571428
 40
0.3928571428571428
 40
0.4285714285714285
 40
0.4285714285714285
 40
0.4285714285714285
 40
0.4285714285714285
 40
0.4642857142857143
 40
0.4642857142857143
 40
0.4642857142857143
 40
0.4642857142857143
 40
0.5
 40
0.5
 40
0.5
 40
0.5
 40
0.5357142857142857
 40
0.5357142857142857
 40
0.5357142857142857
 40
0.5357142857142857
 40
0.5714285714285714
 40
0.5714285714285714
 40
0.5714285714285714
 40
0.5714285714285714
 40
0.6071428571428571
 40
0.6071428571428571
 40
0.6071428571428571
 40
0.6071428571428571
 40
0.6428571428571429
 40
0.6428571428571429
 40
0.6428571428571429
 40
0.6428571428571429
 40
0.6785714285714286
 40
0.6785714285714286
 40
0.6785714285714286
 40
0.6785714285714286
 40
0.7142857142857143
 40
0.7142857142857143
 40
0.7142857142857143
 40
0.7142857142857143
 40
0.75
 40
0.75
 40
0.75
 40
0.75
 40
0.7857142857142857
 40
0.7857142857142857
 40
0.7857142857142857
 40
0.7857142857142857
 40
0.8214285714285714
 40
0.8214285714285714
 40
0.8214285714285714
 40
0.8214285714285714
 40
0.8571428571428571
 40
0.8571428571428571
 40
0.8571428571428571
 40
0.8571428571428571
 40
0.8928571428571429
 40
0.8928571428571429
 40
0.8928571428571429
 40
0.8928571428571429
 40
0.9285714285714286
 40
0.9285714285714286
 40
0.9285714285714286
 40
0.9285714285714286
 40
1.0
 40
1.0
 40
1.0
 40
1.0
 10
8.1028
 20
-10.4269
 30
0.0
 10
8.1028
 20
-10.4269
 30
0.0
 10
7.0957
 20
-10.4269
 30
0.0
 10
7.0957
 20
-10.4269
 30
0.0
 10
7.0957
 20
-10.4269
 30
0.0
 10
7.0957
 20
-10.4269
 30
0.0
 10
-4.5574
 20
-10.4269
 30
0.0
 10
-4.5574
 20
-10.4269
 30
0.0
 10
-4.5574
 20
-10.4269
 30
0.0
 10
-4.5574
 20
-10.4269
 30
0.0
 10
-5.5643
 20
-10.4269
 30
0.0
 10
-5.5643
 20
-10.4269
 30
0.0
 10
-5.5643
 20
-10.4269
 30
0.0
 10
-5.5643
 20
-10.4269
 30
0.0
 10
-6.5652
 20
-10.3159
 30
0.0
 10
-6.5652
 20
-10.3159
 30
0.0
 10
-6.5652
 20
-10.3159
 30
0.0
 10
-6.5652
 20
-10.3159
 30
0.0
 10
-7.3201
 20
-10.2322
 30
0.0
 10
-7.3201
 20
-10.2322
 30
0.0
 10
-7.3201
 20
-10.2322
 30
0.0
 10
-7.3201
 20
-10.2322
 30
0.0
 10
-8.3209
 20
-10.1212
 30
0.0
 10
-8.3209
 20
-10.1212
 30
0.0
 10
-8.3209
 20
-10.1212
 30
0.0
 10
-8.3209
 20
-10.1212
 30
0.0
 10
-9.2705
 20
-9.786
 30
0.0
 10
-9.2705
 20
-9.786
 30
0.0
 10
-9.2705
 20
-9.786
 30
0.0
 10
-9.2705
 20
-9.786
 30
0.0
 10
-9.9479
 20
-9.5473
 30
0.0
 10
-9.9479
 20
-9.5473
 30
0.0
 10
-9.9479
 20
-9.5473
 30
0.0
 10
-9.9479
 20
-9.5473
 30
0.0
 10
-10.8975
 20
-9.2121
 30
0.0
 10
-10.8975
 20
-9.2121
 30
0.0
 10
-10.8975
 20
-9.2121
 30
0.0
 10
-10.8975
 20
-9.2121
 30
0.0
 10
-11.7526
 20
-8.6801
 30
0.0
 10
-11.7526
 20
-8.6801
 30
0.0
 10
-11.7526
 20
-8.6801
 30
0.0
 10
-11.7526
 20
-8.6801
 30
0.0
 10
-12.4027
 20
-8.2759
 30
0.0
 10
-12.4027
 20
-8.2759
 30
0.0
 10
-12.4027
 20
-8.2759
 30
0.0
 10
-12.4027
 20
-8.2759
 30
0.0
 10
-13.2578
 20
-7.7442
 30
0.0
 10
-13.2578
 20
-7.7442
 30
0.0
 10
-13.2578
 20
-7.7442
 30
0.0
 10
-13.2578
 20
-7.7442
 30
0.0
 10
-13.9743
 20
-7.0367
 30
0.0
 10
-13.9743
 20
-7.0367
 30
0.0
 10
-13.9743
 20
-7.0367
 30
0.0
 10
-13.9743
 20
-7.0367
 30
0.0
 10
-14.5214
 20
-6.4969
 30
0.0
 10
-14.5214
 20
-6.4969
 30
0.0
 10
-14.5214
 20
-6.4969
 30
0.0
 10
-14.5214
 20
-6.4969
 30
0.0
 10
-15.2381
 20
-5.7895
 30
0.0
 10
-15.2381
 20
-5.7895
 30
0.0
 10
-15.2381
 20
-5.7895
 30
0.0
 10
-15.2381
 20
-5.7895
 30
0.0
 10
-15.7816
 20
-4.9419
 30
0.0
 10
-15.7816
 20
-4.9419
 30
0.0
 10
-15.7816
 20
-4.9419
 30
0.0
 10
-15.7816
 20
-4.9419
 30
0.0
 10
-16.1982
 20
-4.2921
 30
0.0
 10
-16.1982
 20
-4.2921
 30
0.0
 10
-16.1982
 20
-4.2921
 30
0.0
 10
-16.1982
 20
-4.2921
 30
0.0
 10
-16.7417
 20
-3.4441
 30
0.0
 10
-16.7417
 20
-3.4441
 30
0.0
 10
-16.7417
 20
-3.4441
 30
0.0
 10
-16.7417
 20
-3.4441
 30
0.0
 10
-17.0856
 20
-2.498
 30
0.0
 10
-17.0856
 20
-2.498
 30
0.0
 10
-17.0856
 20
-2.498
 30
0.0
 10
-17.0856
 20
-2.498
 30
0.0
 10
-17.3501
 20
-1.7699
 30
0.0
 10
-17.3501
 20
-1.7699
 30
0.0
 10
-17.3501
 20
-1.7699
 30
0.0
 10
-17.3501
 20
-1.7699
 30
0.0
 10
-17.6943
 20
-0.8237
 30
0.0
 10
-17.6943
 20
-0.8237
 30
0.0
 10
-17.6943
 20
-0.8237
 30
0.0
 10
-17.6943
 20
-0.8237
 30
0.0
 10
-17.8581
 20
0.1701
 30
0.0
 10
-17.8581
 20
0.1701
 30
0.0
 10
-17.8581
 20
0.1701
 30
0.0
 10
-17.8581
 20
0.1701
 30
0.0
 10
-17.9861
 20
0.9474
 30
0.0
 10
-17.9861
 20
0.9474
 30
0.0
 10
-17.9861
 20
0.9474
 30
0.0
 10
-17.9861
 20
0.9474
 30
0.0
 10
-18.1499
 20
1.9411
 30
0.0
 10
-18.1499
 20
1.9411
 30
0.0
 10
-18.1499
 20
1.9411
 30
0.0
 10
-18.1499
 20
1.9411
 30
0.0
 10
-18.1673
 20
2.9478
 30
0.0
 10
-18.1673
 20
2.9478
 30
0.0
 10
-18.1673
 20
2.9478
 30
0.0
 10
-18.1673
 20
2.9478
 30
0.0
 10
-18.2416
 20
7.1959
 30
0.0
 10
-18.2416
 20
7.1959
 30
0.0
 10
-18.2416
 20
7.1959
 30
0.0
 10
-18.2416
 20
7.1959
 30
0.0
 10
-18.2591
 20
8.2027
 30
0.0
 10
-18.2591
 20
8.2027
 30
0.0
  0
SPLINE
  5
70
330
1F
100
AcDbEntity
  8
Ilustrace
 62
   250
370
    30
100
AcDbSpline
210
0.0
220
0.0
230
1.0
 70
     8
 71
     3
 72
    12
 73
     8
 74
     0
 42
0.0000000001
 43
0.0000000001
 40
0.0
 40
0.0
 40
0.0
 40
0.0
 40
0.3333333333333333
 40
0.3333333333333333
 40
0.3333333333333333
 40
0.3333333333333333
 40
1.0
 40
1.0
 40
1.0
 40
1.0
 10
2.2007
 20
2.3961
 30
0.0
 10
2.2007
 20
2.3961
 30
0.0
 10
2.6268
 20
1.4833
 30
0.0
 10
2.6268
 20
1.4833
 30
0.0
 10
2.6268
 20
1.4833
 30
0.0
 10
2.6268
 20
1.4833
 30
0.0
 10
7.5841
 20
-9.137
 30
0.0
 10
7.5841
 20
-9.137
 30
0.0
  0
SPLINE
  5
71
330
1F
100
AcDbEntity
  8
Ilustrace
 62
   250
370
    30
100
AcDbSpline
210
0.0
220
0.0
230
1.0
 70
     8
 71
     3
 72
     8
 73
     4
 74
     0
 42
0.0000000001
 43
0.0000000001
 40
0.0
 40
0.0
 40
0.0
 40
0.0
 40
1.0
 40
1.0
 40
1.0
 40
1.0
 10
7.5841
 20
-9.137
 30
0.0
 10
7.7191
 20
-9.4262
 30
0.0
 10
8.0793
 20
-10.0055
 30
0.0
 10
8.1028
 20
-10.4269
 30
0.0
  0
SPLINE
  5
72
330
1F
100
AcDbEntity
  8
Ilustrace
 62
   250
370
    30
100
AcDbSpline
210
0.0
220
0.0
230
1.0
 70
     8
 71
     3
 72
     8
 73
     4
 74
     0
 42
0.0000000001
 43
0.0000000001
 40
0.0
 40
0.0
 40
0.0
 40
0.0
 40
1.0
 40
1.0
 40
1.0
 40
1.0
 10
4.3071
 20
5.6761
 30
0.0
 10
4.3071
 20
5.0912
 30
0.0
 10
4.3906
 20
4.4298
 30
0.0
 10
4.2288
 20
3.8581
 30
0.0
  0
SPLINE
  5
73
330
1F
100
AcDbEntity
  8
Ilustrace
 62
   250
370
    30
100
AcDbSpline
210
0.0
220
0.0
230
1.0
 70
     8
 71
     3
 72
    20
 73
    16
 74
     0
 42
0.0000000001
 43
0.0000000001
 40
0.0
 40
0.0
 40
0.0
 40
0.0
 40
0.2
 40
0.2
 40
0.2
 40
0.2
 40
0.4
 40
0.4
 40
0.4
 40
0.4
 40
0.6
 40
0.6
 40
0.6
 40
0.6
 40
1.0
 40
1.0
 40
1.0
 40
1.0
 10
4.2288
 20
3.8581
 30
0.0
 10
4.2288
 20
3.8581
 30
0.0
 10
4.0091
 20
3.3597
 30
0.0
 10
4.0091
 20
3.3597
 30
0.0
 10
4.0091
 20
3.3597
 30
0.0
 10
4.0091
 20
3.3597
 30
0.0
 10
3.3062
 20
2.6738
 30
0.0
 10
3.3062
 20
2.6738
 30
0.0
 10
3.3062
 20
2.6738
 30
0.0
 10
3.3062
 20
2.6738
 30
0.0
 10
2.3634
 20
2.4016
 30
0.0
 10
2.3634
 20
2.4016
 30
0.0
 10
2.3634
 20
2.4016
 30
0.0
 10
2.3634
 20
2.4016
 30
0.0
 10
0.7948
 20
2.3469
 30
0.0
 10
0.7948
 20
2.3469
 30
0.0
  0
SPLINE
  5
74
330
1F
100
AcDbEntity
  8
Ilustrace
 62
   250
370
    30
100
AcDbSpline
210
0.0
220
0.0
230
1.0
 70
    24
 71
     3
 72
     8
 73
     4
 74
     0
 42
0.0000000001
 43
0.0000000001
 40
0.0
 40
0.0
 40
0.0
 40
0.0
 40
1.0
 40
1.0
 40
1.0
 40
1.0
 10
9.1524
 20
-8.5316
 30
0.0
 10
9.1524
 20
-8.5316
 30
0.0
 10
3.7406
 20
3.0976
 30
0.0
 10
3.7406
 20
3.0976
 30
0.0
  0
SPLINE
  5
75
330
1F
100
AcDbEntity
  8
Ilustrace
 62
   250
370
    30
100
AcDbSpline
210
0.0
220
0.0
230
1.0
 70
     8
 71
     3
 72
     8
 73
     4
 74
     0
 42
0.0000000001
 43
0.0000000001
 40
0.0
 40
0.0
 40
0.0
 40
0.0
 40
1.0
 40
1.0
 40
1.0
 40
1.0
 10
8.8262
 20
-7.833
 30
0.0
 10
9.0342
 20
-8.261
 30
0.0
 10
9.374
 20
-8.7552
 30
0.0
 10
9.1793
 20
-9.2775
 30
0.0
  0
SPLINE
  5
76
330
1F
100
AcDbEntity
  8
Ilustrace
 62
   250
370
    30
100
AcDbSpline
210
0.0
220
0.0
230
1.0
 70
     8
 71
     3
 72
    12
 73
     8
 74
     0
 42
0.0000000001
 43
0.0000000001
 40
0.0
 40
0.0
 40
0.0
 40
0.0
 40
0.3333333333333333
 40
0.3333333333333333
 40
0.3333333333333333
 40
0.3333333333333333
 40
1.0
 40
1.0
 40
1.0
 40
1.0
 10
9.1793
 20
-9.2775
 30
0.0
 10
9.1793
 20
-9.2775
 30
0.0
 10
8.6614
 20
-9.8382
 30
0.0
 10
8.6614
 20
-9.8382
 30
0.0
 10
8.6614
 20
-9.8382
 30
0.0
 10
8.6614
 20
-9.8382
 30
0.0
 10
8.0354
 20
-10.1299
 30
0.0
 10
8.0354
 20
-10.1299
 30
0.0
  0
SPLINE
  5
77
330
1F
100
AcDbEntity
  8
Ilustrace
 62
   250
370
    30
100
AcDbSpline
210
0.0
220
0.0
230
1.0
 70
    24
 71
     3
 72
     8
 73
     4
 74
     0
 42
0.0000000001
 43
0.0000000001
 40
0.0
 40
0.0
 40
0.0
 40
0.0
 40
1.0
 40
1.0
 40
1.0
 40
1.0
 10
-20.6542
 20
9.8406
 30
0.0
 10
-20.6542
 20
9.8406
 30
0.0
 10
-21.2587
 20
10.0908
 30
0.0
 10
-21.2587
 20
10.0908
 30
0.0
  0
SPLINE
  5
78
330
1F
100
AcDbEntity
  8
Ilustrace
 62
   250
370
    30
100
AcDbSpline
210
0.0
220
0.0
230
1.0
 70
    24
 71
     3
 72
     8
 73
     4
 74
     0
 42
0.0000000001
 43
0.0000000001
 40
0.0
 40
0.0
 40
0.0
 40
0.0
 40
1.0
 40
1.0
 40
1.0
 40
1.0
 10
-20.6542
 20
10.3413
 30
0.0
 10
-20.6542
 20
10.3413
 30
0.0
 10
-21.2587
 20
10.0908
 30
0.0
 10
-21.2587
 20
10.0908
 30
0.0
  0
SPLINE
  5
79
330
1F
100
AcDbEntity
  8
Ilustrace
 62
   250
370
    30
100
AcDbSpline
210
0.0
220
0.0
230
1.0
 70
    24
 71
     3
 72
     8
 73
     4
 74
     0
 42
0.0000000001
 43
0.0000000001
 40
0.0
 40
0.0
 40
0.0
 40
0.0
 40
1.0
 40
1.0
 40
1.0
 40
1.0
 10
-20.6542
 20
11.0994
 30
0.0
 10
-20.6542
 20
11.0994
 30
0.0
 10
-20.6542
 20
10.3413
 30
0.0
 10
-20.6542
 20
10.3413
 30
0.0
  0
SPLINE
  5
7A
330
1F
100
AcDbEntity
  8
Ilustrace
 62
   250
370
    30
100
AcDbSpline
210
0.0
220
0.0
230
1.0
 70
    24
 71
     3
 72
     8
 73
     4
 74
     0
 42
0.0000000001
 43
0.0000000001
 40
0.0
 40
0.0
 40
0.0
 40
0.0
 40
1.0
 40
1.0
 40
1.0
 40
1.0
 10
-20.6542
 20
9.2098
 30
0.0
 10
-20.6542
 20
9.2098
 30
0.0
 10
-20.6542
 20
9.8406
 30
0.0
 10
-20.6542
 20
9.8406
 30
0.0
  0
SPLINE
  5
7B
330
1F
100
AcDbEntity
  8
Ilustrace
 62
   250
370
    30
100
AcDbSpline
210
0.0
220
0.0
230
1.0
 70
    24
 71
     3
 72
     8
 73
     4
 74
     0
 42
0.0000000001
 43
0.0000000001
 40
0.0
 40
0.0
 40
0.0
 40
0.0
 40
1.0
 40
1.0
 40
1.0
 40
1.0
 10
27.2791
 20
9.2098
 30
0.0
 10
27.2791
 20
9.2098
 30
0.0
 10
-20.6542
 20
9.2098
 30
0.0
 10
-20.6542
 20
9.2098
 30
0.0
  0
SPLINE
  5
7C
330
1F
100
AcDbEntity
  8
Ilustrace
 62
   250
370
    30
100
AcDbSpline
210
0.0
220
0.0
230
1.0
 70
    24
 71
     3
 72
     8
 73
     4
 74
     0
 42
0.0000000001
 43
0.0000000001
 40
0.0
 40
0.0
 40
0.0
 40
0.0
 40
1.0
 40
1.0
 40
1.0
 40
1.0
 10
27.2791
 20
9.8406
 30
0.0
 10
27.2791
 20
9.8406
 30
0.0
 10
27.2791
 20
9.2098
 30
0.0
 10
27.2791
 20
9.2098
 30
0.0
  0
SPLINE
  5
7D
330
1F
100
AcDbEntity
  8
Ilustrace
 62
   250
370
    30
100
AcDbSpline
210
0.0
220
0.0
230
1.0
 70
    24
 71
     3
 72
     8
 73
     4
 74
     0
 42
0.0000000001
 43
0.0000000001
 40
0.0
 40
0.0
 40
0.0
 40
0.0
 40
1.0
 40
1.0
 40
1.0
 40
1.0
 10
27.8832
 20
10.0908
 30
0.0
 10
27.8832
 20
10.0908
 30
0.0
 10
27.2791
 20
9.8406
 30
0.0
 10
27.2791
 20
9.8406
 30
0.0
  0
SPLINE
  5
7E
330
1F
100
AcDbEntity
  8
Ilustrace
 62
   250
370
    30
100
AcDbSpline
210
0.0
220
0.0
230
1.0
 70
    24
 71
     3
 72
     8
 73
     4
 74
     0
 42
0.0000000001
 43
0.0000000001
 40
0.0
 40
0.0
 40
0.0
 40
0.0
 40
1.0
 40
1.0
 40
1.0
 40
1.0
 10
27.2791
 20
11.0994
 30
0.0
 10
27.2791
 20
11.0994
 30
0.0
 10
27.2791
 20
10.3413
 30
0.0
 10
27.2791
 20
10.3413
 30
0.0
  0
SPLINE
  5
7F
330
1F
100
AcDbEntity
  8
Ilustrace
 62
   250
370
    30
100
AcDbSpline
210
0.0
220
0.0
230
1.0
 70
    24
 71
     3
 72
     8
 73
     4
 74
     0
 42
0.0000000001
 43
0.0000000001
 40
0.0
 40
0.0
 40
0.0
 40
0.0
 40
1.0
 40
1.0
 40
1.0
 40
1.0
 10
27.8832
 20
10.0908
 30
0.0
 10
27.8832
 20
10.0908
 30
0.0
 10
27.2791
 20
10.3413
 30
0.0
 10
27.2791
 20
10.3413
 30
0.0
  0
SPLINE
  5
80
330
1F
100
AcDbEntity
  8
Ilustrace
 62
   250
370
    30
100
AcDbSpline
210
0.0
220
0.0
230
1.0
 70
    24
 71
     3
 72
     8
 73
     4
 74
     0
 42
0.0000000001
 43
0.0000000001
 40
0.0
 40
0.0
 40
0.0
 40
0.0
 40
1.0
 40
1.0
 40
1.0
 40
1.0
 10
27.2791
 20
11.6001
 30
0.0
 10
27.2791
 20
11.6001
 30
0.0
 10
27.8832
 20
11.3498
 30
0.0
 10
27.8832
 20
11.3498
 30
0.0
  0
SPLINE
  5
81
330
1F
100
AcDbEntity
  8
Ilustrace
 62
   250
370
    30
100
AcDbSpline
210
0.0
220
0.0
230
1.0
 70
    24
 71
     3
 72
     8
 73
     4
 74
     0
 42
0.0000000001
 43
0.0000000001
 40
0.0
 40
0.0
 40
0.0
 40
0.0
 40
1.0
 40
1.0
 40
1.0
 40
1.0
 10
27.2791
 20
11.0994
 30
0.0
 10
27.2791
 20
11.0994
 30
0.0
 10
27.8832
 20
11.3498
 30
0.0
 10
27.8832
 20
11.3498
 30
0.0
  0
SPLINE
  5
82
330
1F
100
AcDbEntity
  8
Ilustrace
 62
   250
370
    30
100
AcDbSpline
210
0.0
220
0.0
230
1.0
 70
    24
 71
     3
 72
     8
 73
     4
 74
     0
 42
0.0000000001
 43
0.0000000001
 40
0.0
 40
0.0
 40
0.0
 40
0.0
 40
1.0
 40
1.0
 40
1.0
 40
1.0
 10
27.2791
 20
11.6001
 30
0.0
 10
27.2791
 20
11.6001
 30
0.0
 10
27.2791
 20
12.2308
 30
0.0
 10
27.2791
 20
12.2308
 30
0.0
  0
SPLINE
  5
83
330
1F
100
AcDbEntity
  8
Ilustrace
 62
   250
370
    30
100
AcDbSpline
210
0.0
220
0.0
230
1.0
 70
    24
 71
     3
 72
     8
 73
     4
 74
     0
 42
0.0000000001
 43
0.0000000001
 40
0.0
 40
0.0
 40
0.0
 40
0.0
 40
1.0
 40
1.0
 40
1.0
 40
1.0
 10
-20.6542
 20
12.2308
 30
0.0
 10
-20.6542
 20
12.2308
 30
0.0
 10
27.2791
 20
12.2308
 30
0.0
 10
27.2791
 20
12.2308
 30
0.0
  0
SPLINE
  5
84
330
1F
100
AcDbEntity
  8
Ilustrace
 62
   250
370
    30
100
AcDbSpline
210
0.0
220
0.0
230
1.0
 70
    24
 71
     3
 72
     8
 73
     4
 74
     0
 42
0.0000000001
 43
0.0000000001
 40
0.0
 40
0.0
 40
0.0
 40
0.0
 40
1.0
 40
1.0
 40
1.0
 40
1.0
 10
-20.6542
 20
11.6001
 30
0.0
 10
-20.6542
 20
11.6001
 30
0.0
 10
-20.6542
 20
12.2308
 30
0.0
 10
-20.6542
 20
12.2308
 30
0.0
  0
SPLINE
  5
85
330
1F
100
AcDbEntity
  8
Ilustrace
 62
   250
370
    30
100
AcDbSpline
210
0.0
220
0.0
230
1.0
 70
    24
 71
     3
 72
     8
 73
     4
 74
     0
 42
0.0000000001
 43
0.0000000001
 40
0.0
 40
0.0
 40
0.0
 40
0.0
 40
1.0
 40
1.0
 40
1.0
 40
1.0
 10
-21.2587
 20
11.3498
 30
0.0
 10
-21.2587
 20
11.3498
 30
0.0
 10
-20.6542
 20
11.6001
 30
0.0
 10
-20.6542
 20
11.6001
 30
0.0
  0
SPLINE
  5
86
330
1F
100
AcDbEntity
  8
Ilustrace
 62
   250
370
    30
100
AcDbSpline
210
0.0
220
0.0
230
1.0
 70
    24
 71
     3
 72
     8
 73
     4
 74
     0
 42
0.0000000001
 43
0.0000000001
 40
0.0
 40
0.0
 40
0.0
 40
0.0
 40
1.0
 40
1.0
 40
1.0
 40
1.0
 10
-21.2587
 20
11.3498
 30
0.0
 10
-21.2587
 20
11.3498
 30
0.0
 10
-20.6542
 20
11.0994
 30
0.0
 10
-20.6542
 20
11.0994
 30
0.0
  0
SPLINE
  5
87
330
1F
100
AcDbEntity
  8
Ilustrace
 62
   250
370
    15
100
AcDbSpline
210
0.0
220
0.0
230
1.0
 70
    24
 71
     3
 72
     8
 73
     4
 74
     0
 42
0.0000000001
 43
0.0000000001
 40
0.0
 40
0.0
 40
0.0
 40
0.0
 40
1.0
 40
1.0
 40
1.0
 40
1.0
 10
27.8832
 20
11.3498
 30
0.0
 10
27.8832
 20
11.3498
 30
0.0
 10
-21.2587
 20
11.3498
 30
0.0
 10
-21.2587
 20
11.3498
 30
0.0
  0
SPLINE
  5
88
330
1F
100
AcDbEntity
  8
Ilustrace
 62
   250
370
    15
100
AcDbSpline
210
0.0
220
0.0
230
1.0
 70
    24
 71
     3
 72
     8
 73
     4
 74
     0
 42
0.0000000001
 43
0.0000000001
 40
0.0
 40
0.0
 40
0.0
 40
0.0
 40
1.0
 40
1.0
 40
1.0
 40
1.0
 10
27.8832
 20
10.0908
 30
0.0
 10
27.8832
 20
10.0908
 30
0.0
 10
-21.2587
 20
10.0908
 30
0.0
 10
-21.2587
 20
10.0908
 30
0.0
  0
SPLINE
  5
89
330
1F
100
AcDbEntity
  8
Ilustrace
 62
   250
370
    30
100
AcDbSpline
210
0.0
220
0.0
230
1.0
 70
    24
 71
     3
 72
     8
 73
     4
 74
     0
 42
0.0000000001
 43
0.0000000001
 40
0.0
 40
0.0
 40
0.0
 40
0.0
 40
1.0
 40
1.0
 40
1.0
 40
1.0
 10
27.2791
 20
11.0994
 30
0.0
 10
27.2791
 20
11.0994
 30
0.0
 10
-20.6542
 20
11.0994
 30
0.0
 10
-20.6542
 20
11.0994
 30
0.0
  0
SPLINE
  5
8A
330
1F
100
AcDbEntity
  8
Ilustrace
 62
   250
370
    30
100
AcDbSpline
210
0.0
220
0.0
230
1.0
 70
    24
 71
     3
 72
     8
 73
     4
 74
     0
 42
0.0000000001
 43
0.0000000001
 40
0.0
 40
0.0
 40
0.0
 40
0.0
 40
1.0
 40
1.0
 40
1.0
 40
1.0
 10
27.2791
 20
11.6001
 30
0.0
 10
27.2791
 20
11.6001
 30
0.0
 10
-20.6542
 20
11.6001
 30
0.0
 10
-20.6542
 20
11.6001
 30
0.0
  0
SPLINE
  5
8B
330
1F
100
AcDbEntity
  8
Ilustrace
 62
   250
370
    30
100
AcDbSpline
210
0.0
220
0.0
230
1.0
 70
    24
 71
     3
 72
     8
 73
     4
 74
     0
 42
0.0000000001
 43
0.0000000001
 40
0.0
 40
0.0
 40
0.0
 40
0.0
 40
1.0
 40
1.0
 40
1.0
 40
1.0
 10
27.2791
 20
9.8406
 30
0.0
 10
27.2791
 20
9.8406
 30
0.0
 10
-20.6542
 20
9.8406
 30
0.0
 10
-20.6542
 20
9.8406
 30
0.0
  0
SPLINE
  5
8C
330
1F
100
AcDbEntity
  8
Ilustrace
 62
   250
370
    30
100
AcDbSpline
210
0.0
220
0.0
230
1.0
 70
    24
 71
     3
 72
     8
 73
     4
 74
     0
 42
0.0000000001
 43
0.0000000001
 40
0.0
 40
0.0
 40
0.0
 40
0.0
 40
1.0
 40
1.0
 40
1.0
 40
1.0
 10
27.2791
 20
10.3413
 30
0.0
 10
27.2791
 20
10.3413
 30
0.0
 10
-20.6542
 20
10.3413
 30
0.0
 10
-20.6542
 20
10.3413
 30
0.0
  0
SPLINE
  5
8D
330
1F
100
AcDbEntity
  8
Ilustrace
 62
   250
370
    30
100
AcDbSpline
210
0.0
220
0.0
230
1.0
 70
    11
 71
     3
 72
    20
 73
    16
 74
     0
 42
0.0000000001
 43
0.0000000001
 40
0.0
 40
0.0
 40
0.0
 40
0.0
 40
0.2
 40
0.2
 40
0.2
 40
0.2
 40
0.4
 40
0.4
 40
0.4
 40
0.4
 40
0.6
 40
0.6
 40
0.6
 40
0.6
 40
1.0
 40
1.0
 40
1.0
 40
1.0
 10
2.2947
 20
5.1612
 30
0.0
 10
2.7177
 20
5.1612
 30
0.0
 10
3.0606
 20
4.8182
 30
0.0
 10
3.0606
 20
4.3953
 30
0.0
 10
3.0606
 20
4.3953
 30
0.0
 10
3.0606
 20
3.9723
 30
0.0
 10
2.7177
 20
3.6294
 30
0.0
 10
2.2947
 20
3.6294
 30
0.0
 10
2.2947
 20
3.6294
 30
0.0
 10
1.8717
 20
3.6294
 30
0.0
 10
1.5288
 20
3.9723
 30
0.0
 10
1.5288
 20
4.3953
 30
0.0
 10
1.5288
 20
4.3953
 30
0.0
 10
1.5288
 20
4.8182
 30
0.0
 10
1.8717
 20
5.1612
 30
0.0
 10
2.2947
 20
5.1612
 30
0.0
  0
SPLINE
  5
8E
330
1F
100
AcDbEntity
  8
Ilustrace
 62
   250
370
    30
100
AcDbSpline
210
0.0
220
0.0
230
1.0
 70
    11
 71
     3
 72
    20
 73
    16
 74
     0
 42
0.0000000001
 43
0.0000000001
 40
0.0
 40
0.0
 40
0.0
 40
0.0
 40
0.2
 40
0.2
 40
0.2
 40
0.2
 40
0.4
 40
0.4
 40
0.4
 40
0.4
 40
0.6
 40
0.6
 40
0.6
 40
0.6
 40
1.0
 40
1.0
 40
1.0
 40
1.0
 10
2.2947
 20
4.8988
 30
0.0
 10
2.5728
 20
4.8988
 30
0.0
 10
2.7982
 20
4.6733
 30
0.0
 10
2.7982
 20
4.3953
 30
0.0
 10
2.7982
 20
4.3953
 30
0.0
 10
2.7982
 20
4.1172
 30
0.0
 10
2.5728
 20
3.8918
 30
0.0
 10
2.2947
 20
3.8918
 30
0.0
 10
2.2947
 20
3.8918
 30
0.0
 10
2.0166
 20
3.8918
 30
0.0
 10
1.7912
 20
4.1172
 30
0.0
 10
1.7912
 20
4.3953
 30
0.0
 10
1.7912
 20
4.3953
 30
0.0
 10
1.7912
 20
4.6733
 30
0.0
 10
2.0166
 20
4.8988
 30
0.0
 10
2.2947
 20
4.8988
 30
0.0
  0
SPLINE
  5
8F
330
1F
100
AcDbEntity
  8
Ilustrace
 62
   250
370
     9
100
AcDbSpline
210
0.0
220
0.0
230
1.0
 70
    11
 71
     3
 72
    32
 73
    28
 74
     0
 42
0.0000000001
 43
0.0000000001
 40
0.0
 40
0.0
 40
0.0
 40
0.0
 40
0.125
 40
0.125
 40
0.125
 40
0.125
 40
0.25
 40
0.25
 40
0.25
 40
0.25
 40
0.375
 40
0.375
 40
0.375
 40
0.375
 40
0.5
 40
0.5
 40
0.5
 40
0.5
 40
0.625
 40
0.625
 40
0.625
 40
0.625
 40
0.75
 40
0.75
 40
0.75
 40
0.75
 40
1.0
 40
1.0
 40
1.0
 40
1.0
 10
25.2728
 20
-20.3831
 30
0.0
 10
25.2728
 20
-20.3831
 30
0.0
 10
25.2728
 20
-20.3831
 30
0.0
 10
25.2728
 20
-20.3831
 30
0.0
 10
25.2728
 20
-20.3831
 30
0.0
 10
25.2728
 20
-20.3831
 30
0.0
 10
25.2728
 20
-20.3831
 30
0.0
 10
25.2728
 20
-20.3831
 30
0.0
 10
25.2728
 20
-20.3831
 30
0.0
 10
25.2728
 20
-20.3831
 30
0.0
 10
26.5456
 20
-19.9397
 30
0.0
 10
26.5456
 20
-19.9397
 30
0.0
 10
26.5456
 20
-19.9397
 30
0.0
 10
26.5456
 20
-19.9397
 30
0.0
 10
25.2728
 20
-19.4963
 30
0.0
 10
25.2728
 20
-19.4963
 30
0.0
 10
25.2728
 20
-19.4963
 30
0.0
 10
25.2728
 20
-19.4963
 30
0.0
 10
25.2728
 20
-19.4963
 30
0.0
 10
25.2728
 20
-19.4963
 30
0.0
 10
25.2728
 20
-19.4963
 30
0.0
 10
25.2728
 20
-19.4963
 30
0.0
 10
25.2728
 20
-19.4963
 30
0.0
 10
25.2728
 20
-19.4963
 30
0.0
 10
25.2728
 20
-19.4963
 30
0.0
 10
25.2728
 20
-19.4963
 30
0.0
 10
25.2728
 20
-20.3831
 30
0.0
 10
25.2728
 20
-20.3831
 30
0.0
  0
SPLINE
  5
90
330
1F
100
AcDbEntity
  8
Ilustrace
 62
   250
370
     9
100
AcDbSpline
210
0.0
220
0.0
230
1.0
 70
    11
 71
     3
 72
    32
 73
    28
 74
     0
 42
0.0000000001
 43
0.0000000001
 40
0.0
 40
0.0
 40
0.0
 40
0.0
 40
0.125
 40
0.125
 40
0.125
 40
0.125
 40
0.25
 40
0.25
 40
0.25
 40
0.25
 40
0.375
 40
0.375
 40
0.375
 40
0.375
 40
0.5
 40
0.5
 40
0.5
 40
0.5
 40
0.625
 40
0.625
 40
0.625
 40
0.625
 40
0.75
 40
0.75
 40
0.75
 40
0.75
 40
1.0
 40
1.0
 40
1.0
 40
1.0
 10
-24.4419
 20
11.4058
 30
0.0
 10
-24.4419
 20
11.4058
 30
0.0
 10
-24.4419
 20
11.4058
 30
0.0
 10
-24.4419
 20
11.4058
 30
0.0
 10
-24.4419
 20
11.4058
 30
0.0
 10
-24.4419
 20
11.4058
 30
0.0
 10
-24.4419
 20
11.4058
 30
0.0
 10
-24.4419
 20
11.4058
 30
0.0
 10
-24.4419
 20
11.4058
 30
0.0
 10
-24.4419
 20
11.4058
 30
0.0
 10
-24.8853
 20
12.6786
 30
0.0
 10
-24.8853
 20
12.6786
 30
0.0
 10
-24.8853
 20
12.6786
 30
0.0
 10
-24.8853
 20
12.6786
 30
0.0
 10
-25.3287
 20
11.4058
 30
0.0
 10
-25.3287
 20
11.4058
 30
0.0
 10
-25.3287
 20
11.4058
 30
0.0
 10
-25.3287
 20
11.4058
 30
0.0
 10
-25.3287
 20
11.4058
 30
0.0
 10
-25.3287
 20
11.4058
 30
0.0
 10
-25.3287
 20
11.4058
 30
0.0
 10
-25.3287
 20
11.4058
 30
0.0
 10
-25.3287
 20
11.4058
 30
0.0
 10
-25.3287
 20
11.4058
 30
0.0
 10
-25.3287
 20
11.4058
 30
0.0
 10
-25.3287
 20
11.4058
 30
0.0
 10
-24.4419
 20
11.4058
 30
0.0
 10
-24.4419
 20
11.4058
 30
0.0
  0
SPLINE
  5
91
330
1F
100
AcDbEntity
  8
Ilustrace
 62
   250
370
     9
100
AcDbSpline
210
0.0
220
0.0
230
1.0
 70
    11
 71
     3
 72
    32
 73
    28
 74
     0
 42
0.0000000001
 43
0.0000000001
 40
0.0
 40
0.0
 40
0.0
 40
0.0
 40
0.125
 40
0.125
 40
0.125
 40
0.125
 40
0.25
 40
0.25
 40
0.25
 40
0.25
 40
0.375
 40
0.375
 40
0.375
 40
0.375
 40
0.5
 40
0.5
 40
0.5
 40
0.5
 40
0.625
 40
0.625
 40
0.625
 40
0.625
 40
0.75
 40
0.75
 40
0.75
 40
0.75
 40
1.0
 40
1.0
 40
1.0
 40
1.0
 10
26.672
 20
16.3922
 30
0.0
 10
26.672
 20
16.3922
 30
0.0
 10
26.672
 20
16.3922
 30
0.0
 10
26.672
 20
16.3922
 30
0.0
 10
26.672
 20
16.3922
 30
0.0
 10
26.672
 20
16.3922
 30
0.0
 10
26.672
 20
16.3922
 30
0.0
 10
26.672
 20
16.3922
 30
0.0
 10
26.672
 20
16.3922
 30
0.0
 10
26.672
 20
16.3922
 30
0.0
 10
27.9448
 20
16.8356
 30
0.0
 10
27.9448
 20
16.8356
 30
0.0
 10
27.9448
 20
16.8356
 30
0.0
 10
27.9448
 20
16.8356
 30
0.0
 10
26.672
 20
17.279
 30
0.0
 10
26.672
 20
17.279
 30
0.0
 10
26.672
 20
17.279
 30
0.0
 10
26.672
 20
17.279
 30
0.0
 10
26.672
 20
17.279
 30
0.0
 10
26.672
 20
17.279
 30
0.0
 10
26.672
 20
17.279
 30
0.0
 10
26.672
 20
17.279
 30
0.0
 10
26.672
 20
17.279
 30
0.0
 10
26.672
 20
17.279
 30
0.0
 10
26.672
 20
17.279
 30
0.0
 10
26.672
 20
17.279
 30
0.0
 10
26.672
 20
16.3922
 30
0.0
 10
26.672
 20
16.3922
 30
0.0
  0
SPLINE
  5
92
330
1F
100
AcDbEntity
  8
Ilustrace
 62
   250
370
     9
100
AcDbSpline
210
0.0
220
0.0
230
1.0
 70
    11
 71
     3
 72
    32
 73
    28
 74
     0
 42
0.0000000001
 43
0.0000000001
 40
0.0
 40
0.0
 40
0.0
 40
0.0
 40
0.125
 40
0.125
 40
0.125
 40
0.125
 40
0.25
 40
0.25
 40
0.25
 40
0.25
 40
0.375
 40
0.375
 40
0.375
 40
0.375
 40
0.5
 40
0.5
 40
0.5
 40
0.5
 40
0.625
 40
0.625
 40
0.625
 40
0.625
 40
0.75
 40
0.75
 40
0.75
 40
0.75
 40
1.0
 40
1.0
 40
1.0
 40
1.0
 10
-18.5938
 20
-20.3781
 30
0.0
 10
-18.5938
 20
-20.3781
 30
0.0
 10
-18.5938
 20
-20.3781
 30
0.0
 10
-18.5938
 20
-20.3781
 30
0.0
 10
-18.5938
 20
-20.3781
 30
0.0
 10
-18.5938
 20
-20.3781
 30
0.0
 10
-18.5938
 20
-20.3781
 30
0.0
 10
-18.5938
 20
-20.3781
 30
0.0
 10
-18.5938
 20
-20.3781
 30
0.0
 10
-18.5938
 20
-20.3781
 30
0.0
 10
-19.8666
 20
-19.9347
 30
0.0
 10
-19.8666
 20
-19.9347
 30
0.0
 10
-19.8666
 20
-19.9347
 30
0.0
 10
-19.8666
 20
-19.9347
 30
0.0
 10
-18.5938
 20
-19.4913
 30
0.0
 10
-18.5938
 20
-19.4913
 30
0.0
 10
-18.5938
 20
-19.4913
 30
0.0
 10
-18.5938
 20
-19.4913
 30
0.0
 10
-18.5938
 20
-19.4913
 30
0.0
 10
-18.5938
 20
-19.4913
 30
0.0
 10
-18.5938
 20
-19.4913
 30
0.0
 10
-18.5938
 20
-19.4913
 30
0.0
 10
-18.5938
 20
-19.4913
 30
0.0
 10
-18.5938
 20
-19.4913
 30
0.0
 10
-18.5938
 20
-19.4913
 30
0.0
 10
-18.5938
 20
-19.4913
 30
0.0
 10
-18.5938
 20
-20.3781
 30
0.0
 10
-18.5938
 20
-20.3781
 30
0.0
  0
SPLINE
  5
93
330
1F
100
AcDbEntity
  8
Ilustrace
 62
   250
370
     9
100
AcDbSpline
210
0.0
220
0.0
230
1.0
 70
    11
 71
     3
 72
    32
 73
    28
 74
     0
 42
0.0000000001
 43
0.0000000001
 40
0.0
 40
0.0
 40
0.0
 40
0.0
 40
0.125
 40
0.125
 40
0.125
 40
0.125
 40
0.25
 40
0.25
 40
0.25
 40
0.25
 40
0.375
 40
0.375
 40
0.375
 40
0.375
 40
0.5
 40
0.5
 40
0.5
 40
0.5
 40
0.625
 40
0.625
 40
0.625
 40
0.625
 40
0.75
 40
0.75
 40
0.75
 40
0.75
 40
1.0
 40
1.0
 40
1.0
 40
1.0
 10
-24.4909
 20
-9.0561
 30
0.0
 10
-24.4909
 20
-9.0561
 30
0.0
 10
-24.4909
 20
-9.0561
 30
0.0
 10
-24.4909
 20
-9.0561
 30
0.0
 10
-24.4909
 20
-9.0561
 30
0.0
 10
-24.4909
 20
-9.0561
 30
0.0
 10
-24.4909
 20
-9.0561
 30
0.0
 10
-24.4909
 20
-9.0561
 30
0.0
 10
-24.4909
 20
-9.0561
 30
0.0
 10
-24.4909
 20
-9.0561
 30
0.0
 10
-24.9343
 20
-10.3289
 30
0.0
 10
-24.9343
 20
-10.3289
 30
0.0
 10
-24.9343
 20
-10.3289
 30
0.0
 10
-24.9343
 20
-10.3289
 30
0.0
 10
-25.3777
 20
-9.0561
 30
0.0
 10
-25.3777
 20
-9.0561
 30
0.0
 10
-25.3777
 20
-9.0561
 30
0.0
 10
-25.3777
 20
-9.0561
 30
0.0
 10
-25.3777
 20
-9.0561
 30
0.0
 10
-25.3777
 20
-9.0561
 30
0.0
 10
-25.3777
 20
-9.0561
 30
0.0
 10
-25.3777
 20
-9.0561
 30
0.0
 10
-25.3777
 20
-9.0561
 30
0.0
 10
-25.3777
 20
-9.0561
 30
0.0
 10
-25.3777
 20
-9.0561
 30
0.0
 10
-25.3777
 20
-9.0561
 30
0.0
 10
-24.4909
 20
-9.0561
 30
0.0
 10
-24.4909
 20
-9.0561
 30
0.0
  0
SPLINE
  5
94
330
1F
100
AcDbEntity
  8
Ilustrace
 62
   250
370
     9
100
AcDbSpline
210
0.0
220
0.0
230
1.0
 70
    11
 71
     3
 72
    32
 73
    28
 74
     0
 42
0.0000000001
 43
0.0000000001
 40
0.0
 40
0.0
 40
0.0
 40
0.0
 40
0.125
 40
0.125
 40
0.125
 40
0.125
 40
0.25
 40
0.25
 40
0.25
 40
0.25
 40
0.375
 40
0.375
 40
0.375
 40
0.375
 40
0.5
 40
0.5
 40
0.5
 40
0.5
 40
0.625
 40
0.625
 40
0.625
 40
0.625
 40
0.75
 40
0.75
 40
0.75
 40
0.75
 40
1.0
 40
1.0
 40
1.0
 40
1.0
 10
-20.0389
 20
16.3862
 30
0.0
 10
-20.0389
 20
16.3862
 30
0.0
 10
-20.0389
 20
16.3862
 30
0.0
 10
-20.0389
 20
16.3862
 30
0.0
 10
-20.0389
 20
16.3862
 30
0.0
 10
-20.0389
 20
16.3862
 30
0.0
 10
-20.0389
 20
16.3862
 30
0.0
 10
-20.0389
 20
16.3862
 30
0.0
 10
-20.0389
 20
16.3862
 30
0.0
 10
-20.0389
 20
16.3862
 30
0.0
 10
-21.3117
 20
16.8296
 30
0.0
 10
-21.3117
 20
16.8296
 30
0.0
 10
-21.3117
 20
16.8296
 30
0.0
 10
-21.3117
 20
16.8296
 30
0.0
 10
-20.0389
 20
17.273
 30
0.0
 10
-20.0389
 20
17.273
 30
0.0
 10
-20.0389
 20
17.273
 30
0.0
 10
-20.0389
 20
17.273
 30
0.0
 10
-20.0389
 20
17.273
 30
0.0
 10
-20.0389
 20
17.273
 30
0.0
 10
-20.0389
 20
17.273
 30
0.0
 10
-20.0389
 20
17.273
 30
0.0
 10
-20.0389
 20
17.273
 30
0.0
 10
-20.0389
 20
17.273
 30
0.0
 10
-20.0389
 20
17.273
 30
0.0
 10
-20.0389
 20
17.273
 30
0.0
 10
-20.0389
 20
16.3862
 30
0.0
 10
-20.0389
 20
16.3862
 30
0.0
  0
ENDSEC
  0
SECTION
  2
OBJECTS
  0
DICTIONARY
  5
C
330
0
100
AcDbDictionary
281
     1
  3
ACAD_GROUP
350
D
  3
ACAD_LAYOUT
350
1A
  3
ACAD_MATERIAL
350
3B
  3
ACAD_MLEADERSTYLE
350
97
  3
ACAD_MLINESTYLE
350
17
  3
ACAD_PLOTSETTINGS
350
19
  3
ACAD_PLOTSTYLENAME
350
E
  3
ACAD_VISUALSTYLE
350
2A
  3
AcDbVariableDictionary
350
95
  0
DICTIONARY
  5
D
102
{ACAD_REACTORS
330
C
102
}
330
C
100
AcDbDictionary
281
     1
  0
DICTIONARY
  5
1A
102
{ACAD_REACTORS
330
C
102
}
330
C
100
AcDbDictionary
281
     1
  3
Layout1
350
1E
  3
Layout2
350
26
  3
Model
350
22
  0
DICTIONARY
  5
3B
102
{ACAD_REACTORS
330
C
102
}
330
C
100
AcDbDictionary
281
     1
  3
ByBlock
350
3D
  3
ByLayer
350
3C
  3
Global
350
3E
  0
DICTIONARY
  5
97
102
{ACAD_REACTORS
330
C
102
}
330
C
100
AcDbDictionary
281
     1
  0
DICTIONARY
  5
17
102
{ACAD_REACTORS
330
C
102
}
330
C
100
AcDbDictionary
281
     1
  3
Standard
350
18
  0
DICTIONARY
  5
19
102
{ACAD_REACTORS
330
C
102
}
330
C
100
AcDbDictionary
281
     1
  0
ACDBDICTIONARYWDFLT
  5
E
102
{ACAD_REACTORS
330
C
102
}
330
C
100
AcDbDictionary
281
     1
  3
Normal
350
F
100
AcDbDictionaryWithDefault
340
F
  0
DICTIONARY
  5
2A
102
{ACAD_REACTORS
330
C
102
}
330
C
100
AcDbDictionary
281
     1
  3
2dWireframe
350
2F
  3
3D Hidden
350
31
  3
3dWireframe
350
30
  3
Basic
350
32
  3
Brighten
350
36
  3
ColorChange
350
3A
  3
Conceptual
350
34
  3
Dim
350
35
  3
Facepattern
350
39
  3
Flat
350
2B
  3
FlatWithEdges
350
2C
  3
Gouraud
350
2D
  3
GouraudWithEdges
350
2E
  3
Linepattern
350
38
  3
Realistic
350
33
  3
Thicken
350
37
  0
DICTIONARY
  5
95
102
{ACAD_REACTORS
330
C
102
}
330
C
100
AcDbDictionary
281
     1
  3
DIMASSOC
350
98
  3
HIDETEXT
350
99
  0
LAYOUT
  5
1E
102
{ACAD_REACTORS
330
1A
102
}
330
1A
100
AcDbPlotSettings
  1

  2
none_device
  4

  6

 40
0.0
 41
0.0
 42
0.0
 43
0.0
 44
0.0
 45
0.0
 46
0.0
 47
0.0
 48
0.0
 49
0.0
140
0.0
141
0.0
142
1.0
143
1.0
 70
   688
 72
     0
 73
     0
 74
     5
  7

 75
    16
147
1.0
148
0.0
149
0.0
100
AcDbLayout
  1
Layout1
 70
     1
 71
     1
 10
0.0
 20
0.0
 11
12.0
 21
9.0
 12
0.0
 22
0.0
 32
0.0
 14
1.000000000000000E+20
 24
1.000000000000000E+20
 34
1.000000000000000E+20
 15
-1.000000000000000E+20
 25
-1.000000000000000E+20
 35
-1.000000000000000E+20
146
0.0
 13
0.0
 23
0.0
 33
0.0
 16
1.0
 26
0.0
 36
0.0
 17
0.0
 27
1.0
 37
0.0
 76
     0
330
1B
  0
LAYOUT
  5
26
102
{ACAD_REACTORS
330
1A
102
}
330
1A
100
AcDbPlotSettings
  1

  2
none_device
  4

  6

 40
0.0
 41
0.0
 42
0.0
 43
0.0
 44
0.0
 45
0.0
 46
0.0
 47
0.0
 48
0.0
 49
0.0
140
0.0
141
0.0
142
1.0
143
1.0
 70
   688
 72
     0
 73
     0
 74
     5
  7

 75
    16
147
1.0
148
0.0
149
0.0
100
AcDbLayout
  1
Layout2
 70
     1
 71
     2
 10
0.0
 20
0.0
 11
0.0
 21
0.0
 12
0.0
 22
0.0
 32
0.0
 14
0.0
 24
0.0
 34
0.0
 15
0.0
 25
0.0
 35
0.0
146
0.0
 13
0.0
 23
0.0
 33
0.0
 16
1.0
 26
0.0
 36
0.0
 17
0.0
 27
1.0
 37
0.0
 76
     0
330
23
  0
LAYOUT
  5
22
102
{ACAD_REACTORS
330
1A
102
}
330
1A
100
AcDbPlotSettings
  1

  2
none_device
  4

  6

 40
0.0
 41
0.0
 42
0.0
 43
0.0
 44
0.0
 45
0.0
 46
0.0
 47
0.0
 48
0.0
 49
0.0
140
0.0
141
0.0
142
1.0
143
1.0
 70
  1712
 72
     0
 73
     0
 74
     0
  7

 75
     0
147
1.0
148
0.0
149
0.0
100
AcDbLayout
  1
Model
 70
     1
 71
     0
 10
0.0
 20
0.0
 11
12.0
 21
9.0
 12
0.0
 22
0.0
 32
0.0
 14
-27.9859
 24
-20.5128
 34
0.0
 15
28.0606
 25
20.5129
 35
0.0
146
0.0
 13
0.0
 23
0.0
 33
0.0
 16
1.0
 26
0.0
 36
0.0
 17
0.0
 27
1.0
 37
0.0
 76
     0
330
1F
331
29
  0
MATERIAL
  5
3D
102
{ACAD_REACTORS
330
3B
102
}
102
{ACAD_XDICTIONARY
360
BC
102
}
330
3B
100
AcDbMaterial
  1
ByBlock
  0
MATERIAL
  5
3C
102
{ACAD_REACTORS
330
3B
102
}
102
{ACAD_XDICTIONARY
360
BA
102
}
330
3B
100
AcDbMaterial
  1
ByLayer
  0
MATERIAL
  5
3E
102
{ACAD_REACTORS
330
3B
102
}
102
{ACAD_XDICTIONARY
360
BE
102
}
330
3B
100
AcDbMaterial
  1
Global
  0
MLINESTYLE
  5
18
102
{ACAD_REACTORS
330
17
102
}
330
17
100
AcDbMlineStyle
  2
Standard
 70
     0
  3

 62
   256
 51
90.0
 52
90.0
 71
     2
 49
0.5
 62
   256
  6
BYLAYER
 49
-0.5
 62
   256
  6
BYLAYER
  0
ACDBPLACEHOLDER
  5
F
102
{ACAD_REACTORS
330
E
102
}
330
E
  0
VISUALSTYLE
  5
2F
102
{ACAD_REACTORS
330
2A
102
}
102
{ACAD_XDICTIONARY
360
A2
102
}
330
2A
100
AcDbVisualStyle
  2
2dWireframe
 70
     4
 71
     0
 72
     2
 73
     0
 90
        0
 40
-0.6
 41
-30.0
 62
     5
 63
     7
 74
     1
 91
        4
 64
     7
 65
   257
 75
     1
175
     1
 42
1.0
 92
        0
 66
   257
 43
1.0
 76
     1
 77
     6
 78
     2
 67
     7
 79
     5
170
     0
171
     0
290
     0
174
     0
 93
        1
 44
0.0
173
     0
291
     0
 45
0.0
1001
ACAD
1000
AcDbSavedByObjectVersion
1070
     0
  0
VISUALSTYLE
  5
31
102
{ACAD_REACTORS
330
2A
102
}
102
{ACAD_XDICTIONARY
360
A6
102
}
330
2A
100
AcDbVisualStyle
  2
3D Hidden
 70
     6
 71
     1
 72
     2
 73
     2
 90
        0
 40
-0.6
 41
-30.0
 62
     5
 63
     7
 74
     2
 91
        2
 64
     7
 65
   257
 75
     2
175
     1
 42
40.0
 92
        0
 66
   257
 43
1.0
 76
     1
 77
     6
 78
     2
 67
     7
 79
     3
170
     0
171
     0
290
     0
174
     0
 93
        1
 44
0.0
173
     0
291
     0
 45
0.0
1001
ACAD
1000
AcDbSavedByObjectVersion
1070
     0
  0
VISUALSTYLE
  5
30
102
{ACAD_REACTORS
330
2A
102
}
102
{ACAD_XDICTIONARY
360
A4
102
}
330
2A
100
AcDbVisualStyle
  2
3dWireframe
 70
     5
 71
     0
 72
     2
 73
     0
 90
        0
 40
-0.6
 41
-30.0
 62
     5
 63
     7
 74
     1
 91
        4
 64
     7
 65
   257
 75
     1
175
     1
 42
1.0
 92
        0
 66
   257
 43
1.0
 76
     1
 77
     6
 78
     2
 67
     7
 79
     5
170
     0
171
     0
290
     0
174
     0
 93
        1
 44
0.0
173
     0
291
     0
 45
0.0
1001
ACAD
1000
AcDbSavedByObjectVersion
1070
     0
  0
VISUALSTYLE
  5
32
102
{ACAD_REACTORS
330
2A
102
}
102
{ACAD_XDICTIONARY
360
A8
102
}
330
2A
100
AcDbVisualStyle
  2
Basic
 70
     7
 71
     1
 72
     0
 73
     1
 90
        0
 40
-0.6
 41
-30.0
 62
     5
 63
     7
 74
     0
 91
        4
 64
     7
 65
   257
 75
     1
175
     1
 42
1.0
 92
        8
 66
     7
 43
1.0
 76
     1
 77
     6
 78
     2
 67
     7
 79
     5
170
     0
171
     0
290
     0
174
     0
 93
        1
 44
0.0
173
     0
291
     1
 45
0.0
1001
ACAD
1000
AcDbSavedByObjectVersion
1070
     0
  0
VISUALSTYLE
  5
36
102
{ACAD_REACTORS
330
2A
102
}
102
{ACAD_XDICTIONARY
360
B0
102
}
330
2A
100
AcDbVisualStyle
  2
Brighten
 70
    12
 71
     2
 72
     2
 73
     0
 90
        0
 40
-0.6
 41
-30.0
 62
     5
 63
     7
 74
     1
 91
        4
 64
     7
 65
   257
 75
     1
175
     1
 42
1.0
 92
        8
 66
     7
 43
1.0
 76
     1
 77
     6
 78
     2
 67
     7
 79
     5
170
     0
171
     0
290
     0
174
     0
 93
        1
 44
50.0
173
     0
291
     1
 45
0.0
1001
ACAD
1000
AcDbSavedByObjectVersion
1070
     0
  0
VISUALSTYLE
  5
3A
102
{ACAD_REACTORS
330
2A
102
}
102
{ACAD_XDICTIONARY
360
B8
102
}
330
2A
100
AcDbVisualStyle
  2
ColorChange
 70
    16
 71
     2
 72
     2
 73
     3
 90
        0
 40
-0.6
 41
-30.0
 62
     5
 63
     8
 74
     1
 91
        4
 64
     7
 65
   257
 75
     1
175
     1
 42
1.0
 92
        8
 66
     8
 43
1.0
 76
     1
 77
     6
 78
     2
 67
     7
 79
     5
170
     0
171
     0
290
     0
174
     0
 93
        1
 44
0.0
173
     0
291
     1
 45
0.0
1001
ACAD
1000
AcDbSavedByObjectVersion
1070
     0
  0
VISUALSTYLE
  5
34
102
{ACAD_REACTORS
330
2A
102
}
102
{ACAD_XDICTIONARY
360
AC
102
}
330
2A
100
AcDbVisualStyle
  2
Conceptual
 70
     9
 71
     3
 72
     2
 73
     0
 90
        0
 40
-0.6
 41
-30.0
 62
     5
 63
     7
 74
     2
 91
        2
 64
     7
 65
   257
 75
     1
175
     1
 42
40.0
 92
        8
 66
     7
 43
1.0
 76
     1
 77
     6
 78
     2
 67
     7
 79
     3
170
     0
171
     0
290
     0
174
     0
 93
        1
 44
0.0
173
     0
291
     0
 45
0.0
1001
ACAD
1000
AcDbSavedByObjectVersion
1070
     0
  0
VISUALSTYLE
  5
35
102
{ACAD_REACTORS
330
2A
102
}
102
{ACAD_XDICTIONARY
360
AE
102
}
330
2A
100
AcDbVisualStyle
  2
Dim
 70
    11
 71
     2
 72
     2
 73
     0
 90
        0
 40
-0.6
 41
-30.0
 62
     5
 63
     7
 74
     1
 91
        4
 64
     7
 65
   257
 75
     1
175
     1
 42
1.0
 92
        8
 66
     7
 43
1.0
 76
     1
 77
     6
 78
     2
 67
     7
 79
     5
170
     0
171
     0
290
     0
174
     0
 93
        1
 44
-50.0
173
     0
291
     1
 45
0.0
1001
ACAD
1000
AcDbSavedByObjectVersion
1070
     0
  0
VISUALSTYLE
  5
39
102
{ACAD_REACTORS
330
2A
102
}
102
{ACAD_XDICTIONARY
360
B6
102
}
330
2A
100
AcDbVisualStyle
  2
Facepattern
 70
    15
 71
     2
 72
     2
 73
     0
 90
        0
 40
-0.6
 41
-30.0
 62
     5
 63
     7
 74
     1
 91
        4
 64
     7
 65
   257
 75
     1
175
     1
 42
1.0
 92
        8
 66
     7
 43
1.0
 76
     1
 77
     6
 78
     2
 67
     7
 79
     5
170
     0
171
     0
290
     0
174
     0
 93
        1
 44
0.0
173
     0
291
     1
 45
0.0
1001
ACAD
1000
AcDbSavedByObjectVersion
1070
     0
  0
VISUALSTYLE
  5
2B
102
{ACAD_REACTORS
330
2A
102
}
102
{ACAD_XDICTIONARY
360
9A
102
}
330
2A
100
AcDbVisualStyle
  2
Flat
 70
     0
 71
     2
 72
     1
 73
     1
 90
        2
 40
-0.6
 41
30.0
 62
     5
 63
     7
 74
     0
 91
        4
 64
     7
 65
   257
 75
     1
175
     1
 42
1.0
 92
        8
 66
     7
 43
1.0
 76
     1
 77
     6
 78
     2
 67
     7
 79
     5
170
     0
171
     0
290
     0
174
     0
 93
       13
 44
0.0
173
     0
291
     1
 45
0.0
1001
ACAD
1000
AcDbSavedByObjectVersion
1070
     0
  0
VISUALSTYLE
  5
2C
102
{ACAD_REACTORS
330
2A
102
}
102
{ACAD_XDICTIONARY
360
9C
102
}
330
2A
100
AcDbVisualStyle
  2
FlatWithEdges
 70
     1
 71
     2
 72
     1
 73
     1
 90
        2
 40
-0.6
 41
30.0
 62
     5
 63
     7
 74
     1
 91
        4
 64
     7
 65
   257
 75
     1
175
     1
 42
1.0
 92
        0
 66
   257
 43
1.0
 76
     1
 77
     6
 78
     2
 67
     7
 79
     5
170
     0
171
     0
290
     0
174
     0
 93
       13
 44
0.0
173
     0
291
     1
 45
0.0
1001
ACAD
1000
AcDbSavedByObjectVersion
1070
     0
  0
VISUALSTYLE
  5
2D
102
{ACAD_REACTORS
330
2A
102
}
102
{ACAD_XDICTIONARY
360
9E
102
}
330
2A
100
AcDbVisualStyle
  2
Gouraud
 70
     2
 71
     2
 72
     2
 73
     1
 90
        2
 40
-0.6
 41
30.0
 62
     5
 63
     7
 74
     0
 91
        4
 64
     7
 65
   257
 75
     1
175
     1
 42
1.0
 92
        0
 66
     7
 43
1.0
 76
     1
 77
     6
 78
     2
 67
     7
 79
     5
170
     0
171
     0
290
     0
174
     0
 93
       13
 44
0.0
173
     0
291
     1
 45
0.0
1001
ACAD
1000
AcDbSavedByObjectVersion
1070
     0
  0
VISUALSTYLE
  5
2E
102
{ACAD_REACTORS
330
2A
102
}
102
{ACAD_XDICTIONARY
360
A0
102
}
330
2A
100
AcDbVisualStyle
  2
GouraudWithEdges
 70
     3
 71
     2
 72
     2
 73
     1
 90
        2
 40
-0.6
 41
30.0
 62
     5
 63
     7
 74
     1
 91
        4
 64
     7
 65
   257
 75
     1
175
     1
 42
1.0
 92
        0
 66
   257
 43
1.0
 76
     1
 77
     6
 78
     2
 67
     7
 79
     5
170
     0
171
     0
290
     0
174
     0
 93
       13
 44
0.0
173
     0
291
     1
 45
0.0
1001
ACAD
1000
AcDbSavedByObjectVersion
1070
     0
  0
VISUALSTYLE
  5
38
102
{ACAD_REACTORS
330
2A
102
}
102
{ACAD_XDICTIONARY
360
B4
102
}
330
2A
100
AcDbVisualStyle
  2
Linepattern
 70
    14
 71
     2
 72
     2
 73
     0
 90
        0
 40
-0.6
 41
-30.0
 62
     5
 63
     7
 74
     1
 91
        4
 64
     7
 65
   257
 75
     7
175
     7
 42
1.0
 92
        8
 66
     7
 43
1.0
 76
     1
 77
     6
 78
     2
 67
     7
 79
     5
170
     0
171
     0
290
     0
174
     0
 93
        1
 44
0.0
173
     0
291
     1
 45
0.0
1001
ACAD
1000
AcDbSavedByObjectVersion
1070
     0
  0
VISUALSTYLE
  5
33
102
{ACAD_REACTORS
330
2A
102
}
102
{ACAD_XDICTIONARY
360
AA
102
}
330
2A
100
AcDbVisualStyle
  2
Realistic
 70
     8
 71
     2
 72
     2
 73
     0
 90
        0
 40
-0.6
 41
-30.0
 62
     5
 63
     7
 74
     1
 91
        0
 64
     7
 65
   257
 75
     1
175
     1
 42
1.0
 92
        8
 66
     8
 43
1.0
 76
     1
 77
     6
 78
     2
 67
     7
 79
     5
170
     0
171
     0
290
     0
174
     0
 93
       13
 44
0.0
173
     0
291
     0
 45
0.0
1001
ACAD
1000
AcDbSavedByObjectVersion
1070
     0
  0
VISUALSTYLE
  5
37
102
{ACAD_REACTORS
330
2A
102
}
102
{ACAD_XDICTIONARY
360
B2
102
}
330
2A
100
AcDbVisualStyle
  2
Thicken
 70
    13
 71
     2
 72
     2
 73
     0
 90
        0
 40
-0.6
 41
-30.0
 62
     5
 63
     7
 74
     1
 91
        4
 64
     7
 65
   257
 75
     1
175
     1
 42
1.0
 92
       12
 66
     7
 43
1.0
 76
     1
 77
     6
 78
     2
 67
     7
 79
     5
170
     0
171
     0
290
     0
174
     0
 93
        1
 44
0.0
173
     0
291
     1
 45
0.0
1001
ACAD
1000
AcDbSavedByObjectVersion
1070
     0
  0
DICTIONARYVAR
  5
98
102
{ACAD_REACTORS
330
95
102
}
330
95
100
DictionaryVariables
280
     0
  1
2
  0
DICTIONARYVAR
  5
99
102
{ACAD_REACTORS
330
95
102
}
330
95
100
DictionaryVariables
280
     0
  1
1
  0
DICTIONARY
  5
BC
330
3D
100
AcDbDictionary
280
     1
281
     1
  3
ACAD_XREC_ROUNDTRIP
360
BD
  0
DICTIONARY
  5
BA
330
3C
100
AcDbDictionary
280
     1
281
     1
  3
ACAD_XREC_ROUNDTRIP
360
BB
  0
DICTIONARY
  5
BE
330
3E
100
AcDbDictionary
280
     1
281
     1
  3
ACAD_XREC_ROUNDTRIP
360
BF
  0
DICTIONARY
  5
A2
330
2F
100
AcDbDictionary
280
     1
281
     1
  3
ACAD_XREC_ROUNDTRIP
360
A3
  0
DICTIONARY
  5
A6
330
31
100
AcDbDictionary
280
     1
281
     1
  3
ACAD_XREC_ROUNDTRIP
360
A7
  0
DICTIONARY
  5
A4
330
30
100
AcDbDictionary
280
     1
281
     1
  3
ACAD_XREC_ROUNDTRIP
360
A5
  0
DICTIONARY
  5
A8
330
32
100
AcDbDictionary
280
     1
281
     1
  3
ACAD_XREC_ROUNDTRIP
360
A9
  0
DICTIONARY
  5
B0
330
36
100
AcDbDictionary
280
     1
281
     1
  3
ACAD_XREC_ROUNDTRIP
360
B1
  0
DICTIONARY
  5
B8
330
3A
100
AcDbDictionary
280
     1
281
     1
  3
ACAD_XREC_ROUNDTRIP
360
B9
  0
DICTIONARY
  5
AC
330
34
100
AcDbDictionary
280
     1
281
     1
  3
ACAD_XREC_ROUNDTRIP
360
AD
  0
DICTIONARY
  5
AE
330
35
100
AcDbDictionary
280
     1
281
     1
  3
ACAD_XREC_ROUNDTRIP
360
AF
  0
DICTIONARY
  5
B6
330
39
100
AcDbDictionary
280
     1
281
     1
  3
ACAD_XREC_ROUNDTRIP
360
B7
  0
DICTIONARY
  5
9A
330
2B
100
AcDbDictionary
280
     1
281
     1
  3
ACAD_XREC_ROUNDTRIP
360
9B
  0
DICTIONARY
  5
9C
330
2C
100
AcDbDictionary
280
     1
281
     1
  3
ACAD_XREC_ROUNDTRIP
360
9D
  0
DICTIONARY
  5
9E
330
2D
100
AcDbDictionary
280
     1
281
     1
  3
ACAD_XREC_ROUNDTRIP
360
9F
  0
DICTIONARY
  5
A0
330
2E
100
AcDbDictionary
280
     1
281
     1
  3
ACAD_XREC_ROUNDTRIP
360
A1
  0
DICTIONARY
  5
B4
330
38
100
AcDbDictionary
280
     1
281
     1
  3
ACAD_XREC_ROUNDTRIP
360
B5
  0
DICTIONARY
  5
AA
330
33
100
AcDbDictionary
280
     1
281
     1
  3
ACAD_XREC_ROUNDTRIP
360
AB
  0
DICTIONARY
  5
B2
330
37
100
AcDbDictionary
280
     1
281
     1
  3
ACAD_XREC_ROUNDTRIP
360
B3
  0
XRECORD
  5
BD
102
{ACAD_REACTORS
330
BC
102
}
330
BC
100
AcDbXrecord
280
     1
102
MATERIAL
148
0.0
149
0.0
149
0.0
 93
        0
 94
      127
282
     0
 72
     1
 77
     1
171
     1
175
     1
179
     1
273
     0
  0
XRECORD
  5
BB
102
{ACAD_REACTORS
330
BA
102
}
330
BA
100
AcDbXrecord
280
     1
102
MATERIAL
148
0.0
149
0.0
149
0.0
 93
        0
 94
      127
282
     0
 72
     1
 77
     1
171
     1
175
     1
179
     1
273
     0
  0
XRECORD
  5
BF
102
{ACAD_REACTORS
330
BE
102
}
330
BE
100
AcDbXrecord
280
     1
102
MATERIAL
148
0.0
149
0.0
149
0.0
 93
        0
 94
      127
282
     0
 72
     1
 77
     1
171
     1
175
     1
179
     1
273
     0
  0
XRECORD
  5
A3
102
{ACAD_REACTORS
330
A2
102
}
330
A2
100
AcDbXrecord
280
     1
102
RTVSPropertyOp0
 70
     1
102
RTVSPropertyOp1
 70
     1
102
RTVSPropertyOp2
 70
     1
102
RTVSPropertyOp3
 70
     1
102
RTVSPropertyOp4
 70
     1
102
RTVSPropertyOp5
 70
     1
102
RTVSPropertyOp6
 70
     1
102
RTVSPropertyOp7
 70
     1
102
RTVSPropertyOp8
 70
     1
102
RTVSPropertyOp9
 70
     1
102
RTVSPropertyOp10
 70
     1
102
RTVSPropertyOp11
 70
     1
102
RTVSPropertyOp12
 70
     1
102
RTVSPropertyOp13
 70
     1
102
RTVSPropertyOp14
 70
     1
102
RTVSPropertyOp15
 70
     1
102
RTVSPropertyOp16
 70
     1
102
RTVSPropertyOp17
 70
     1
102
RTVSPropertyOp18
 70
     1
102
RTVSPropertyOp19
 70
     1
102
RTVSPropertyOp20
 70
     1
102
RTVSPropertyOp21
 70
     1
102
RTVSPropertyOp22
 70
     1
102
RTVSPropertyOp23
 70
     1
102
RTVSPropertyOp24
 70
     1
102
RTVSPropertyOp25
 70
     1
102
RTVSPropertyOp26
 70
     1
102
RTVSPropertyOp27
 70
     1
  0
XRECORD
  5
A7
102
{ACAD_REACTORS
330
A6
102
}
330
A6
100
AcDbXrecord
280
     1
102
RTVSPropertyOp0
 70
     1
102
RTVSPropertyOp1
 70
     1
102
RTVSPropertyOp2
 70
     1
102
RTVSPropertyOp3
 70
     1
102
RTVSPropertyOp4
 70
     1
102
RTVSPropertyOp5
 70
     1
102
RTVSPropertyOp6
 70
     1
102
RTVSPropertyOp7
 70
     1
102
RTVSPropertyOp8
 70
     1
102
RTVSPropertyOp9
 70
     1
102
RTVSPropertyOp10
 70
     1
102
RTVSPropertyOp11
 70
     1
102
RTVSPropertyOp12
 70
     1
102
RTVSPropertyOp13
 70
     1
102
RTVSPropertyOp14
 70
     1
102
RTVSPropertyOp15
 70
     1
102
RTVSPropertyOp16
 70
     1
102
RTVSPropertyOp17
 70
     1
102
RTVSPropertyOp18
 70
     1
102
RTVSPropertyOp19
 70
     1
102
RTVSPropertyOp20
 70
     1
102
RTVSPropertyOp21
 70
     1
102
RTVSPropertyOp22
 70
     1
102
RTVSPropertyOp23
 70
     1
102
RTVSPropertyOp24
 70
     1
102
RTVSPropertyOp25
 70
     1
102
RTVSPropertyOp26
 70
     1
102
RTVSPropertyOp27
 70
     1
  0
XRECORD
  5
A5
102
{ACAD_REACTORS
330
A4
102
}
330
A4
100
AcDbXrecord
280
     1
102
RTVSPropertyOp0
 70
     1
102
RTVSPropertyOp1
 70
     1
102
RTVSPropertyOp2
 70
     1
102
RTVSPropertyOp3
 70
     1
102
RTVSPropertyOp4
 70
     1
102
RTVSPropertyOp5
 70
     1
102
RTVSPropertyOp6
 70
     1
102
RTVSPropertyOp7
 70
     1
102
RTVSPropertyOp8
 70
     1
102
RTVSPropertyOp9
 70
     1
102
RTVSPropertyOp10
 70
     1
102
RTVSPropertyOp11
 70
     1
102
RTVSPropertyOp12
 70
     1
102
RTVSPropertyOp13
 70
     1
102
RTVSPropertyOp14
 70
     1
102
RTVSPropertyOp15
 70
     1
102
RTVSPropertyOp16
 70
     1
102
RTVSPropertyOp17
 70
     1
102
RTVSPropertyOp18
 70
     1
102
RTVSPropertyOp19
 70
     1
102
RTVSPropertyOp20
 70
     1
102
RTVSPropertyOp21
 70
     1
102
RTVSPropertyOp22
 70
     1
102
RTVSPropertyOp23
 70
     1
102
RTVSPropertyOp24
 70
     1
102
RTVSPropertyOp25
 70
     1
102
RTVSPropertyOp26
 70
     1
102
RTVSPropertyOp27
 70
     1
  0
XRECORD
  5
A9
102
{ACAD_REACTORS
330
A8
102
}
330
A8
100
AcDbXrecord
280
     1
102
RTVSPropertyOp0
 70
     1
102
RTVSPropertyOp1
 70
     1
102
RTVSPropertyOp2
 70
     1
102
RTVSPropertyOp3
 70
     1
102
RTVSPropertyOp4
 70
     1
102
RTVSPropertyOp5
 70
     1
102
RTVSPropertyOp6
 70
     1
102
RTVSPropertyOp7
 70
     1
102
RTVSPropertyOp8
 70
     1
102
RTVSPropertyOp9
 70
     1
102
RTVSPropertyOp10
 70
     1
102
RTVSPropertyOp11
 70
     1
102
RTVSPropertyOp12
 70
     1
102
RTVSPropertyOp13
 70
     1
102
RTVSPropertyOp14
 70
     1
102
RTVSPropertyOp15
 70
     1
102
RTVSPropertyOp16
 70
     1
102
RTVSPropertyOp17
 70
     1
102
RTVSPropertyOp18
 70
     1
102
RTVSPropertyOp19
 70
     1
102
RTVSPropertyOp20
 70
     1
102
RTVSPropertyOp21
 70
     1
102
RTVSPropertyOp22
 70
     1
102
RTVSPropertyOp23
 70
     1
102
RTVSPropertyOp24
 70
     1
102
RTVSPropertyOp25
 70
     1
102
RTVSPropertyOp26
 70
     1
102
RTVSPropertyOp27
 70
     1
  0
XRECORD
  5
B1
102
{ACAD_REACTORS
330
B0
102
}
330
B0
100
AcDbXrecord
280
     1
102
RTVSPropertyOp0
 70
     1
102
RTVSPropertyOp1
 70
     1
102
RTVSPropertyOp2
 70
     1
102
RTVSPropertyOp3
 70
     1
102
RTVSPropertyOp4
 70
     1
102
RTVSPropertyOp5
 70
     1
102
RTVSPropertyOp6
 70
     1
102
RTVSPropertyOp7
 70
     1
102
RTVSPropertyOp8
 70
     1
102
RTVSPropertyOp9
 70
     1
102
RTVSPropertyOp10
 70
     1
102
RTVSPropertyOp11
 70
     1
102
RTVSPropertyOp12
 70
     1
102
RTVSPropertyOp13
 70
     1
102
RTVSPropertyOp14
 70
     1
102
RTVSPropertyOp15
 70
     1
102
RTVSPropertyOp16
 70
     1
102
RTVSPropertyOp17
 70
     1
102
RTVSPropertyOp18
 70
     1
102
RTVSPropertyOp19
 70
     1
102
RTVSPropertyOp20
 70
     1
102
RTVSPropertyOp21
 70
     1
102
RTVSPropertyOp22
 70
     1
102
RTVSPropertyOp23
 70
     1
102
RTVSPropertyOp24
 70
     1
102
RTVSPropertyOp25
 70
     1
102
RTVSPropertyOp26
 70
     1
102
RTVSPropertyOp27
 70
     1
  0
XRECORD
  5
B9
102
{ACAD_REACTORS
330
B8
102
}
330
B8
100
AcDbXrecord
280
     1
102
RTVSPropertyOp0
 70
     1
102
RTVSPropertyOp1
 70
     1
102
RTVSPropertyOp2
 70
     1
102
RTVSPropertyOp3
 70
     1
102
RTVSPropertyOp4
 70
     1
102
RTVSPropertyOp5
 70
     1
102
RTVSPropertyOp6
 70
     1
102
RTVSPropertyOp7
 70
     1
102
RTVSPropertyOp8
 70
     1
102
RTVSPropertyOp9
 70
     1
102
RTVSPropertyOp10
 70
     1
102
RTVSPropertyOp11
 70
     1
102
RTVSPropertyOp12
 70
     1
102
RTVSPropertyOp13
 70
     1
102
RTVSPropertyOp14
 70
     1
102
RTVSPropertyOp15
 70
     1
102
RTVSPropertyOp16
 70
     1
102
RTVSPropertyOp17
 70
     1
102
RTVSPropertyOp18
 70
     1
102
RTVSPropertyOp19
 70
     1
102
RTVSPropertyOp20
 70
     1
102
RTVSPropertyOp21
 70
     1
102
RTVSPropertyOp22
 70
     1
102
RTVSPropertyOp23
 70
     1
102
RTVSPropertyOp24
 70
     1
102
RTVSPropertyOp25
 70
     1
102
RTVSPropertyOp26
 70
     1
102
RTVSPropertyOp27
 70
     1
  0
XRECORD
  5
AD
102
{ACAD_REACTORS
330
AC
102
}
330
AC
100
AcDbXrecord
280
     1
102
RTVSPropertyOp0
 70
     1
102
RTVSPropertyOp1
 70
     1
102
RTVSPropertyOp2
 70
     1
102
RTVSPropertyOp3
 70
     1
102
RTVSPropertyOp4
 70
     1
102
RTVSPropertyOp5
 70
     1
102
RTVSPropertyOp6
 70
     1
102
RTVSPropertyOp7
 70
     1
102
RTVSPropertyOp8
 70
     1
102
RTVSPropertyOp9
 70
     1
102
RTVSPropertyOp10
 70
     1
102
RTVSPropertyOp11
 70
     1
102
RTVSPropertyOp12
 70
     1
102
RTVSPropertyOp13
 70
     1
102
RTVSPropertyOp14
 70
     1
102
RTVSPropertyOp15
 70
     1
102
RTVSPropertyOp16
 70
     1
102
RTVSPropertyOp17
 70
     1
102
RTVSPropertyOp18
 70
     1
102
RTVSPropertyOp19
 70
     1
102
RTVSPropertyOp20
 70
     1
102
RTVSPropertyOp21
 70
     1
102
RTVSPropertyOp22
 70
     1
102
RTVSPropertyOp23
 70
     1
102
RTVSPropertyOp24
 70
     1
102
RTVSPropertyOp25
 70
     1
102
RTVSPropertyOp26
 70
     1
102
RTVSPropertyOp27
 70
     1
  0
XRECORD
  5
AF
102
{ACAD_REACTORS
330
AE
102
}
330
AE
100
AcDbXrecord
280
     1
102
RTVSPropertyOp0
 70
     1
102
RTVSPropertyOp1
 70
     1
102
RTVSPropertyOp2
 70
     1
102
RTVSPropertyOp3
 70
     1
102
RTVSPropertyOp4
 70
     1
102
RTVSPropertyOp5
 70
     1
102
RTVSPropertyOp6
 70
     1
102
RTVSPropertyOp7
 70
     1
102
RTVSPropertyOp8
 70
     1
102
RTVSPropertyOp9
 70
     1
102
RTVSPropertyOp10
 70
     1
102
RTVSPropertyOp11
 70
     1
102
RTVSPropertyOp12
 70
     1
102
RTVSPropertyOp13
 70
     1
102
RTVSPropertyOp14
 70
     1
102
RTVSPropertyOp15
 70
     1
102
RTVSPropertyOp16
 70
     1
102
RTVSPropertyOp17
 70
     1
102
RTVSPropertyOp18
 70
     1
102
RTVSPropertyOp19
 70
     1
102
RTVSPropertyOp20
 70
     1
102
RTVSPropertyOp21
 70
     1
102
RTVSPropertyOp22
 70
     1
102
RTVSPropertyOp23
 70
     1
102
RTVSPropertyOp24
 70
     1
102
RTVSPropertyOp25
 70
     1
102
RTVSPropertyOp26
 70
     1
102
RTVSPropertyOp27
 70
     1
  0
XRECORD
  5
B7
102
{ACAD_REACTORS
330
B6
102
}
330
B6
100
AcDbXrecord
280
     1
102
RTVSPropertyOp0
 70
     1
102
RTVSPropertyOp1
 70
     1
102
RTVSPropertyOp2
 70
     1
102
RTVSPropertyOp3
 70
     1
102
RTVSPropertyOp4
 70
     1
102
RTVSPropertyOp5
 70
     1
102
RTVSPropertyOp6
 70
     1
102
RTVSPropertyOp7
 70
     1
102
RTVSPropertyOp8
 70
     1
102
RTVSPropertyOp9
 70
     1
102
RTVSPropertyOp10
 70
     1
102
RTVSPropertyOp11
 70
     1
102
RTVSPropertyOp12
 70
     1
102
RTVSPropertyOp13
 70
     1
102
RTVSPropertyOp14
 70
     1
102
RTVSPropertyOp15
 70
     1
102
RTVSPropertyOp16
 70
     1
102
RTVSPropertyOp17
 70
     1
102
RTVSPropertyOp18
 70
     1
102
RTVSPropertyOp19
 70
     1
102
RTVSPropertyOp20
 70
     1
102
RTVSPropertyOp21
 70
     1
102
RTVSPropertyOp22
 70
     1
102
RTVSPropertyOp23
 70
     1
102
RTVSPropertyOp24
 70
     1
102
RTVSPropertyOp25
 70
     1
102
RTVSPropertyOp26
 70
     1
102
RTVSPropertyOp27
 70
     1
  0
XRECORD
  5
9B
102
{ACAD_REACTORS
330
9A
102
}
330
9A
100
AcDbXrecord
280
     1
102
RTVSPropertyOp0
 70
     1
102
RTVSPropertyOp1
 70
     1
102
RTVSPropertyOp2
 70
     1
102
RTVSPropertyOp3
 70
     1
102
RTVSPropertyOp4
 70
     1
102
RTVSPropertyOp5
 70
     1
102
RTVSPropertyOp6
 70
     1
102
RTVSPropertyOp7
 70
     1
102
RTVSPropertyOp8
 70
     1
102
RTVSPropertyOp9
 70
     1
102
RTVSPropertyOp10
 70
     1
102
RTVSPropertyOp11
 70
     1
102
RTVSPropertyOp12
 70
     1
102
RTVSPropertyOp13
 70
     1
102
RTVSPropertyOp14
 70
     1
102
RTVSPropertyOp15
 70
     1
102
RTVSPropertyOp16
 70
     1
102
RTVSPropertyOp17
 70
     1
102
RTVSPropertyOp18
 70
     1
102
RTVSPropertyOp19
 70
     1
102
RTVSPropertyOp20
 70
     1
102
RTVSPropertyOp21
 70
     1
102
RTVSPropertyOp22
 70
     1
102
RTVSPropertyOp23
 70
     1
102
RTVSPropertyOp24
 70
     1
102
RTVSPropertyOp25
 70
     1
102
RTVSPropertyOp26
 70
     1
102
RTVSPropertyOp27
 70
     1
  0
XRECORD
  5
9D
102
{ACAD_REACTORS
330
9C
102
}
330
9C
100
AcDbXrecord
280
     1
102
RTVSPropertyOp0
 70
     1
102
RTVSPropertyOp1
 70
     1
102
RTVSPropertyOp2
 70
     1
102
RTVSPropertyOp3
 70
     1
102
RTVSPropertyOp4
 70
     1
102
RTVSPropertyOp5
 70
     1
102
RTVSPropertyOp6
 70
     1
102
RTVSPropertyOp7
 70
     1
102
RTVSPropertyOp8
 70
     1
102
RTVSPropertyOp9
 70
     1
102
RTVSPropertyOp10
 70
     1
102
RTVSPropertyOp11
 70
     1
102
RTVSPropertyOp12
 70
     1
102
RTVSPropertyOp13
 70
     1
102
RTVSPropertyOp14
 70
     1
102
RTVSPropertyOp15
 70
     1
102
RTVSPropertyOp16
 70
     1
102
RTVSPropertyOp17
 70
     1
102
RTVSPropertyOp18
 70
     1
102
RTVSPropertyOp19
 70
     1
102
RTVSPropertyOp20
 70
     1
102
RTVSPropertyOp21
 70
     1
102
RTVSPropertyOp22
 70
     1
102
RTVSPropertyOp23
 70
     1
102
RTVSPropertyOp24
 70
     1
102
RTVSPropertyOp25
 70
     1
102
RTVSPropertyOp26
 70
     1
102
RTVSPropertyOp27
 70
     1
  0
XRECORD
  5
9F
102
{ACAD_REACTORS
330
9E
102
}
330
9E
100
AcDbXrecord
280
     1
102
RTVSPropertyOp0
 70
     1
102
RTVSPropertyOp1
 70
     1
102
RTVSPropertyOp2
 70
     1
102
RTVSPropertyOp3
 70
     1
102
RTVSPropertyOp4
 70
     1
102
RTVSPropertyOp5
 70
     1
102
RTVSPropertyOp6
 70
     1
102
RTVSPropertyOp7
 70
     1
102
RTVSPropertyOp8
 70
     1
102
RTVSPropertyOp9
 70
     1
102
RTVSPropertyOp10
 70
     1
102
RTVSPropertyOp11
 70
     1
102
RTVSPropertyOp12
 70
     1
102
RTVSPropertyOp13
 70
     1
102
RTVSPropertyOp14
 70
     1
102
RTVSPropertyOp15
 70
     1
102
RTVSPropertyOp16
 70
     1
102
RTVSPropertyOp17
 70
     1
102
RTVSPropertyOp18
 70
     1
102
RTVSPropertyOp19
 70
     1
102
RTVSPropertyOp20
 70
     1
102
RTVSPropertyOp21
 70
     1
102
RTVSPropertyOp22
 70
     1
102
RTVSPropertyOp23
 70
     1
102
RTVSPropertyOp24
 70
     1
102
RTVSPropertyOp25
 70
     1
102
RTVSPropertyOp26
 70
     1
102
RTVSPropertyOp27
 70
     1
  0
XRECORD
  5
A1
102
{ACAD_REACTORS
330
A0
102
}
330
A0
100
AcDbXrecord
280
     1
102
RTVSPropertyOp0
 70
     1
102
RTVSPropertyOp1
 70
     1
102
RTVSPropertyOp2
 70
     1
102
RTVSPropertyOp3
 70
     1
102
RTVSPropertyOp4
 70
     1
102
RTVSPropertyOp5
 70
     1
102
RTVSPropertyOp6
 70
     1
102
RTVSPropertyOp7
 70
     1
102
RTVSPropertyOp8
 70
     1
102
RTVSPropertyOp9
 70
     1
102
RTVSPropertyOp10
 70
     1
102
RTVSPropertyOp11
 70
     1
102
RTVSPropertyOp12
 70
     1
102
RTVSPropertyOp13
 70
     1
102
RTVSPropertyOp14
 70
     1
102
RTVSPropertyOp15
 70
     1
102
RTVSPropertyOp16
 70
     1
102
RTVSPropertyOp17
 70
     1
102
RTVSPropertyOp18
 70
     1
102
RTVSPropertyOp19
 70
     1
102
RTVSPropertyOp20
 70
     1
102
RTVSPropertyOp21
 70
     1
102
RTVSPropertyOp22
 70
     1
102
RTVSPropertyOp23
 70
     1
102
RTVSPropertyOp24
 70
     1
102
RTVSPropertyOp25
 70
     1
102
RTVSPropertyOp26
 70
     1
102
RTVSPropertyOp27
 70
     1
  0
XRECORD
  5
B5
102
{ACAD_REACTORS
330
B4
102
}
330
B4
100
AcDbXrecord
280
     1
102
RTVSPropertyOp0
 70
     1
102
RTVSPropertyOp1
 70
     1
102
RTVSPropertyOp2
 70
     1
102
RTVSPropertyOp3
 70
     1
102
RTVSPropertyOp4
 70
     1
102
RTVSPropertyOp5
 70
     1
102
RTVSPropertyOp6
 70
     1
102
RTVSPropertyOp7
 70
     1
102
RTVSPropertyOp8
 70
     1
102
RTVSPropertyOp9
 70
     1
102
RTVSPropertyOp10
 70
     1
102
RTVSPropertyOp11
 70
     1
102
RTVSPropertyOp12
 70
     1
102
RTVSPropertyOp13
 70
     1
102
RTVSPropertyOp14
 70
     1
102
RTVSPropertyOp15
 70
     1
102
RTVSPropertyOp16
 70
     1
102
RTVSPropertyOp17
 70
     1
102
RTVSPropertyOp18
 70
     1
102
RTVSPropertyOp19
 70
     1
102
RTVSPropertyOp20
 70
     1
102
RTVSPropertyOp21
 70
     1
102
RTVSPropertyOp22
 70
     1
102
RTVSPropertyOp23
 70
     1
102
RTVSPropertyOp24
 70
     1
102
RTVSPropertyOp25
 70
     1
102
RTVSPropertyOp26
 70
     1
102
RTVSPropertyOp27
 70
     1
  0
XRECORD
  5
AB
102
{ACAD_REACTORS
330
AA
102
}
330
AA
100
AcDbXrecord
280
     1
102
RTVSPropertyOp0
 70
     1
102
RTVSPropertyOp1
 70
     1
102
RTVSPropertyOp2
 70
     1
102
RTVSPropertyOp3
 70
     1
102
RTVSPropertyOp4
 70
     1
102
RTVSPropertyOp5
 70
     1
102
RTVSPropertyOp6
 70
     1
102
RTVSPropertyOp7
 70
     1
102
RTVSPropertyOp8
 70
     1
102
RTVSPropertyOp9
 70
     1
102
RTVSPropertyOp10
 70
     1
102
RTVSPropertyOp11
 70
     1
102
RTVSPropertyOp12
 70
     1
102
RTVSPropertyOp13
 70
     1
102
RTVSPropertyOp14
 70
     1
102
RTVSPropertyOp15
 70
     1
102
RTVSPropertyOp16
 70
     1
102
RTVSPropertyOp17
 70
     1
102
RTVSPropertyOp18
 70
     1
102
RTVSPropertyOp19
 70
     1
102
RTVSPropertyOp20
 70
     1
102
RTVSPropertyOp21
 70
     1
102
RTVSPropertyOp22
 70
     1
102
RTVSPropertyOp23
 70
     1
102
RTVSPropertyOp24
 70
     1
102
RTVSPropertyOp25
 70
     1
102
RTVSPropertyOp26
 70
     1
102
RTVSPropertyOp27
 70
     1
  0
XRECORD
  5
B3
102
{ACAD_REACTORS
330
B2
102
}
330
B2
100
AcDbXrecord
280
     1
102
RTVSPropertyOp0
 70
     1
102
RTVSPropertyOp1
 70
     1
102
RTVSPropertyOp2
 70
     1
102
RTVSPropertyOp3
 70
     1
102
RTVSPropertyOp4
 70
     1
102
RTVSPropertyOp5
 70
     1
102
RTVSPropertyOp6
 70
     1
102
RTVSPropertyOp7
 70
     1
102
RTVSPropertyOp8
 70
     1
102
RTVSPropertyOp9
 70
     1
102
RTVSPropertyOp10
 70
     1
102
RTVSPropertyOp11
 70
     1
102
RTVSPropertyOp12
 70
     1
102
RTVSPropertyOp13
 70
     1
102
RTVSPropertyOp14
 70
     1
102
RTVSPropertyOp15
 70
     1
102
RTVSPropertyOp16
 70
     1
102
RTVSPropertyOp17
 70
     1
102
RTVSPropertyOp18
 70
     1
102
RTVSPropertyOp19
 70
     1
102
RTVSPropertyOp20
 70
     1
102
RTVSPropertyOp21
 70
     1
102
RTVSPropertyOp22
 70
     1
102
RTVSPropertyOp23
 70
     1
102
RTVSPropertyOp24
 70
     1
102
RTVSPropertyOp25
 70
     1
102
RTVSPropertyOp26
 70
     1
102
RTVSPropertyOp27
 70
     1
  0
ENDSEC
  0
EOF
