  0
SECTION
  2
HEADER
  9
$ACADVER
  1
AC1014
  9
$ACADMAINTVER
 70
     9
  9
$DWGCODEPAGE
  3
ANSI_1250
  9
$INSBASE
 10
0.0
 20
0.0
 30
0.0
  9
$EXTMIN
 10
-16.7501
 20
-31.8407
 30
0.0
  9
$EXTMAX
 10
16.75
 20
31.9284
 30
0.0
  9
$LIMMIN
 10
0.0
 20
0.0
  9
$LIMMAX
 10
12.0
 20
9.0
  9
$ORTHOMODE
 70
     0
  9
$REGENMODE
 70
     1
  9
$FILLMODE
 70
     1
  9
$QTEXTMODE
 70
     0
  9
$MIRRTEXT
 70
     1
  9
$DRAGMODE
 70
     2
  9
$LTSCALE
 40
1.0
  9
$OSMODE
 70
    37
  9
$ATTMODE
 70
     1
  9
$TEXTSIZE
 40
0.2
  9
$TRACEWID
 40
0.05
  9
$TEXTSTYLE
  7
STANDARD
  9
$CLAYER
  8
0
  9
$CELTYPE
  6
BYLAYER
  9
$CECOLOR
 62
   256
  9
$CELTSCALE
 40
1.0
  9
$DELOBJ
 70
     1
  9
$DISPSILH
 70
     0
  9
$DIMSCALE
 40
1.0
  9
$DIMASZ
 40
0.18
  9
$DIMEXO
 40
0.0625
  9
$DIMDLI
 40
0.38
  9
$DIMRND
 40
0.0
  9
$DIMDLE
 40
0.0
  9
$DIMEXE
 40
0.18
  9
$DIMTP
 40
0.0
  9
$DIMTM
 40
0.0
  9
$DIMTXT
 40
0.18
  9
$DIMCEN
 40
0.09
  9
$DIMTSZ
 40
0.0
  9
$DIMTOL
 70
     0
  9
$DIMLIM
 70
     0
  9
$DIMTIH
 70
     1
  9
$DIMTOH
 70
     1
  9
$DIMSE1
 70
     0
  9
$DIMSE2
 70
     0
  9
$DIMTAD
 70
     0
  9
$DIMZIN
 70
     0
  9
$DIMBLK
  1

  9
$DIMASO
 70
     1
  9
$DIMSHO
 70
     1
  9
$DIMPOST
  1

  9
$DIMAPOST
  1

  9
$DIMALT
 70
     0
  9
$DIMALTD
 70
     2
  9
$DIMALTF
 40
25.4
  9
$DIMLFAC
 40
1.0
  9
$DIMTOFL
 70
     0
  9
$DIMTVP
 40
0.0
  9
$DIMTIX
 70
     0
  9
$DIMSOXD
 70
     0
  9
$DIMSAH
 70
     0
  9
$DIMBLK1
  1

  9
$DIMBLK2
  1

  9
$DIMSTYLE
  2
STANDARD
  9
$DIMCLRD
 70
     0
  9
$DIMCLRE
 70
     0
  9
$DIMCLRT
 70
     0
  9
$DIMTFAC
 40
1.0
  9
$DIMGAP
 40
0.09
  9
$DIMJUST
 70
     0
  9
$DIMSD1
 70
     0
  9
$DIMSD2
 70
     0
  9
$DIMTOLJ
 70
     1
  9
$DIMTZIN
 70
     0
  9
$DIMALTZ
 70
     0
  9
$DIMALTTZ
 70
     0
  9
$DIMFIT
 70
     3
  9
$DIMUPT
 70
     0
  9
$DIMUNIT
 70
     2
  9
$DIMDEC
 70
     4
  9
$DIMTDEC
 70
     4
  9
$DIMALTU
 70
     2
  9
$DIMALTTD
 70
     2
  9
$DIMTXSTY
  7
STANDARD
  9
$DIMAUNIT
 70
     0
  9
$LUNITS
 70
     2
  9
$LUPREC
 70
     4
  9
$SKETCHINC
 40
0.1
  9
$FILLETRAD
 40
0.5
  9
$AUNITS
 70
     0
  9
$AUPREC
 70
     0
  9
$MENU
  1
.
  9
$ELEVATION
 40
0.0
  9
$PELEVATION
 40
0.0
  9
$THICKNESS
 40
0.0
  9
$LIMCHECK
 70
     0
  9
$CHAMFERA
 40
0.5
  9
$CHAMFERB
 40
0.5
  9
$CHAMFERC
 40
1.0
  9
$CHAMFERD
 40
0.0
  9
$SKPOLY
 70
     0
  9
$TDCREATE
 40
2456268.574932928
  9
$TDUPDATE
 40
2456268.57493294
  9
$TDINDWG
 40
0.0000000116
  9
$TDUSRTIMER
 40
0.0000000116
  9
$USRTIMER
 70
     1
  9
$ANGBASE
 50
0.0
  9
$ANGDIR
 70
     0
  9
$PDMODE
 70
     0
  9
$PDSIZE
 40
0.0
  9
$PLINEWID
 40
0.0
  9
$COORDS
 70
     1
  9
$SPLFRAME
 70
     0
  9
$SPLINETYPE
 70
     6
  9
$SPLINESEGS
 70
     8
  9
$ATTDIA
 70
     0
  9
$ATTREQ
 70
     1
  9
$HANDLING
 70
     1
  9
$HANDSEED
  5
2B2
  9
$SURFTAB1
 70
     6
  9
$SURFTAB2
 70
     6
  9
$SURFTYPE
 70
     6
  9
$SURFU
 70
     6
  9
$SURFV
 70
     6
  9
$UCSNAME
  2

  9
$UCSORG
 10
0.0
 20
0.0
 30
0.0
  9
$UCSXDIR
 10
1.0
 20
0.0
 30
0.0
  9
$UCSYDIR
 10
0.0
 20
1.0
 30
0.0
  9
$PUCSNAME
  2

  9
$PUCSORG
 10
0.0
 20
0.0
 30
0.0
  9
$PUCSXDIR
 10
1.0
 20
0.0
 30
0.0
  9
$PUCSYDIR
 10
0.0
 20
1.0
 30
0.0
  9
$USERI1
 70
     0
  9
$USERI2
 70
     0
  9
$USERI3
 70
     0
  9
$USERI4
 70
     0
  9
$USERI5
 70
     0
  9
$USERR1
 40
0.0
  9
$USERR2
 40
0.0
  9
$USERR3
 40
0.0
  9
$USERR4
 40
0.0
  9
$USERR5
 40
0.0
  9
$WORLDVIEW
 70
     1
  9
$SHADEDGE
 70
     3
  9
$SHADEDIF
 70
    70
  9
$TILEMODE
 70
     1
  9
$MAXACTVP
 70
    64
  9
$PINSBASE
 10
0.0
 20
0.0
 30
0.0
  9
$PLIMCHECK
 70
     0
  9
$PEXTMIN
 10
1.000000000000000E+20
 20
1.000000000000000E+20
 30
1.000000000000000E+20
  9
$PEXTMAX
 10
-1.000000000000000E+20
 20
-1.000000000000000E+20
 30
-1.000000000000000E+20
  9
$PLIMMIN
 10
0.0
 20
0.0
  9
$PLIMMAX
 10
12.0
 20
9.0
  9
$UNITMODE
 70
     0
  9
$VISRETAIN
 70
     1
  9
$PLINEGEN
 70
     0
  9
$PSLTSCALE
 70
     1
  9
$TREEDEPTH
 70
  3020
  9
$PICKSTYLE
 70
     1
  9
$CMLSTYLE
  2
STANDARD
  9
$CMLJUST
 70
     0
  9
$CMLSCALE
 40
1.0
  9
$PROXYGRAPHICS
 70
     1
  9
$MEASUREMENT
 70
     0
  0
ENDSEC
  0
SECTION
  2
CLASSES
  0
CLASS
  1
ACDBDICTIONARYWDFLT
  2
AcDbDictionaryWithDefault
  3
ObjectDBX Classes
 90
        0
280
     0
281
     0
  0
CLASS
  1
VISUALSTYLE
  2
AcDbVisualStyle
  3
ObjectDBX Classes
 90
     4095
280
     0
281
     0
  0
CLASS
  1
MATERIAL
  2
AcDbMaterial
  3
ObjectDBX Classes
 90
     1153
280
     0
281
     0
  0
CLASS
  1
DICTIONARYVAR
  2
AcDbDictionaryVar
  3
ObjectDBX Classes
 90
        0
280
     0
281
     0
  0
CLASS
  1
XRECORD
  2
AcDbXrecord
  3
AutoCAD 2000
 90
        0
280
     0
281
     0
  0
CLASS
  1
LWPOLYLINE
  2
AcDbPolyline
  3
AutoCAD 2000
 90
        0
280
     0
281
     1
  0
CLASS
  1
HATCH
  2
AcDbHatch
  3
AutoCAD 2000
 90
        0
280
     0
281
     1
  0
CLASS
  1
ACDBPLACEHOLDER
  2
AcDbPlaceHolder
  3
ObjectDBX Classes
 90
        0
280
     0
281
     0
  0
CLASS
  1
LAYOUT
  2
AcDbLayout
  3
ObjectDBX Classes
 90
        0
280
     0
281
     0
  0
ENDSEC
  0
SECTION
  2
TABLES
  0
TABLE
  2
VPORT
  5
8
330
0
100
AcDbSymbolTable
 70
     1
  0
VPORT
  5
29
330
8
100
AcDbSymbolTableRecord
100
AcDbViewportTableRecord
  2
*ACTIVE
 70
     0
 10
0.0
 20
0.0
 11
1.0
 21
1.0
 12
10.42990654205607
 22
4.5
 13
0.0
 23
0.0
 14
0.5
 24
0.5
 15
0.5
 25
0.5
 16
0.0
 26
0.0
 36
1.0
 17
0.0
 27
0.0
 37
0.0
 40
9.0
 41
1.972972972850329
 42
50.0
 43
0.0
 44
0.0
 50
0.0
 51
0.0
 71
     0
 72
   100
 73
     1
 74
     3
 75
     0
 76
     0
 77
     0
 78
     0
  0
ENDTAB
  0
TABLE
  2
LTYPE
  5
5
330
0
100
AcDbSymbolTable
 70
     4
  0
LTYPE
  5
14
330
5
100
AcDbSymbolTableRecord
100
AcDbLinetypeTableRecord
  2
BYBLOCK
 70
     0
  3

 72
    65
 73
     0
 40
0.0
  0
LTYPE
  5
15
330
5
100
AcDbSymbolTableRecord
100
AcDbLinetypeTableRecord
  2
BYLAYER
 70
     0
  3

 72
    65
 73
     0
 40
0.0
  0
LTYPE
  5
16
330
5
100
AcDbSymbolTableRecord
100
AcDbLinetypeTableRecord
  2
CONTINUOUS
 70
     0
  3
Solid line
 72
    65
 73
     0
 40
0.0
  0
LTYPE
  5
4F
330
5
100
AcDbSymbolTableRecord
100
AcDbLinetypeTableRecord
  2
NEW_LINE1
 70
     0
  3

 72
    65
 73
     4
 40
1.2
 49
0.5
 74
     4
 75
     0
340
0
 46
1.0
 50
0.0
 44
0.0
 45
0.0
 49
-0.3
 74
     4
 75
     0
340
0
 46
1.0
 50
0.0
 44
0.0
 45
0.0
 49
0.1
 74
     4
 75
     0
340
0
 46
1.0
 50
0.0
 44
0.0
 45
0.0
 49
-0.3
 74
     4
 75
     0
340
0
 46
1.0
 50
0.0
 44
0.0
 45
0.0
  0
LTYPE
  5
203
330
5
100
AcDbSymbolTableRecord
100
AcDbLinetypeTableRecord
  2
NEW_LINE2
 70
     0
  3

 72
    65
 73
     4
 40
1.2
 49
0.5
 74
     4
 75
     0
340
0
 46
1.0
 50
0.0
 44
0.0
 45
0.0
 49
-0.3
 74
     4
 75
     0
340
0
 46
1.0
 50
0.0
 44
0.0
 45
0.0
 49
0.1
 74
     4
 75
     0
340
0
 46
1.0
 50
0.0
 44
0.0
 45
0.0
 49
-0.3
 74
     4
 75
     0
340
0
 46
1.0
 50
0.0
 44
0.0
 45
0.0
  0
LTYPE
  5
205
330
5
100
AcDbSymbolTableRecord
100
AcDbLinetypeTableRecord
  2
NEW_LINE3
 70
     0
  3

 72
    65
 73
     4
 40
1.2
 49
0.5
 74
     4
 75
     0
340
0
 46
1.0
 50
0.0
 44
0.0
 45
0.0
 49
-0.3
 74
     4
 75
     0
340
0
 46
1.0
 50
0.0
 44
0.0
 45
0.0
 49
0.1
 74
     4
 75
     0
340
0
 46
1.0
 50
0.0
 44
0.0
 45
0.0
 49
-0.3
 74
     4
 75
     0
340
0
 46
1.0
 50
0.0
 44
0.0
 45
0.0
  0
ENDTAB
  0
TABLE
  2
LAYER
  5
2
330
0
100
AcDbSymbolTable
 70
     2
  0
LAYER
  5
10
330
2
100
AcDbSymbolTableRecord
100
AcDbLayerTableRecord
  2
0
 70
     0
 62
     7
  6
CONTINUOUS
  0
LAYER
  5
40
330
2
100
AcDbSymbolTableRecord
100
AcDbLayerTableRecord
  2
DEFAULT_1
 70
     0
 62
     7
  6
CONTINUOUS
  0
ENDTAB
  0
TABLE
  2
STYLE
  5
3
330
0
100
AcDbSymbolTable
 70
     1
  0
STYLE
  5
11
330
3
100
AcDbSymbolTableRecord
100
AcDbTextStyleTableRecord
  2
STANDARD
 70
     0
 40
0.0
 41
1.0
 50
0.0
 71
     0
 42
0.2
  3
txt
  4

  0
ENDTAB
  0
TABLE
  2
VIEW
  5
6
330
0
100
AcDbSymbolTable
 70
     0
  0
ENDTAB
  0
TABLE
  2
UCS
  5
7
330
0
100
AcDbSymbolTable
 70
     0
  0
ENDTAB
  0
TABLE
  2
APPID
  5
9
330
0
100
AcDbSymbolTable
 70
     2
  0
APPID
  5
12
330
9
100
AcDbSymbolTableRecord
100
AcDbRegAppTableRecord
  2
ACAD
 70
     0
  0
APPID
  5
3F
330
9
100
AcDbSymbolTableRecord
100
AcDbRegAppTableRecord
  2
ODA
 70
     0
  0
ENDTAB
  0
TABLE
  2
DIMSTYLE
  5
A
330
0
100
AcDbSymbolTable
 70
     1
  0
DIMSTYLE
105
27
330
A
100
AcDbSymbolTableRecord
100
AcDbDimStyleTableRecord
  2
STANDARD
 70
     0
  3

  4

  5

  6

  7

 40
1.0
 41
0.18
 42
0.0625
 43
0.38
 44
0.18
 45
0.0
 46
0.0
 47
0.0
 48
0.0
140
0.18
141
0.09
142
0.0
143
25.4
144
1.0
145
0.0
146
1.0
147
0.09
 71
     0
 72
     0
 73
     1
 74
     1
 75
     0
 76
     0
 77
     0
 78
     0
170
     0
171
     2
172
     0
173
     0
174
     0
175
     0
176
     0
177
     0
178
     0
270
     2
271
     4
272
     4
273
     2
274
     2
340
11
275
     0
280
     0
281
     0
282
     0
283
     1
284
     0
285
     0
286
     0
287
     3
288
     0
  0
ENDTAB
  0
TABLE
  2
BLOCK_RECORD
  5
1
330
0
100
AcDbSymbolTable
 70
     1
  0
BLOCK_RECORD
  5
1F
330
1
100
AcDbSymbolTableRecord
100
AcDbBlockTableRecord
  2
*MODEL_SPACE
  0
BLOCK_RECORD
  5
1B
330
1
100
AcDbSymbolTableRecord
100
AcDbBlockTableRecord
  2
*PAPER_SPACE
  0
ENDTAB
  0
ENDSEC
  0
SECTION
  2
BLOCKS
  0
BLOCK
  5
20
330
1F
100
AcDbEntity
  8
0
100
AcDbBlockBegin
  2
*MODEL_SPACE
 70
     0
 10
0.0
 20
0.0
 30
0.0
  3
*MODEL_SPACE
  1

  0
ENDBLK
  5
21
330
1F
100
AcDbEntity
  8
0
100
AcDbBlockEnd
  0
BLOCK
  5
1C
330
1B
100
AcDbEntity
 67
     1
  8
0
100
AcDbBlockBegin
  2
*PAPER_SPACE
 70
     0
 10
0.0
 20
0.0
 30
0.0
  3
*PAPER_SPACE
  1

  0
ENDBLK
  5
1D
330
1B
100
AcDbEntity
 67
     1
  8
0
100
AcDbBlockEnd
  0
ENDSEC
  0
SECTION
  2
ENTITIES
  0
SPLINE
  5
41
330
1F
100
AcDbEntity
  8
DEFAULT_1
 62
   250
100
AcDbSpline
210
0.0
220
0.0
230
1.0
 70
    27
 71
     3
 72
    12
 73
     8
 74
     0
 42
0.0000000001
 43
0.0000000001
 40
0.0
 40
0.0
 40
0.0
 40
0.0
 40
0.3333333333333333
 40
0.3333333333333333
 40
0.3333333333333333
 40
0.3333333333333333
 40
1.0
 40
1.0
 40
1.0
 40
1.0
 10
-9.7869
 20
-14.7651
 30
0.0
 10
-9.7869
 20
-14.7651
 30
0.0
 10
-9.7869
 20
-10.0769
 30
0.0
 10
-9.7869
 20
-10.0769
 30
0.0
 10
-9.7869
 20
-10.0769
 30
0.0
 10
-9.7869
 20
-10.0769
 30
0.0
 10
-9.7869
 20
-14.7651
 30
0.0
 10
-9.7869
 20
-14.7651
 30
0.0
  0
SPLINE
  5
42
330
1F
100
AcDbEntity
  8
DEFAULT_1
 62
   250
100
AcDbSpline
210
0.0
220
0.0
230
1.0
 70
    24
 71
     3
 72
     8
 73
     4
 74
     0
 42
0.0000000001
 43
0.0000000001
 40
0.0
 40
0.0
 40
0.0
 40
0.0
 40
1.0
 40
1.0
 40
1.0
 40
1.0
 10
-10.8461
 20
-24.882
 30
0.0
 10
-10.8461
 20
-24.882
 30
0.0
 10
-14.884
 20
-24.882
 30
0.0
 10
-14.884
 20
-24.882
 30
0.0
  0
SPLINE
  5
43
330
1F
100
AcDbEntity
  8
DEFAULT_1
 62
   250
100
AcDbSpline
210
0.0
220
0.0
230
1.0
 70
    24
 71
     3
 72
     8
 73
     4
 74
     0
 42
0.0000000001
 43
0.0000000001
 40
0.0
 40
0.0
 40
0.0
 40
0.0
 40
1.0
 40
1.0
 40
1.0
 40
1.0
 10
-10.6514
 20
1.096
 30
0.0
 10
-10.6514
 20
1.096
 30
0.0
 10
-15.1981
 20
1.096
 30
0.0
 10
-15.1981
 20
1.096
 30
0.0
  0
SPLINE
  5
44
330
1F
100
AcDbEntity
  8
DEFAULT_1
 62
   250
100
AcDbSpline
210
0.0
220
0.0
230
1.0
 70
    24
 71
     3
 72
     8
 73
     4
 74
     0
 42
0.0000000001
 43
0.0000000001
 40
0.0
 40
0.0
 40
0.0
 40
0.0
 40
1.0
 40
1.0
 40
1.0
 40
1.0
 10
-14.2405
 20
0.6819
 30
0.0
 10
-14.2405
 20
0.6819
 30
0.0
 10
-14.2405
 20
-24.5687
 30
0.0
 10
-14.2405
 20
-24.5687
 30
0.0
  0
SPLINE
  5
45
330
1F
100
AcDbEntity
  8
DEFAULT_1
 62
   250
100
AcDbSpline
210
0.0
220
0.0
230
1.0
 70
    24
 71
     3
 72
     8
 73
     4
 74
     0
 42
0.0000000001
 43
0.0000000001
 40
0.0
 40
0.0
 40
0.0
 40
0.0
 40
1.0
 40
1.0
 40
1.0
 40
1.0
 10
-10.3664
 20
-25.4369
 30
0.0
 10
-10.3664
 20
-25.4369
 30
0.0
 10
-10.3664
 20
-31.5265
 30
0.0
 10
-10.3664
 20
-31.5265
 30
0.0
  0
SPLINE
  5
46
330
1F
100
AcDbEntity
  8
DEFAULT_1
 62
   250
100
AcDbSpline
210
0.0
220
0.0
230
1.0
 70
    24
 71
     3
 72
     8
 73
     4
 74
     0
 42
0.0000000001
 43
0.0000000001
 40
0.0
 40
0.0
 40
0.0
 40
0.0
 40
1.0
 40
1.0
 40
1.0
 40
1.0
 10
15.8204
 20
-25.3874
 30
0.0
 10
15.8204
 20
-25.3874
 30
0.0
 10
15.8204
 20
-31.8407
 30
0.0
 10
15.8204
 20
-31.8407
 30
0.0
  0
SPLINE
  5
47
330
1F
100
AcDbEntity
  8
DEFAULT_1
 62
   250
100
AcDbSpline
210
0.0
220
0.0
230
1.0
 70
    24
 71
     3
 72
     8
 73
     4
 74
     0
 42
0.0000000001
 43
0.0000000001
 40
0.0
 40
0.0
 40
0.0
 40
0.0
 40
1.0
 40
1.0
 40
1.0
 40
1.0
 10
14.3606
 20
-30.809
 30
0.0
 10
14.3606
 20
-30.809
 30
0.0
 10
-9.9493
 20
-30.809
 30
0.0
 10
-9.9493
 20
-30.809
 30
0.0
  0
SPLINE
  5
48
330
1F
100
AcDbEntity
  8
DEFAULT_1
 62
   250
100
AcDbSpline
210
0.0
220
0.0
230
1.0
 70
    24
 71
     3
 72
     8
 73
     4
 74
     0
 42
0.0000000001
 43
0.0000000001
 40
0.0
 40
0.0
 40
0.0
 40
0.0
 40
1.0
 40
1.0
 40
1.0
 40
1.0
 10
-5.7564
 20
11.0996
 30
0.0
 10
-5.7564
 20
11.0996
 30
0.0
 10
-14.8681
 20
11.0996
 30
0.0
 10
-14.8681
 20
11.0996
 30
0.0
  0
SPLINE
  5
49
330
1F
100
AcDbEntity
  8
DEFAULT_1
 62
   250
100
AcDbSpline
210
0.0
220
0.0
230
1.0
 70
    24
 71
     3
 72
     8
 73
     4
 74
     0
 42
0.0000000001
 43
0.0000000001
 40
0.0
 40
0.0
 40
0.0
 40
0.0
 40
1.0
 40
1.0
 40
1.0
 40
1.0
 10
-14.2566
 20
31.5719
 30
0.0
 10
-14.2566
 20
31.5719
 30
0.0
 10
-14.2566
 20
11.3593
 30
0.0
 10
-14.2566
 20
11.3593
 30
0.0
  0
SPLINE
  5
4A
330
1F
100
AcDbEntity
  8
DEFAULT_1
 62
   250
100
AcDbSpline
210
0.0
220
0.0
230
1.0
 70
    24
 71
     3
 72
     8
 73
     4
 74
     0
 42
0.0000000001
 43
0.0000000001
 40
0.0
 40
0.0
 40
0.0
 40
0.0
 40
1.0
 40
1.0
 40
1.0
 40
1.0
 10
-5.6346
 20
4.943
 30
0.0
 10
-5.6346
 20
4.943
 30
0.0
 10
-5.6346
 20
11.2288
 30
0.0
 10
-5.6346
 20
11.2288
 30
0.0
  0
SPLINE
  5
4B
330
1F
100
AcDbEntity
  8
DEFAULT_1
 62
   250
100
AcDbSpline
210
0.0
220
0.0
230
1.0
 70
    24
 71
     3
 72
     8
 73
     4
 74
     0
 42
0.0000000001
 43
0.0000000001
 40
0.0
 40
0.0
 40
0.0
 40
0.0
 40
1.0
 40
1.0
 40
1.0
 40
1.0
 10
12.1968
 20
5.0096
 30
0.0
 10
12.1968
 20
5.0096
 30
0.0
 10
12.1968
 20
11.3538
 30
0.0
 10
12.1968
 20
11.3538
 30
0.0
  0
SPLINE
  5
4C
330
1F
100
AcDbEntity
  8
DEFAULT_1
 62
   250
100
AcDbSpline
210
0.0
220
0.0
230
1.0
 70
    24
 71
     3
 72
     8
 73
     4
 74
     0
 42
0.0000000001
 43
0.0000000001
 40
0.0
 40
0.0
 40
0.0
 40
0.0
 40
1.0
 40
1.0
 40
1.0
 40
1.0
 10
11.6398
 20
5.5216
 30
0.0
 10
11.6398
 20
5.5216
 30
0.0
 10
-4.9294
 20
5.5216
 30
0.0
 10
-4.9294
 20
5.5216
 30
0.0
  0
SPLINE
  5
4D
330
1F
100
AcDbEntity
  8
DEFAULT_1
 62
   250
100
AcDbSpline
210
0.0
220
0.0
230
1.0
 70
    24
 71
     3
 72
     8
 73
     4
 74
     0
 42
0.0000000001
 43
0.0000000001
 40
0.0
 40
0.0
 40
0.0
 40
0.0
 40
1.0
 40
1.0
 40
1.0
 40
1.0
 10
-9.9402
 20
31.8404
 30
0.0
 10
-9.9402
 20
31.8404
 30
0.0
 10
-15.1015
 20
31.8404
 30
0.0
 10
-15.1015
 20
31.8404
 30
0.0
  0
SPLINE
  5
4E
330
1F
100
AcDbEntity
  8
DEFAULT_1
  6
NEW_LINE1
 62
   250
100
AcDbSpline
210
0.0
220
0.0
230
1.0
 70
    24
 71
     3
 72
     8
 73
     4
 74
     0
 42
0.0000000001
 43
0.0000000001
 40
0.0
 40
0.0
 40
0.0
 40
0.0
 40
1.0
 40
1.0
 40
1.0
 40
1.0
 10
3.2325
 20
10.1407
 30
0.0
 10
3.2325
 20
10.1407
 30
0.0
 10
3.2325
 20
30.5091
 30
0.0
 10
3.2325
 20
30.5091
 30
0.0
  0
SPLINE
  5
50
330
1F
100
AcDbEntity
  8
DEFAULT_1
 62
   250
100
AcDbSpline
210
0.0
220
0.0
230
1.0
 70
    11
 71
     3
 72
    40
 73
    36
 74
     0
 42
0.0000000001
 43
0.0000000001
 40
0.0
 40
0.0
 40
0.0
 40
0.0
 40
0.1
 40
0.1
 40
0.1
 40
0.1
 40
0.2
 40
0.2
 40
0.2
 40
0.2
 40
0.3
 40
0.3
 40
0.3
 40
0.3
 40
0.4
 40
0.4
 40
0.4
 40
0.4
 40
0.5
 40
0.5
 40
0.5
 40
0.5
 40
0.6
 40
0.6
 40
0.6
 40
0.6
 40
0.7
 40
0.7
 40
0.7
 40
0.7
 40
0.8
 40
0.8
 40
0.8
 40
0.8
 40
1.0
 40
1.0
 40
1.0
 40
1.0
 10
1.642
 20
-30.4133
 30
0.0
 10
1.642
 20
-30.4133
 30
0.0
 10
1.3941
 20
-30.4133
 30
0.0
 10
1.3941
 20
-30.4133
 30
0.0
 10
1.3941
 20
-30.4133
 30
0.0
 10
1.3941
 20
-30.4133
 30
0.0
 10
1.3941
 20
-28.8329
 30
0.0
 10
1.3941
 20
-28.8329
 30
0.0
 10
1.3941
 20
-28.8329
 30
0.0
 10
1.3343
 20
-28.8898
 30
0.0
 10
1.2563
 20
-28.9467
 30
0.0
 10
1.1594
 20
-29.0036
 30
0.0
 10
1.1594
 20
-29.0036
 30
0.0
 10
1.062
 20
-29.0605
 30
0.0
 10
0.975
 20
-29.1033
 30
0.0
 10
0.8978
 20
-29.1316
 30
0.0
 10
0.8978
 20
-29.1316
 30
0.0
 10
0.8978
 20
-29.1316
 30
0.0
 10
0.8978
 20
-28.8921
 30
0.0
 10
0.8978
 20
-28.8921
 30
0.0
 10
0.8978
 20
-28.8921
 30
0.0
 10
1.0366
 20
-28.8268
 30
0.0
 10
1.158
 20
-28.7477
 30
0.0
 10
1.2619
 20
-28.6551
 30
0.0
 10
1.2619
 20
-28.6551
 30
0.0
 10
1.3654
 20
-28.5619
 30
0.0
 10
1.4392
 20
-28.4721
 30
0.0
 10
1.4825
 20
-28.3846
 30
0.0
 10
1.4825
 20
-28.3846
 30
0.0
 10
1.4825
 20
-28.3846
 30
0.0
 10
1.642
 20
-28.3846
 30
0.0
 10
1.642
 20
-28.3846
 30
0.0
 10
1.642
 20
-28.3846
 30
0.0
 10
1.642
 20
-28.3846
 30
0.0
 10
1.642
 20
-30.4133
 30
0.0
 10
1.642
 20
-30.4133
 30
0.0
  0
SPLINE
  5
51
330
1F
100
AcDbEntity
  8
DEFAULT_1
 62
   250
100
AcDbSpline
210
0.0
220
0.0
230
1.0
 70
    11
 71
     3
 72
    92
 73
    88
 74
     0
 42
0.0000000001
 43
0.0000000001
 40
0.0
 40
0.0
 40
0.0
 40
0.0
 40
0.0434782608695652
 40
0.0434782608695652
 40
0.0434782608695652
 40
0.0434782608695652
 40
0.0869565217391304
 40
0.0869565217391304
 40
0.0869565217391304
 40
0.0869565217391304
 40
0.1304347826086956
 40
0.1304347826086956
 40
0.1304347826086956
 40
0.1304347826086956
 40
0.1739130434782609
 40
0.1739130434782609
 40
0.1739130434782609
 40
0.1739130434782609
 40
0.2173913043478261
 40
0.2173913043478261
 40
0.2173913043478261
 40
0.2173913043478261
 40
0.2608695652173913
 40
0.2608695652173913
 40
0.2608695652173913
 40
0.2608695652173913
 40
0.3043478260869565
 40
0.3043478260869565
 40
0.3043478260869565
 40
0.3043478260869565
 40
0.3478260869565217
 40
0.3478260869565217
 40
0.3478260869565217
 40
0.3478260869565217
 40
0.391304347826087
 40
0.391304347826087
 40
0.391304347826087
 40
0.391304347826087
 40
0.4347826086956522
 40
0.4347826086956522
 40
0.4347826086956522
 40
0.4347826086956522
 40
0.4782608695652174
 40
0.4782608695652174
 40
0.4782608695652174
 40
0.4782608695652174
 40
0.5217391304347826
 40
0.5217391304347826
 40
0.5217391304347826
 40
0.5217391304347826
 40
0.5652173913043478
 40
0.5652173913043478
 40
0.5652173913043478
 40
0.5652173913043478
 40
0.6086956521739131
 40
0.6086956521739131
 40
0.6086956521739131
 40
0.6086956521739131
 40
0.6521739130434783
 40
0.6521739130434783
 40
0.6521739130434783
 40
0.6521739130434783
 40
0.6956521739130435
 40
0.6956521739130435
 40
0.6956521739130435
 40
0.6956521739130435
 40
0.7391304347826086
 40
0.7391304347826086
 40
0.7391304347826086
 40
0.7391304347826086
 40
0.782608695652174
 40
0.782608695652174
 40
0.782608695652174
 40
0.782608695652174
 40
0.8260869565217391
 40
0.8260869565217391
 40
0.8260869565217391
 40
0.8260869565217391
 40
0.8695652173913043
 40
0.8695652173913043
 40
0.8695652173913043
 40
0.8695652173913043
 40
0.9130434782608695
 40
0.9130434782608695
 40
0.9130434782608695
 40
0.9130434782608695
 40
1.0
 40
1.0
 40
1.0
 40
1.0
 10
2.2774
 20
-29.8841
 30
0.0
 10
2.2774
 20
-29.8841
 30
0.0
 10
2.538
 20
-29.862
 30
0.0
 10
2.538
 20
-29.862
 30
0.0
 10
2.538
 20
-29.862
 30
0.0
 10
2.5573
 20
-29.989
 30
0.0
 10
2.602
 20
-30.084
 30
0.0
 10
2.6721
 20
-30.148
 30
0.0
 10
2.6721
 20
-30.148
 30
0.0
 10
2.7426
 20
-30.212
 30
0.0
 10
2.8273
 20
-30.244
 30
0.0
 10
2.9265
 20
-30.244
 30
0.0
 10
2.9265
 20
-30.244
 30
0.0
 10
3.046
 20
-30.244
 30
0.0
 10
3.1471
 20
-30.1988
 30
0.0
 10
3.2294
 20
-30.109
 30
0.0
 10
3.2294
 20
-30.109
 30
0.0
 10
3.3122
 20
-30.0187
 30
0.0
 10
3.3536
 20
-29.8992
 30
0.0
 10
3.3536
 20
-29.7506
 30
0.0
 10
3.3536
 20
-29.7506
 30
0.0
 10
3.3536
 20
-29.609
 30
0.0
 10
3.3141
 20
-29.4975
 30
0.0
 10
3.2346
 20
-29.4157
 30
0.0
 10
3.2346
 20
-29.4157
 30
0.0
 10
3.1551
 20
-29.3338
 30
0.0
 10
3.0512
 20
-29.2929
 30
0.0
 10
2.9223
 20
-29.2929
 30
0.0
 10
2.9223
 20
-29.2929
 30
0.0
 10
2.8423
 20
-29.2929
 30
0.0
 10
2.7704
 20
-29.3112
 30
0.0
 10
2.7059
 20
-29.3474
 30
0.0
 10
2.7059
 20
-29.3474
 30
0.0
 10
2.6415
 20
-29.3837
 30
0.0
 10
2.5912
 20
-29.4307
 30
0.0
 10
2.5545
 20
-29.4886
 30
0.0
 10
2.5545
 20
-29.4886
 30
0.0
 10
2.5545
 20
-29.4886
 30
0.0
 10
2.3216
 20
-29.4585
 30
0.0
 10
2.3216
 20
-29.4585
 30
0.0
 10
2.3216
 20
-29.4585
 30
0.0
 10
2.3216
 20
-29.4585
 30
0.0
 10
2.5173
 20
-28.4208
 30
0.0
 10
2.5173
 20
-28.4208
 30
0.0
 10
2.5173
 20
-28.4208
 30
0.0
 10
2.5173
 20
-28.4208
 30
0.0
 10
3.522
 20
-28.4208
 30
0.0
 10
3.522
 20
-28.4208
 30
0.0
 10
3.522
 20
-28.4208
 30
0.0
 10
3.522
 20
-28.4208
 30
0.0
 10
3.522
 20
-28.6579
 30
0.0
 10
3.522
 20
-28.6579
 30
0.0
 10
3.522
 20
-28.6579
 30
0.0
 10
3.522
 20
-28.6579
 30
0.0
 10
2.7158
 20
-28.6579
 30
0.0
 10
2.7158
 20
-28.6579
 30
0.0
 10
2.7158
 20
-28.6579
 30
0.0
 10
2.7158
 20
-28.6579
 30
0.0
 10
2.6067
 20
-29.2007
 30
0.0
 10
2.6067
 20
-29.2007
 30
0.0
 10
2.6067
 20
-29.2007
 30
0.0
 10
2.728
 20
-29.116
 30
0.0
 10
2.8555
 20
-29.0737
 30
0.0
 10
2.9886
 20
-29.0737
 30
0.0
 10
2.9886
 20
-29.0737
 30
0.0
 10
3.165
 20
-29.0737
 30
0.0
 10
3.3136
 20
-29.1348
 30
0.0
 10
3.435
 20
-29.2571
 30
0.0
 10
3.435
 20
-29.2571
 30
0.0
 10
3.5563
 20
-29.3794
 30
0.0
 10
3.617
 20
-29.5365
 30
0.0
 10
3.617
 20
-29.7284
 30
0.0
 10
3.617
 20
-29.7284
 30
0.0
 10
3.617
 20
-29.9114
 30
0.0
 10
3.5634
 20
-30.0695
 30
0.0
 10
3.4571
 20
-30.2026
 30
0.0
 10
3.4571
 20
-30.2026
 30
0.0
 10
3.3273
 20
-30.3658
 30
0.0
 10
3.1504
 20
-30.4476
 30
0.0
 10
2.9265
 20
-30.4476
 30
0.0
 10
2.9265
 20
-30.4476
 30
0.0
 10
2.7426
 20
-30.4476
 30
0.0
 10
2.5926
 20
-30.3964
 30
0.0
 10
2.4764
 20
-30.2934
 30
0.0
 10
2.4764
 20
-30.2934
 30
0.0
 10
2.3602
 20
-30.1903
 30
0.0
 10
2.2939
 20
-30.0539
 30
0.0
 10
2.2774
 20
-29.8841
 30
0.0
  0
SPLINE
  5
52
330
1F
100
AcDbEntity
  8
DEFAULT_1
 62
   250
100
AcDbSpline
210
0.0
220
0.0
230
1.0
 70
    11
 71
     3
 72
    52
 73
    48
 74
     0
 42
0.0000000001
 43
0.0000000001
 40
0.0
 40
0.0
 40
0.0
 40
0.0
 40
0.0769230769230769
 40
0.0769230769230769
 40
0.0769230769230769
 40
0.0769230769230769
 40
0.1538461538461539
 40
0.1538461538461539
 40
0.1538461538461539
 40
0.1538461538461539
 40
0.2307692307692308
 40
0.2307692307692308
 40
0.2307692307692308
 40
0.2307692307692308
 40
0.3076923076923077
 40
0.3076923076923077
 40
0.3076923076923077
 40
0.3076923076923077
 40
0.3846153846153846
 40
0.3846153846153846
 40
0.3846153846153846
 40
0.3846153846153846
 40
0.4615384615384616
 40
0.4615384615384616
 40
0.4615384615384616
 40
0.4615384615384616
 40
0.5384615384615384
 40
0.5384615384615384
 40
0.5384615384615384
 40
0.5384615384615384
 40
0.6153846153846154
 40
0.6153846153846154
 40
0.6153846153846154
 40
0.6153846153846154
 40
0.6923076923076923
 40
0.6923076923076923
 40
0.6923076923076923
 40
0.6923076923076923
 40
0.7692307692307693
 40
0.7692307692307693
 40
0.7692307692307693
 40
0.7692307692307693
 40
0.8461538461538461
 40
0.8461538461538461
 40
0.8461538461538461
 40
0.8461538461538461
 40
1.0
 40
1.0
 40
1.0
 40
1.0
 10
3.847
 20
-29.4171
 30
0.0
 10
3.847
 20
-29.1781
 30
0.0
 10
3.8715
 20
-28.9857
 30
0.0
 10
3.9209
 20
-28.8404
 30
0.0
 10
3.9209
 20
-28.8404
 30
0.0
 10
3.9698
 20
-28.6946
 30
0.0
 10
4.0432
 20
-28.5822
 30
0.0
 10
4.1401
 20
-28.5031
 30
0.0
 10
4.1401
 20
-28.5031
 30
0.0
 10
4.237
 20
-28.4241
 30
0.0
 10
4.3588
 20
-28.3846
 30
0.0
 10
4.5055
 20
-28.3846
 30
0.0
 10
4.5055
 20
-28.3846
 30
0.0
 10
4.6142
 20
-28.3846
 30
0.0
 10
4.7092
 20
-28.4067
 30
0.0
 10
4.791
 20
-28.4505
 30
0.0
 10
4.791
 20
-28.4505
 30
0.0
 10
4.8729
 20
-28.4937
 30
0.0
 10
4.9402
 20
-28.5568
 30
0.0
 10
4.9938
 20
-28.6391
 30
0.0
 10
4.9938
 20
-28.6391
 30
0.0
 10
5.0469
 20
-28.7214
 30
0.0
 10
5.0888
 20
-28.8216
 30
0.0
 10
5.1189
 20
-28.9396
 30
0.0
 10
5.1189
 20
-28.9396
 30
0.0
 10
5.1495
 20
-29.0577
 30
0.0
 10
5.1645
 20
-29.2167
 30
0.0
 10
5.1645
 20
-29.4171
 30
0.0
 10
5.1645
 20
-29.4171
 30
0.0
 10
5.1645
 20
-29.6541
 30
0.0
 10
5.1401
 20
-29.8451
 30
0.0
 10
5.0916
 20
-29.9909
 30
0.0
 10
5.0916
 20
-29.9909
 30
0.0
 10
5.0427
 20
-30.1367
 30
0.0
 10
4.9698
 20
-30.2491
 30
0.0
 10
4.8729
 20
-30.3286
 30
0.0
 10
4.8729
 20
-30.3286
 30
0.0
 10
4.776
 20
-30.4081
 30
0.0
 10
4.6537
 20
-30.4476
 30
0.0
 10
4.5055
 20
-30.4476
 30
0.0
 10
4.5055
 20
-30.4476
 30
0.0
 10
4.3108
 20
-30.4476
 30
0.0
 10
4.1579
 20
-30.378
 30
0.0
 10
4.0469
 20
-30.2383
 30
0.0
 10
4.0469
 20
-30.2383
 30
0.0
 10
3.9138
 20
-30.0704
 30
0.0
 10
3.847
 20
-29.7962
 30
0.0
 10
3.847
 20
-29.4171
 30
0.0
  0
SPLINE
  5
53
330
1F
100
AcDbEntity
  8
DEFAULT_1
 62
   250
100
AcDbSpline
210
0.0
220
0.0
230
1.0
 70
    11
 71
     3
 72
    36
 73
    32
 74
     0
 42
0.0000000001
 43
0.0000000001
 40
0.0
 40
0.0
 40
0.0
 40
0.0
 40
0.1111111111111111
 40
0.1111111111111111
 40
0.1111111111111111
 40
0.1111111111111111
 40
0.2222222222222222
 40
0.2222222222222222
 40
0.2222222222222222
 40
0.2222222222222222
 40
0.3333333333333333
 40
0.3333333333333333
 40
0.3333333333333333
 40
0.3333333333333333
 40
0.4444444444444444
 40
0.4444444444444444
 40
0.4444444444444444
 40
0.4444444444444444
 40
0.5555555555555556
 40
0.5555555555555556
 40
0.5555555555555556
 40
0.5555555555555556
 40
0.6666666666666666
 40
0.6666666666666666
 40
0.6666666666666666
 40
0.6666666666666666
 40
0.7777777777777778
 40
0.7777777777777778
 40
0.7777777777777778
 40
0.7777777777777778
 40
1.0
 40
1.0
 40
1.0
 40
1.0
 10
4.102
 20
-29.4171
 30
0.0
 10
4.102
 20
-29.7487
 30
0.0
 10
4.141
 20
-29.9693
 30
0.0
 10
4.2186
 20
-30.0793
 30
0.0
 10
4.2186
 20
-30.0793
 30
0.0
 10
4.2962
 20
-30.1889
 30
0.0
 10
4.3917
 20
-30.244
 30
0.0
 10
4.5055
 20
-30.244
 30
0.0
 10
4.5055
 20
-30.244
 30
0.0
 10
4.6198
 20
-30.244
 30
0.0
 10
4.7153
 20
-30.1885
 30
0.0
 10
4.7929
 20
-30.0784
 30
0.0
 10
4.7929
 20
-30.0784
 30
0.0
 10
4.8705
 20
-29.9683
 30
0.0
 10
4.9096
 20
-29.7477
 30
0.0
 10
4.9096
 20
-29.4171
 30
0.0
 10
4.9096
 20
-29.4171
 30
0.0
 10
4.9096
 20
-29.0845
 30
0.0
 10
4.8705
 20
-28.8634
 30
0.0
 10
4.7929
 20
-28.7543
 30
0.0
 10
4.7929
 20
-28.7543
 30
0.0
 10
4.7153
 20
-28.6447
 30
0.0
 10
4.6189
 20
-28.5902
 30
0.0
 10
4.5032
 20
-28.5902
 30
0.0
 10
4.5032
 20
-28.5902
 30
0.0
 10
4.3889
 20
-28.5902
 30
0.0
 10
4.2981
 20
-28.6386
 30
0.0
 10
4.2299
 20
-28.735
 30
0.0
 10
4.2299
 20
-28.735
 30
0.0
 10
4.1448
 20
-28.8578
 30
0.0
 10
4.102
 20
-29.0855
 30
0.0
 10
4.102
 20
-29.4171
 30
0.0
  0
SPLINE
  5
54
330
1F
100
AcDbEntity
  8
DEFAULT_1
 62
   250
100
AcDbSpline
210
0.0
220
0.0
230
1.0
 70
    11
 71
     3
 72
    20
 73
    16
 74
     0
 42
0.0000000001
 43
0.0000000001
 40
0.0
 40
0.0
 40
0.0
 40
0.0
 40
0.2
 40
0.2
 40
0.2
 40
0.2
 40
0.4
 40
0.4
 40
0.4
 40
0.4
 40
0.6
 40
0.6
 40
0.6
 40
0.6
 40
1.0
 40
1.0
 40
1.0
 40
1.0
 10
13.2803
 20
-30.4047
 30
0.0
 10
13.2803
 20
-30.4047
 30
0.0
 10
15.7803
 20
-30.7576
 30
0.0
 10
15.7803
 20
-30.7576
 30
0.0
 10
15.7803
 20
-30.7576
 30
0.0
 10
15.7803
 20
-30.7576
 30
0.0
 10
15.7803
 20
-30.8359
 30
0.0
 10
15.7803
 20
-30.8359
 30
0.0
 10
15.7803
 20
-30.8359
 30
0.0
 10
15.7803
 20
-30.8359
 30
0.0
 10
13.2803
 20
-31.2122
 30
0.0
 10
13.2803
 20
-31.2122
 30
0.0
 10
13.2803
 20
-31.2122
 30
0.0
 10
13.2803
 20
-31.2122
 30
0.0
 10
13.2803
 20
-30.4047
 30
0.0
 10
13.2803
 20
-30.4047
 30
0.0
  0
SPLINE
  5
55
330
1F
100
AcDbEntity
  8
DEFAULT_1
 62
   250
100
AcDbSpline
210
0.0
220
0.0
230
1.0
 70
    11
 71
     3
 72
    20
 73
    16
 74
     0
 42
0.0000000001
 43
0.0000000001
 40
0.0
 40
0.0
 40
0.0
 40
0.0
 40
0.2
 40
0.2
 40
0.2
 40
0.2
 40
0.4
 40
0.4
 40
0.4
 40
0.4
 40
0.6
 40
0.6
 40
0.6
 40
0.6
 40
1.0
 40
1.0
 40
1.0
 40
1.0
 10
-7.7832
 20
-31.2177
 30
0.0
 10
-7.7832
 20
-31.2177
 30
0.0
 10
-10.2832
 20
-30.8648
 30
0.0
 10
-10.2832
 20
-30.8648
 30
0.0
 10
-10.2832
 20
-30.8648
 30
0.0
 10
-10.2832
 20
-30.8648
 30
0.0
 10
-10.2832
 20
-30.7865
 30
0.0
 10
-10.2832
 20
-30.7865
 30
0.0
 10
-10.2832
 20
-30.7865
 30
0.0
 10
-10.2832
 20
-30.7865
 30
0.0
 10
-7.7832
 20
-30.4102
 30
0.0
 10
-7.7832
 20
-30.4102
 30
0.0
 10
-7.7832
 20
-30.4102
 30
0.0
 10
-7.7832
 20
-30.4102
 30
0.0
 10
-7.7832
 20
-31.2177
 30
0.0
 10
-7.7832
 20
-31.2177
 30
0.0
  0
SPLINE
  5
56
330
1F
100
AcDbEntity
  8
DEFAULT_1
 62
   250
100
AcDbSpline
210
0.0
220
0.0
230
1.0
 70
    11
 71
     3
 72
    40
 73
    36
 74
     0
 42
0.0000000001
 43
0.0000000001
 40
0.0
 40
0.0
 40
0.0
 40
0.0
 40
0.1
 40
0.1
 40
0.1
 40
0.1
 40
0.2
 40
0.2
 40
0.2
 40
0.2
 40
0.3
 40
0.3
 40
0.3
 40
0.3
 40
0.4
 40
0.4
 40
0.4
 40
0.4
 40
0.5
 40
0.5
 40
0.5
 40
0.5
 40
0.6
 40
0.6
 40
0.6
 40
0.6
 40
0.7
 40
0.7
 40
0.7
 40
0.7
 40
0.8
 40
0.8
 40
0.8
 40
0.8
 40
1.0
 40
1.0
 40
1.0
 40
1.0
 10
-14.7214
 20
-13.3269
 30
0.0
 10
-14.7214
 20
-13.3269
 30
0.0
 10
-14.7214
 20
-13.5748
 30
0.0
 10
-14.7214
 20
-13.5748
 30
0.0
 10
-14.7214
 20
-13.5748
 30
0.0
 10
-14.7214
 20
-13.5748
 30
0.0
 10
-16.3018
 20
-13.5748
 30
0.0
 10
-16.3018
 20
-13.5748
 30
0.0
 10
-16.3018
 20
-13.5748
 30
0.0
 10
-16.2449
 20
-13.6346
 30
0.0
 10
-16.188
 20
-13.7126
 30
0.0
 10
-16.1311
 20
-13.8095
 30
0.0
 10
-16.1311
 20
-13.8095
 30
0.0
 10
-16.0742
 20
-13.9069
 30
0.0
 10
-16.0314
 20
-13.9939
 30
0.0
 10
-16.0031
 20
-14.0711
 30
0.0
 10
-16.0031
 20
-14.0711
 30
0.0
 10
-16.0031
 20
-14.0711
 30
0.0
 10
-16.2426
 20
-14.0711
 30
0.0
 10
-16.2426
 20
-14.0711
 30
0.0
 10
-16.2426
 20
-14.0711
 30
0.0
 10
-16.3079
 20
-13.9323
 30
0.0
 10
-16.387
 20
-13.8109
 30
0.0
 10
-16.4796
 20
-13.707
 30
0.0
 10
-16.4796
 20
-13.707
 30
0.0
 10
-16.5728
 20
-13.6035
 30
0.0
 10
-16.6626
 20
-13.5297
 30
0.0
 10
-16.7501
 20
-13.4864
 30
0.0
 10
-16.7501
 20
-13.4864
 30
0.0
 10
-16.7501
 20
-13.4864
 30
0.0
 10
-16.7501
 20
-13.3269
 30
0.0
 10
-16.7501
 20
-13.3269
 30
0.0
 10
-16.7501
 20
-13.3269
 30
0.0
 10
-16.7501
 20
-13.3269
 30
0.0
 10
-14.7214
 20
-13.3269
 30
0.0
 10
-14.7214
 20
-13.3269
 30
0.0
  0
SPLINE
  5
57
330
1F
100
AcDbEntity
  8
DEFAULT_1
 62
   250
100
AcDbSpline
210
0.0
220
0.0
230
1.0
 70
    11
 71
     3
 72
    92
 73
    88
 74
     0
 42
0.0000000001
 43
0.0000000001
 40
0.0
 40
0.0
 40
0.0
 40
0.0
 40
0.0434782608695652
 40
0.0434782608695652
 40
0.0434782608695652
 40
0.0434782608695652
 40
0.0869565217391304
 40
0.0869565217391304
 40
0.0869565217391304
 40
0.0869565217391304
 40
0.1304347826086956
 40
0.1304347826086956
 40
0.1304347826086956
 40
0.1304347826086956
 40
0.1739130434782609
 40
0.1739130434782609
 40
0.1739130434782609
 40
0.1739130434782609
 40
0.2173913043478261
 40
0.2173913043478261
 40
0.2173913043478261
 40
0.2173913043478261
 40
0.2608695652173913
 40
0.2608695652173913
 40
0.2608695652173913
 40
0.2608695652173913
 40
0.3043478260869565
 40
0.3043478260869565
 40
0.3043478260869565
 40
0.3043478260869565
 40
0.3478260869565217
 40
0.3478260869565217
 40
0.3478260869565217
 40
0.3478260869565217
 40
0.391304347826087
 40
0.391304347826087
 40
0.391304347826087
 40
0.391304347826087
 40
0.4347826086956522
 40
0.4347826086956522
 40
0.4347826086956522
 40
0.4347826086956522
 40
0.4782608695652174
 40
0.4782608695652174
 40
0.4782608695652174
 40
0.4782608695652174
 40
0.5217391304347826
 40
0.5217391304347826
 40
0.5217391304347826
 40
0.5217391304347826
 40
0.5652173913043478
 40
0.5652173913043478
 40
0.5652173913043478
 40
0.5652173913043478
 40
0.6086956521739131
 40
0.6086956521739131
 40
0.6086956521739131
 40
0.6086956521739131
 40
0.6521739130434783
 40
0.6521739130434783
 40
0.6521739130434783
 40
0.6521739130434783
 40
0.6956521739130435
 40
0.6956521739130435
 40
0.6956521739130435
 40
0.6956521739130435
 40
0.7391304347826086
 40
0.7391304347826086
 40
0.7391304347826086
 40
0.7391304347826086
 40
0.782608695652174
 40
0.782608695652174
 40
0.782608695652174
 40
0.782608695652174
 40
0.8260869565217391
 40
0.8260869565217391
 40
0.8260869565217391
 40
0.8260869565217391
 40
0.8695652173913043
 40
0.8695652173913043
 40
0.8695652173913043
 40
0.8695652173913043
 40
0.9130434782608695
 40
0.9130434782608695
 40
0.9130434782608695
 40
0.9130434782608695
 40
1.0
 40
1.0
 40
1.0
 40
1.0
 10
-15.2506
 20
-12.6915
 30
0.0
 10
-15.2506
 20
-12.6915
 30
0.0
 10
-15.2727
 20
-12.4309
 30
0.0
 10
-15.2727
 20
-12.4309
 30
0.0
 10
-15.2727
 20
-12.4309
 30
0.0
 10
-15.1457
 20
-12.4116
 30
0.0
 10
-15.0507
 20
-12.3669
 30
0.0
 10
-14.9867
 20
-12.2968
 30
0.0
 10
-14.9867
 20
-12.2968
 30
0.0
 10
-14.9227
 20
-12.2263
 30
0.0
 10
-14.8907
 20
-12.1416
 30
0.0
 10
-14.8907
 20
-12.0424
 30
0.0
 10
-14.8907
 20
-12.0424
 30
0.0
 10
-14.8907
 20
-11.9229
 30
0.0
 10
-14.9359
 20
-11.8218
 30
0.0
 10
-15.0257
 20
-11.7395
 30
0.0
 10
-15.0257
 20
-11.7395
 30
0.0
 10
-15.116
 20
-11.6567
 30
0.0
 10
-15.2355
 20
-11.6153
 30
0.0
 10
-15.3841
 20
-11.6153
 30
0.0
 10
-15.3841
 20
-11.6153
 30
0.0
 10
-15.5257
 20
-11.6153
 30
0.0
 10
-15.6372
 20
-11.6548
 30
0.0
 10
-15.719
 20
-11.7343
 30
0.0
 10
-15.719
 20
-11.7343
 30
0.0
 10
-15.8009
 20
-11.8138
 30
0.0
 10
-15.8418
 20
-11.9177
 30
0.0
 10
-15.8418
 20
-12.0466
 30
0.0
 10
-15.8418
 20
-12.0466
 30
0.0
 10
-15.8418
 20
-12.1266
 30
0.0
 10
-15.8235
 20
-12.1985
 30
0.0
 10
-15.7873
 20
-12.263
 30
0.0
 10
-15.7873
 20
-12.263
 30
0.0
 10
-15.751
 20
-12.3274
 30
0.0
 10
-15.704
 20
-12.3777
 30
0.0
 10
-15.6461
 20
-12.4144
 30
0.0
 10
-15.6461
 20
-12.4144
 30
0.0
 10
-15.6461
 20
-12.4144
 30
0.0
 10
-15.6762
 20
-12.6473
 30
0.0
 10
-15.6762
 20
-12.6473
 30
0.0
 10
-15.6762
 20
-12.6473
 30
0.0
 10
-15.6762
 20
-12.6473
 30
0.0
 10
-16.7139
 20
-12.4516
 30
0.0
 10
-16.7139
 20
-12.4516
 30
0.0
 10
-16.7139
 20
-12.4516
 30
0.0
 10
-16.7139
 20
-12.4516
 30
0.0
 10
-16.7139
 20
-11.4469
 30
0.0
 10
-16.7139
 20
-11.4469
 30
0.0
 10
-16.7139
 20
-11.4469
 30
0.0
 10
-16.7139
 20
-11.4469
 30
0.0
 10
-16.4768
 20
-11.4469
 30
0.0
 10
-16.4768
 20
-11.4469
 30
0.0
 10
-16.4768
 20
-11.4469
 30
0.0
 10
-16.4768
 20
-11.4469
 30
0.0
 10
-16.4768
 20
-12.2531
 30
0.0
 10
-16.4768
 20
-12.2531
 30
0.0
 10
-16.4768
 20
-12.2531
 30
0.0
 10
-16.4768
 20
-12.2531
 30
0.0
 10
-15.934
 20
-12.3622
 30
0.0
 10
-15.934
 20
-12.3622
 30
0.0
 10
-15.934
 20
-12.3622
 30
0.0
 10
-16.0187
 20
-12.2409
 30
0.0
 10
-16.061
 20
-12.1134
 30
0.0
 10
-16.061
 20
-11.9803
 30
0.0
 10
-16.061
 20
-11.9803
 30
0.0
 10
-16.061
 20
-11.8039
 30
0.0
 10
-15.9999
 20
-11.6553
 30
0.0
 10
-15.8776
 20
-11.5339
 30
0.0
 10
-15.8776
 20
-11.5339
 30
0.0
 10
-15.7553
 20
-11.4126
 30
0.0
 10
-15.5982
 20
-11.3519
 30
0.0
 10
-15.4063
 20
-11.3519
 30
0.0
 10
-15.4063
 20
-11.3519
 30
0.0
 10
-15.2233
 20
-11.3519
 30
0.0
 10
-15.0652
 20
-11.4055
 30
0.0
 10
-14.9321
 20
-11.5118
 30
0.0
 10
-14.9321
 20
-11.5118
 30
0.0
 10
-14.7689
 20
-11.6416
 30
0.0
 10
-14.6871
 20
-11.8185
 30
0.0
 10
-14.6871
 20
-12.0424
 30
0.0
 10
-14.6871
 20
-12.0424
 30
0.0
 10
-14.6871
 20
-12.2263
 30
0.0
 10
-14.7383
 20
-12.3763
 30
0.0
 10
-14.8413
 20
-12.4925
 30
0.0
 10
-14.8413
 20
-12.4925
 30
0.0
 10
-14.9444
 20
-12.6087
 30
0.0
 10
-15.0808
 20
-12.675
 30
0.0
 10
-15.2506
 20
-12.6915
 30
0.0
  0
SPLINE
  5
58
330
1F
100
AcDbEntity
  8
DEFAULT_1
 62
   250
100
AcDbSpline
210
0.0
220
0.0
230
1.0
 70
    11
 71
     3
 72
    52
 73
    48
 74
     0
 42
0.0000000001
 43
0.0000000001
 40
0.0
 40
0.0
 40
0.0
 40
0.0
 40
0.0769230769230769
 40
0.0769230769230769
 40
0.0769230769230769
 40
0.0769230769230769
 40
0.1538461538461539
 40
0.1538461538461539
 40
0.1538461538461539
 40
0.1538461538461539
 40
0.2307692307692308
 40
0.2307692307692308
 40
0.2307692307692308
 40
0.2307692307692308
 40
0.3076923076923077
 40
0.3076923076923077
 40
0.3076923076923077
 40
0.3076923076923077
 40
0.3846153846153846
 40
0.3846153846153846
 40
0.3846153846153846
 40
0.3846153846153846
 40
0.4615384615384616
 40
0.4615384615384616
 40
0.4615384615384616
 40
0.4615384615384616
 40
0.5384615384615384
 40
0.5384615384615384
 40
0.5384615384615384
 40
0.5384615384615384
 40
0.6153846153846154
 40
0.6153846153846154
 40
0.6153846153846154
 40
0.6153846153846154
 40
0.6923076923076923
 40
0.6923076923076923
 40
0.6923076923076923
 40
0.6923076923076923
 40
0.7692307692307693
 40
0.7692307692307693
 40
0.7692307692307693
 40
0.7692307692307693
 40
0.8461538461538461
 40
0.8461538461538461
 40
0.8461538461538461
 40
0.8461538461538461
 40
1.0
 40
1.0
 40
1.0
 40
1.0
 10
-15.7176
 20
-11.1219
 30
0.0
 10
-15.9566
 20
-11.1219
 30
0.0
 10
-16.149
 20
-11.0974
 30
0.0
 10
-16.2943
 20
-11.048
 30
0.0
 10
-16.2943
 20
-11.048
 30
0.0
 10
-16.4401
 20
-10.9991
 30
0.0
 10
-16.5525
 20
-10.9257
 30
0.0
 10
-16.6316
 20
-10.8288
 30
0.0
 10
-16.6316
 20
-10.8288
 30
0.0
 10
-16.7106
 20
-10.7319
 30
0.0
 10
-16.7501
 20
-10.6101
 30
0.0
 10
-16.7501
 20
-10.4634
 30
0.0
 10
-16.7501
 20
-10.4634
 30
0.0
 10
-16.7501
 20
-10.3547
 30
0.0
 10
-16.728
 20
-10.2597
 30
0.0
 10
-16.6842
 20
-10.1779
 30
0.0
 10
-16.6842
 20
-10.1779
 30
0.0
 10
-16.641
 20
-10.096
 30
0.0
 10
-16.5779
 20
-10.0287
 30
0.0
 10
-16.4956
 20
-9.9751
 30
0.0
 10
-16.4956
 20
-9.9751
 30
0.0
 10
-16.4133
 20
-9.922
 30
0.0
 10
-16.3131
 20
-9.8801
 30
0.0
 10
-16.1951
 20
-9.85
 30
0.0
 10
-16.1951
 20
-9.85
 30
0.0
 10
-16.077
 20
-9.8194
 30
0.0
 10
-15.918
 20
-9.8044
 30
0.0
 10
-15.7176
 20
-9.8044
 30
0.0
 10
-15.7176
 20
-9.8044
 30
0.0
 10
-15.4806
 20
-9.8044
 30
0.0
 10
-15.2896
 20
-9.8288
 30
0.0
 10
-15.1438
 20
-9.8773
 30
0.0
 10
-15.1438
 20
-9.8773
 30
0.0
 10
-14.998
 20
-9.9262
 30
0.0
 10
-14.8856
 20
-9.9991
 30
0.0
 10
-14.8061
 20
-10.096
 30
0.0
 10
-14.8061
 20
-10.096
 30
0.0
 10
-14.7266
 20
-10.1929
 30
0.0
 10
-14.6871
 20
-10.3152
 30
0.0
 10
-14.6871
 20
-10.4634
 30
0.0
 10
-14.6871
 20
-10.4634
 30
0.0
 10
-14.6871
 20
-10.6581
 30
0.0
 10
-14.7567
 20
-10.811
 30
0.0
 10
-14.8964
 20
-10.922
 30
0.0
 10
-14.8964
 20
-10.922
 30
0.0
 10
-15.0643
 20
-11.0551
 30
0.0
 10
-15.3385
 20
-11.1219
 30
0.0
 10
-15.7176
 20
-11.1219
 30
0.0
  0
SPLINE
  5
59
330
1F
100
AcDbEntity
  8
DEFAULT_1
 62
   250
100
AcDbSpline
210
0.0
220
0.0
230
1.0
 70
    11
 71
     3
 72
    36
 73
    32
 74
     0
 42
0.0000000001
 43
0.0000000001
 40
0.0
 40
0.0
 40
0.0
 40
0.0
 40
0.1111111111111111
 40
0.1111111111111111
 40
0.1111111111111111
 40
0.1111111111111111
 40
0.2222222222222222
 40
0.2222222222222222
 40
0.2222222222222222
 40
0.2222222222222222
 40
0.3333333333333333
 40
0.3333333333333333
 40
0.3333333333333333
 40
0.3333333333333333
 40
0.4444444444444444
 40
0.4444444444444444
 40
0.4444444444444444
 40
0.4444444444444444
 40
0.5555555555555556
 40
0.5555555555555556
 40
0.5555555555555556
 40
0.5555555555555556
 40
0.6666666666666666
 40
0.6666666666666666
 40
0.6666666666666666
 40
0.6666666666666666
 40
0.7777777777777778
 40
0.7777777777777778
 40
0.7777777777777778
 40
0.7777777777777778
 40
1.0
 40
1.0
 40
1.0
 40
1.0
 10
-15.7176
 20
-10.8669
 30
0.0
 10
-15.386
 20
-10.8669
 30
0.0
 10
-15.1654
 20
-10.8279
 30
0.0
 10
-15.0554
 20
-10.7503
 30
0.0
 10
-15.0554
 20
-10.7503
 30
0.0
 10
-14.9458
 20
-10.6727
 30
0.0
 10
-14.8907
 20
-10.5772
 30
0.0
 10
-14.8907
 20
-10.4634
 30
0.0
 10
-14.8907
 20
-10.4634
 30
0.0
 10
-14.8907
 20
-10.3491
 30
0.0
 10
-14.9462
 20
-10.2536
 30
0.0
 10
-15.0563
 20
-10.176
 30
0.0
 10
-15.0563
 20
-10.176
 30
0.0
 10
-15.1664
 20
-10.0984
 30
0.0
 10
-15.387
 20
-10.0593
 30
0.0
 10
-15.7176
 20
-10.0593
 30
0.0
 10
-15.7176
 20
-10.0593
 30
0.0
 10
-16.0502
 20
-10.0593
 30
0.0
 10
-16.2713
 20
-10.0984
 30
0.0
 10
-16.3804
 20
-10.176
 30
0.0
 10
-16.3804
 20
-10.176
 30
0.0
 10
-16.49
 20
-10.2536
 30
0.0
 10
-16.5445
 20
-10.35
 30
0.0
 10
-16.5445
 20
-10.4657
 30
0.0
 10
-16.5445
 20
-10.4657
 30
0.0
 10
-16.5445
 20
-10.58
 30
0.0
 10
-16.4961
 20
-10.6708
 30
0.0
 10
-16.3997
 20
-10.739
 30
0.0
 10
-16.3997
 20
-10.739
 30
0.0
 10
-16.2769
 20
-10.8241
 30
0.0
 10
-16.0492
 20
-10.8669
 30
0.0
 10
-15.7176
 20
-10.8669
 30
0.0
  0
SPLINE
  5
5A
330
1F
100
AcDbEntity
  8
DEFAULT_1
 62
   250
100
AcDbSpline
210
0.0
220
0.0
230
1.0
 70
    11
 71
     3
 72
    20
 73
    16
 74
     0
 42
0.0000000001
 43
0.0000000001
 40
0.0
 40
0.0
 40
0.0
 40
0.0
 40
0.2
 40
0.2
 40
0.2
 40
0.2
 40
0.4
 40
0.4
 40
0.4
 40
0.4
 40
0.6
 40
0.6
 40
0.6
 40
0.6
 40
1.0
 40
1.0
 40
1.0
 40
1.0
 10
-14.6201
 20
-1.517
 30
0.0
 10
-14.6201
 20
-1.517
 30
0.0
 10
-14.2672
 20
0.983
 30
0.0
 10
-14.2672
 20
0.983
 30
0.0
 10
-14.2672
 20
0.983
 30
0.0
 10
-14.2672
 20
0.983
 30
0.0
 10
-14.1889
 20
0.983
 30
0.0
 10
-14.1889
 20
0.983
 30
0.0
 10
-14.1889
 20
0.983
 30
0.0
 10
-14.1889
 20
0.983
 30
0.0
 10
-13.8126
 20
-1.517
 30
0.0
 10
-13.8126
 20
-1.517
 30
0.0
 10
-13.8126
 20
-1.517
 30
0.0
 10
-13.8126
 20
-1.517
 30
0.0
 10
-14.6201
 20
-1.517
 30
0.0
 10
-14.6201
 20
-1.517
 30
0.0
  0
SPLINE
  5
5B
330
1F
100
AcDbEntity
  8
DEFAULT_1
 62
   250
100
AcDbSpline
210
0.0
220
0.0
230
1.0
 70
    11
 71
     3
 72
    20
 73
    16
 74
     0
 42
0.0000000001
 43
0.0000000001
 40
0.0
 40
0.0
 40
0.0
 40
0.0
 40
0.2
 40
0.2
 40
0.2
 40
0.2
 40
0.4
 40
0.4
 40
0.4
 40
0.4
 40
0.6
 40
0.6
 40
0.6
 40
0.6
 40
1.0
 40
1.0
 40
1.0
 40
1.0
 10
-13.8337
 20
-22.2332
 30
0.0
 10
-13.8337
 20
-22.2332
 30
0.0
 10
-14.1866
 20
-24.7332
 30
0.0
 10
-14.1866
 20
-24.7332
 30
0.0
 10
-14.1866
 20
-24.7332
 30
0.0
 10
-14.1866
 20
-24.7332
 30
0.0
 10
-14.2649
 20
-24.7332
 30
0.0
 10
-14.2649
 20
-24.7332
 30
0.0
 10
-14.2649
 20
-24.7332
 30
0.0
 10
-14.2649
 20
-24.7332
 30
0.0
 10
-14.6412
 20
-22.2332
 30
0.0
 10
-14.6412
 20
-22.2332
 30
0.0
 10
-14.6412
 20
-22.2332
 30
0.0
 10
-14.6412
 20
-22.2332
 30
0.0
 10
-13.8337
 20
-22.2332
 30
0.0
 10
-13.8337
 20
-22.2332
 30
0.0
  0
SPLINE
  5
5C
330
1F
100
AcDbEntity
  8
DEFAULT_1
 62
   250
100
AcDbSpline
210
0.0
220
0.0
230
1.0
 70
    11
 71
     3
 72
    40
 73
    36
 74
     0
 42
0.0000000001
 43
0.0000000001
 40
0.0
 40
0.0
 40
0.0
 40
0.0
 40
0.1
 40
0.1
 40
0.1
 40
0.1
 40
0.2
 40
0.2
 40
0.2
 40
0.2
 40
0.3
 40
0.3
 40
0.3
 40
0.3
 40
0.4
 40
0.4
 40
0.4
 40
0.4
 40
0.5
 40
0.5
 40
0.5
 40
0.5
 40
0.6
 40
0.6
 40
0.6
 40
0.6
 40
0.7
 40
0.7
 40
0.7
 40
0.7
 40
0.8
 40
0.8
 40
0.8
 40
0.8
 40
1.0
 40
1.0
 40
1.0
 40
1.0
 10
-14.7018
 20
20.7899
 30
0.0
 10
-14.7018
 20
20.7899
 30
0.0
 10
-14.7018
 20
20.542
 30
0.0
 10
-14.7018
 20
20.542
 30
0.0
 10
-14.7018
 20
20.542
 30
0.0
 10
-14.7018
 20
20.542
 30
0.0
 10
-16.2822
 20
20.542
 30
0.0
 10
-16.2822
 20
20.542
 30
0.0
 10
-16.2822
 20
20.542
 30
0.0
 10
-16.2253
 20
20.4822
 30
0.0
 10
-16.1684
 20
20.4042
 30
0.0
 10
-16.1115
 20
20.3073
 30
0.0
 10
-16.1115
 20
20.3073
 30
0.0
 10
-16.0546
 20
20.2099
 30
0.0
 10
-16.0118
 20
20.1229
 30
0.0
 10
-15.9835
 20
20.0457
 30
0.0
 10
-15.9835
 20
20.0457
 30
0.0
 10
-15.9835
 20
20.0457
 30
0.0
 10
-16.223
 20
20.0457
 30
0.0
 10
-16.223
 20
20.0457
 30
0.0
 10
-16.223
 20
20.0457
 30
0.0
 10
-16.2883
 20
20.1845
 30
0.0
 10
-16.3674
 20
20.3059
 30
0.0
 10
-16.46
 20
20.4098
 30
0.0
 10
-16.46
 20
20.4098
 30
0.0
 10
-16.5532
 20
20.5133
 30
0.0
 10
-16.643
 20
20.5871
 30
0.0
 10
-16.7305
 20
20.6304
 30
0.0
 10
-16.7305
 20
20.6304
 30
0.0
 10
-16.7305
 20
20.6304
 30
0.0
 10
-16.7305
 20
20.7899
 30
0.0
 10
-16.7305
 20
20.7899
 30
0.0
 10
-16.7305
 20
20.7899
 30
0.0
 10
-16.7305
 20
20.7899
 30
0.0
 10
-14.7018
 20
20.7899
 30
0.0
 10
-14.7018
 20
20.7899
 30
0.0
  0
SPLINE
  5
5D
330
1F
100
AcDbEntity
  8
DEFAULT_1
 62
   250
100
AcDbSpline
210
0.0
220
0.0
230
1.0
 70
    11
 71
     3
 72
    92
 73
    88
 74
     0
 42
0.0000000001
 43
0.0000000001
 40
0.0
 40
0.0
 40
0.0
 40
0.0
 40
0.0434782608695652
 40
0.0434782608695652
 40
0.0434782608695652
 40
0.0434782608695652
 40
0.0869565217391304
 40
0.0869565217391304
 40
0.0869565217391304
 40
0.0869565217391304
 40
0.1304347826086956
 40
0.1304347826086956
 40
0.1304347826086956
 40
0.1304347826086956
 40
0.1739130434782609
 40
0.1739130434782609
 40
0.1739130434782609
 40
0.1739130434782609
 40
0.2173913043478261
 40
0.2173913043478261
 40
0.2173913043478261
 40
0.2173913043478261
 40
0.2608695652173913
 40
0.2608695652173913
 40
0.2608695652173913
 40
0.2608695652173913
 40
0.3043478260869565
 40
0.3043478260869565
 40
0.3043478260869565
 40
0.3043478260869565
 40
0.3478260869565217
 40
0.3478260869565217
 40
0.3478260869565217
 40
0.3478260869565217
 40
0.391304347826087
 40
0.391304347826087
 40
0.391304347826087
 40
0.391304347826087
 40
0.4347826086956522
 40
0.4347826086956522
 40
0.4347826086956522
 40
0.4347826086956522
 40
0.4782608695652174
 40
0.4782608695652174
 40
0.4782608695652174
 40
0.4782608695652174
 40
0.5217391304347826
 40
0.5217391304347826
 40
0.5217391304347826
 40
0.5217391304347826
 40
0.5652173913043478
 40
0.5652173913043478
 40
0.5652173913043478
 40
0.5652173913043478
 40
0.6086956521739131
 40
0.6086956521739131
 40
0.6086956521739131
 40
0.6086956521739131
 40
0.6521739130434783
 40
0.6521739130434783
 40
0.6521739130434783
 40
0.6521739130434783
 40
0.6956521739130435
 40
0.6956521739130435
 40
0.6956521739130435
 40
0.6956521739130435
 40
0.7391304347826086
 40
0.7391304347826086
 40
0.7391304347826086
 40
0.7391304347826086
 40
0.782608695652174
 40
0.782608695652174
 40
0.782608695652174
 40
0.782608695652174
 40
0.8260869565217391
 40
0.8260869565217391
 40
0.8260869565217391
 40
0.8260869565217391
 40
0.8695652173913043
 40
0.8695652173913043
 40
0.8695652173913043
 40
0.8695652173913043
 40
0.9130434782608695
 40
0.9130434782608695
 40
0.9130434782608695
 40
0.9130434782608695
 40
1.0
 40
1.0
 40
1.0
 40
1.0
 10
-14.9403
 20
22.7292
 30
0.0
 10
-14.9403
 20
22.7292
 30
0.0
 10
-14.7018
 20
22.7292
 30
0.0
 10
-14.7018
 20
22.7292
 30
0.0
 10
-14.7018
 20
22.7292
 30
0.0
 10
-14.7018
 20
22.7292
 30
0.0
 10
-14.7018
 20
21.3938
 30
0.0
 10
-14.7018
 20
21.3938
 30
0.0
 10
-14.7018
 20
21.3938
 30
0.0
 10
-14.7615
 20
21.3919
 30
0.0
 10
-14.8189
 20
21.4013
 30
0.0
 10
-14.874
 20
21.4225
 30
0.0
 10
-14.874
 20
21.4225
 30
0.0
 10
-14.9652
 20
21.4564
 30
0.0
 10
-15.0546
 20
21.5109
 30
0.0
 10
-15.143
 20
21.5857
 30
0.0
 10
-15.143
 20
21.5857
 30
0.0
 10
-15.231
 20
21.661
 30
0.0
 10
-15.333
 20
21.7692
 30
0.0
 10
-15.4487
 20
21.9103
 30
0.0
 10
-15.4487
 20
21.9103
 30
0.0
 10
-15.6289
 20
22.1299
 30
0.0
 10
-15.7714
 20
22.2786
 30
0.0
 10
-15.8768
 20
22.3557
 30
0.0
 10
-15.8768
 20
22.3557
 30
0.0
 10
-15.9817
 20
22.4328
 30
0.0
 10
-16.0814
 20
22.4714
 30
0.0
 10
-16.175
 20
22.4714
 30
0.0
 10
-16.175
 20
22.4714
 30
0.0
 10
-16.2733
 20
22.4714
 30
0.0
 10
-16.3561
 20
22.4361
 30
0.0
 10
-16.4238
 20
22.3661
 30
0.0
 10
-16.4238
 20
22.3661
 30
0.0
 10
-16.4911
 20
22.2955
 30
0.0
 10
-16.5249
 20
22.2038
 30
0.0
 10
-16.5249
 20
22.0909
 30
0.0
 10
-16.5249
 20
22.0909
 30
0.0
 10
-16.5249
 20
21.9714
 30
0.0
 10
-16.4892
 20
21.8759
 30
0.0
 10
-16.4172
 20
21.8044
 30
0.0
 10
-16.4172
 20
21.8044
 30
0.0
 10
-16.3457
 20
21.7325
 30
0.0
 10
-16.2465
 20
21.6963
 30
0.0
 10
-16.12
 20
21.6953
 30
0.0
 10
-16.12
 20
21.6953
 30
0.0
 10
-16.12
 20
21.6953
 30
0.0
 10
-16.1458
 20
21.4404
 30
0.0
 10
-16.1458
 20
21.4404
 30
0.0
 10
-16.1458
 20
21.4404
 30
0.0
 10
-16.3363
 20
21.4578
 30
0.0
 10
-16.4812
 20
21.5236
 30
0.0
 10
-16.5809
 20
21.6375
 30
0.0
 10
-16.5809
 20
21.6375
 30
0.0
 10
-16.6806
 20
21.7513
 30
0.0
 10
-16.7305
 20
21.9046
 30
0.0
 10
-16.7305
 20
22.0965
 30
0.0
 10
-16.7305
 20
22.0965
 30
0.0
 10
-16.7305
 20
22.2903
 30
0.0
 10
-16.6764
 20
22.4437
 30
0.0
 10
-16.5692
 20
22.5566
 30
0.0
 10
-16.5692
 20
22.5566
 30
0.0
 10
-16.4614
 20
22.6699
 30
0.0
 10
-16.3283
 20
22.7264
 30
0.0
 10
-16.1693
 20
22.7264
 30
0.0
 10
-16.1693
 20
22.7264
 30
0.0
 10
-16.0884
 20
22.7264
 30
0.0
 10
-16.0089
 20
22.7099
 30
0.0
 10
-15.9309
 20
22.6765
 30
0.0
 10
-15.9309
 20
22.6765
 30
0.0
 10
-15.8528
 20
22.6436
 30
0.0
 10
-15.7705
 20
22.5885
 30
0.0
 10
-15.6844
 20
22.5119
 30
0.0
 10
-15.6844
 20
22.5119
 30
0.0
 10
-15.5978
 20
22.4352
 30
0.0
 10
-15.4793
 20
22.3077
 30
0.0
 10
-15.3288
 20
22.1295
 30
0.0
 10
-15.3288
 20
22.1295
 30
0.0
 10
-15.2037
 20
21.9808
 30
0.0
 10
-15.119
 20
21.8853
 30
0.0
 10
-15.0743
 20
21.843
 30
0.0
 10
-15.0743
 20
21.843
 30
0.0
 10
-15.0301
 20
21.8007
 30
0.0
 10
-14.9854
 20
21.7659
 30
0.0
 10
-14.9403
 20
21.7381
 30
0.0
 10
-14.9403
 20
21.7381
 30
0.0
 10
-14.9403
 20
21.7381
 30
0.0
 10
-14.9403
 20
22.7292
 30
0.0
 10
-14.9403
 20
22.7292
 30
0.0
  0
SPLINE
  5
5E
330
1F
100
AcDbEntity
  8
DEFAULT_1
 62
   250
100
AcDbSpline
210
0.0
220
0.0
230
1.0
 70
    11
 71
     3
 72
    92
 73
    88
 74
     0
 42
0.0000000001
 43
0.0000000001
 40
0.0
 40
0.0
 40
0.0
 40
0.0
 40
0.0434782608695652
 40
0.0434782608695652
 40
0.0434782608695652
 40
0.0434782608695652
 40
0.0869565217391304
 40
0.0869565217391304
 40
0.0869565217391304
 40
0.0869565217391304
 40
0.1304347826086956
 40
0.1304347826086956
 40
0.1304347826086956
 40
0.1304347826086956
 40
0.1739130434782609
 40
0.1739130434782609
 40
0.1739130434782609
 40
0.1739130434782609
 40
0.2173913043478261
 40
0.2173913043478261
 40
0.2173913043478261
 40
0.2173913043478261
 40
0.2608695652173913
 40
0.2608695652173913
 40
0.2608695652173913
 40
0.2608695652173913
 40
0.3043478260869565
 40
0.3043478260869565
 40
0.3043478260869565
 40
0.3043478260869565
 40
0.3478260869565217
 40
0.3478260869565217
 40
0.3478260869565217
 40
0.3478260869565217
 40
0.391304347826087
 40
0.391304347826087
 40
0.391304347826087
 40
0.391304347826087
 40
0.4347826086956522
 40
0.4347826086956522
 40
0.4347826086956522
 40
0.4347826086956522
 40
0.4782608695652174
 40
0.4782608695652174
 40
0.4782608695652174
 40
0.4782608695652174
 40
0.5217391304347826
 40
0.5217391304347826
 40
0.5217391304347826
 40
0.5217391304347826
 40
0.5652173913043478
 40
0.5652173913043478
 40
0.5652173913043478
 40
0.5652173913043478
 40
0.6086956521739131
 40
0.6086956521739131
 40
0.6086956521739131
 40
0.6086956521739131
 40
0.6521739130434783
 40
0.6521739130434783
 40
0.6521739130434783
 40
0.6521739130434783
 40
0.6956521739130435
 40
0.6956521739130435
 40
0.6956521739130435
 40
0.6956521739130435
 40
0.7391304347826086
 40
0.7391304347826086
 40
0.7391304347826086
 40
0.7391304347826086
 40
0.782608695652174
 40
0.782608695652174
 40
0.782608695652174
 40
0.782608695652174
 40
0.8260869565217391
 40
0.8260869565217391
 40
0.8260869565217391
 40
0.8260869565217391
 40
0.8695652173913043
 40
0.8695652173913043
 40
0.8695652173913043
 40
0.8695652173913043
 40
0.9130434782608695
 40
0.9130434782608695
 40
0.9130434782608695
 40
0.9130434782608695
 40
1.0
 40
1.0
 40
1.0
 40
1.0
 10
-14.9403
 20
24.2988
 30
0.0
 10
-14.9403
 20
24.2988
 30
0.0
 10
-14.7018
 20
24.2988
 30
0.0
 10
-14.7018
 20
24.2988
 30
0.0
 10
-14.7018
 20
24.2988
 30
0.0
 10
-14.7018
 20
24.2988
 30
0.0
 10
-14.7018
 20
22.9634
 30
0.0
 10
-14.7018
 20
22.9634
 30
0.0
 10
-14.7018
 20
22.9634
 30
0.0
 10
-14.7615
 20
22.9615
 30
0.0
 10
-14.8189
 20
22.9709
 30
0.0
 10
-14.874
 20
22.9921
 30
0.0
 10
-14.874
 20
22.9921
 30
0.0
 10
-14.9652
 20
23.026
 30
0.0
 10
-15.0546
 20
23.0805
 30
0.0
 10
-15.143
 20
23.1553
 30
0.0
 10
-15.143
 20
23.1553
 30
0.0
 10
-15.231
 20
23.2306
 30
0.0
 10
-15.333
 20
23.3388
 30
0.0
 10
-15.4487
 20
23.4799
 30
0.0
 10
-15.4487
 20
23.4799
 30
0.0
 10
-15.6289
 20
23.6995
 30
0.0
 10
-15.7714
 20
23.8482
 30
0.0
 10
-15.8768
 20
23.9253
 30
0.0
 10
-15.8768
 20
23.9253
 30
0.0
 10
-15.9817
 20
24.0024
 30
0.0
 10
-16.0814
 20
24.041
 30
0.0
 10
-16.175
 20
24.041
 30
0.0
 10
-16.175
 20
24.041
 30
0.0
 10
-16.2733
 20
24.041
 30
0.0
 10
-16.3561
 20
24.0057
 30
0.0
 10
-16.4238
 20
23.9357
 30
0.0
 10
-16.4238
 20
23.9357
 30
0.0
 10
-16.4911
 20
23.8651
 30
0.0
 10
-16.5249
 20
23.7734
 30
0.0
 10
-16.5249
 20
23.6605
 30
0.0
 10
-16.5249
 20
23.6605
 30
0.0
 10
-16.5249
 20
23.541
 30
0.0
 10
-16.4892
 20
23.4455
 30
0.0
 10
-16.4172
 20
23.374
 30
0.0
 10
-16.4172
 20
23.374
 30
0.0
 10
-16.3457
 20
23.3021
 30
0.0
 10
-16.2465
 20
23.2659
 30
0.0
 10
-16.12
 20
23.2649
 30
0.0
 10
-16.12
 20
23.2649
 30
0.0
 10
-16.12
 20
23.2649
 30
0.0
 10
-16.1458
 20
23.01
 30
0.0
 10
-16.1458
 20
23.01
 30
0.0
 10
-16.1458
 20
23.01
 30
0.0
 10
-16.3363
 20
23.0274
 30
0.0
 10
-16.4812
 20
23.0932
 30
0.0
 10
-16.5809
 20
23.2071
 30
0.0
 10
-16.5809
 20
23.2071
 30
0.0
 10
-16.6806
 20
23.3209
 30
0.0
 10
-16.7305
 20
23.4742
 30
0.0
 10
-16.7305
 20
23.6661
 30
0.0
 10
-16.7305
 20
23.6661
 30
0.0
 10
-16.7305
 20
23.8599
 30
0.0
 10
-16.6764
 20
24.0133
 30
0.0
 10
-16.5692
 20
24.1262
 30
0.0
 10
-16.5692
 20
24.1262
 30
0.0
 10
-16.4614
 20
24.2395
 30
0.0
 10
-16.3283
 20
24.296
 30
0.0
 10
-16.1693
 20
24.296
 30
0.0
 10
-16.1693
 20
24.296
 30
0.0
 10
-16.0884
 20
24.296
 30
0.0
 10
-16.0089
 20
24.2795
 30
0.0
 10
-15.9309
 20
24.2461
 30
0.0
 10
-15.9309
 20
24.2461
 30
0.0
 10
-15.8528
 20
24.2132
 30
0.0
 10
-15.7705
 20
24.1581
 30
0.0
 10
-15.6844
 20
24.0815
 30
0.0
 10
-15.6844
 20
24.0815
 30
0.0
 10
-15.5978
 20
24.0048
 30
0.0
 10
-15.4793
 20
23.8773
 30
0.0
 10
-15.3288
 20
23.6991
 30
0.0
 10
-15.3288
 20
23.6991
 30
0.0
 10
-15.2037
 20
23.5504
 30
0.0
 10
-15.119
 20
23.4549
 30
0.0
 10
-15.0743
 20
23.4126
 30
0.0
 10
-15.0743
 20
23.4126
 30
0.0
 10
-15.0301
 20
23.3703
 30
0.0
 10
-14.9854
 20
23.3355
 30
0.0
 10
-14.9403
 20
23.3077
 30
0.0
 10
-14.9403
 20
23.3077
 30
0.0
 10
-14.9403
 20
23.3077
 30
0.0
 10
-14.9403
 20
24.2988
 30
0.0
 10
-14.9403
 20
24.2988
 30
0.0
  0
SPLINE
  5
5F
330
1F
100
AcDbEntity
  8
DEFAULT_1
 62
   250
100
AcDbSpline
210
0.0
220
0.0
230
1.0
 70
    11
 71
     3
 72
    20
 73
    16
 74
     0
 42
0.0000000001
 43
0.0000000001
 40
0.0
 40
0.0
 40
0.0
 40
0.0
 40
0.2
 40
0.2
 40
0.2
 40
0.2
 40
0.4
 40
0.4
 40
0.4
 40
0.4
 40
0.6
 40
0.6
 40
0.6
 40
0.6
 40
1.0
 40
1.0
 40
1.0
 40
1.0
 10
-14.6635
 20
29.2047
 30
0.0
 10
-14.6635
 20
29.2047
 30
0.0
 10
-14.3106
 20
31.7047
 30
0.0
 10
-14.3106
 20
31.7047
 30
0.0
 10
-14.3106
 20
31.7047
 30
0.0
 10
-14.3106
 20
31.7047
 30
0.0
 10
-14.2323
 20
31.7047
 30
0.0
 10
-14.2323
 20
31.7047
 30
0.0
 10
-14.2323
 20
31.7047
 30
0.0
 10
-14.2323
 20
31.7047
 30
0.0
 10
-13.856
 20
29.2047
 30
0.0
 10
-13.856
 20
29.2047
 30
0.0
 10
-13.856
 20
29.2047
 30
0.0
 10
-13.856
 20
29.2047
 30
0.0
 10
-14.6635
 20
29.2047
 30
0.0
 10
-14.6635
 20
29.2047
 30
0.0
  0
SPLINE
  5
60
330
1F
100
AcDbEntity
  8
DEFAULT_1
 62
   250
100
AcDbSpline
210
0.0
220
0.0
230
1.0
 70
    11
 71
     3
 72
    20
 73
    16
 74
     0
 42
0.0000000001
 43
0.0000000001
 40
0.0
 40
0.0
 40
0.0
 40
0.0
 40
0.2
 40
0.2
 40
0.2
 40
0.2
 40
0.4
 40
0.4
 40
0.4
 40
0.4
 40
0.6
 40
0.6
 40
0.6
 40
0.6
 40
1.0
 40
1.0
 40
1.0
 40
1.0
 10
-13.8504
 20
13.7406
 30
0.0
 10
-13.8504
 20
13.7406
 30
0.0
 10
-14.2033
 20
11.2406
 30
0.0
 10
-14.2033
 20
11.2406
 30
0.0
 10
-14.2033
 20
11.2406
 30
0.0
 10
-14.2033
 20
11.2406
 30
0.0
 10
-14.2816
 20
11.2406
 30
0.0
 10
-14.2816
 20
11.2406
 30
0.0
 10
-14.2816
 20
11.2406
 30
0.0
 10
-14.2816
 20
11.2406
 30
0.0
 10
-14.6579
 20
13.7406
 30
0.0
 10
-14.6579
 20
13.7406
 30
0.0
 10
-14.6579
 20
13.7406
 30
0.0
 10
-14.6579
 20
13.7406
 30
0.0
 10
-13.8504
 20
13.7406
 30
0.0
 10
-13.8504
 20
13.7406
 30
0.0
  0
SPLINE
  5
61
330
1F
100
AcDbEntity
  8
DEFAULT_1
 62
   250
100
AcDbSpline
210
0.0
220
0.0
230
1.0
 70
    11
 71
     3
 72
    84
 73
    80
 74
     0
 42
0.0000000001
 43
0.0000000001
 40
0.0
 40
0.0
 40
0.0
 40
0.0
 40
0.0476190476190476
 40
0.0476190476190476
 40
0.0476190476190476
 40
0.0476190476190476
 40
0.0952380952380952
 40
0.0952380952380952
 40
0.0952380952380952
 40
0.0952380952380952
 40
0.1428571428571428
 40
0.1428571428571428
 40
0.1428571428571428
 40
0.1428571428571428
 40
0.1904761904761905
 40
0.1904761904761905
 40
0.1904761904761905
 40
0.1904761904761905
 40
0.2380952380952381
 40
0.2380952380952381
 40
0.2380952380952381
 40
0.2380952380952381
 40
0.2857142857142857
 40
0.2857142857142857
 40
0.2857142857142857
 40
0.2857142857142857
 40
0.3333333333333333
 40
0.3333333333333333
 40
0.3333333333333333
 40
0.3333333333333333
 40
0.3809523809523809
 40
0.3809523809523809
 40
0.3809523809523809
 40
0.3809523809523809
 40
0.4285714285714285
 40
0.4285714285714285
 40
0.4285714285714285
 40
0.4285714285714285
 40
0.4761904761904762
 40
0.4761904761904762
 40
0.4761904761904762
 40
0.4761904761904762
 40
0.5238095238095238
 40
0.5238095238095238
 40
0.5238095238095238
 40
0.5238095238095238
 40
0.5714285714285714
 40
0.5714285714285714
 40
0.5714285714285714
 40
0.5714285714285714
 40
0.6190476190476191
 40
0.6190476190476191
 40
0.6190476190476191
 40
0.6190476190476191
 40
0.6666666666666666
 40
0.6666666666666666
 40
0.6666666666666666
 40
0.6666666666666666
 40
0.7142857142857143
 40
0.7142857142857143
 40
0.7142857142857143
 40
0.7142857142857143
 40
0.7619047619047619
 40
0.7619047619047619
 40
0.7619047619047619
 40
0.7619047619047619
 40
0.8095238095238095
 40
0.8095238095238095
 40
0.8095238095238095
 40
0.8095238095238095
 40
0.8571428571428571
 40
0.8571428571428571
 40
0.8571428571428571
 40
0.8571428571428571
 40
0.9047619047619048
 40
0.9047619047619048
 40
0.9047619047619048
 40
0.9047619047619048
 40
1.0
 40
1.0
 40
1.0
 40
1.0
 10
2.6733
 20
7.8107
 30
0.0
 10
2.6733
 20
7.8107
 30
0.0
 10
2.9047
 20
8.0698
 30
0.0
 10
2.9047
 20
8.0698
 30
0.0
 10
2.9047
 20
8.0698
 30
0.0
 10
2.9047
 20
8.0698
 30
0.0
 10
3.0411
 20
7.9541
 30
0.0
 10
3.0411
 20
7.9541
 30
0.0
 10
3.0411
 20
7.9541
 30
0.0
 10
3.0411
 20
7.9541
 30
0.0
 10
2.7989
 20
7.6813
 30
0.0
 10
2.7989
 20
7.6813
 30
0.0
 10
2.7989
 20
7.6813
 30
0.0
 10
2.8779
 20
7.5637
 30
0.0
 10
2.931
 20
7.4607
 30
0.0
 10
2.9588
 20
7.3728
 30
0.0
 10
2.9588
 20
7.3728
 30
0.0
 10
2.9955
 20
7.257
 30
0.0
 10
3.0138
 20
7.1272
 30
0.0
 10
3.0138
 20
6.9842
 30
0.0
 10
3.0138
 20
6.9842
 30
0.0
 10
3.0138
 20
6.7773
 30
0.0
 10
2.972
 20
6.5929
 30
0.0
 10
2.8882
 20
6.4316
 30
0.0
 10
2.8882
 20
6.4316
 30
0.0
 10
2.8045
 20
6.2697
 30
0.0
 10
2.6874
 20
6.1475
 30
0.0
 10
2.5364
 20
6.0647
 30
0.0
 10
2.5364
 20
6.0647
 30
0.0
 10
2.3849
 20
5.9824
 30
0.0
 10
2.2246
 20
5.941
 30
0.0
 10
2.0548
 20
5.941
 30
0.0
 10
2.0548
 20
5.941
 30
0.0
 10
1.9278
 20
5.941
 30
0.0
 10
1.813
 20
5.9588
 30
0.0
 10
1.71
 20
5.9946
 30
0.0
 10
1.71
 20
5.9946
 30
0.0
 10
1.631
 20
6.0223
 30
0.0
 10
1.5388
 20
6.075
 30
0.0
 10
1.4329
 20
6.1531
 30
0.0
 10
1.4329
 20
6.1531
 30
0.0
 10
1.4329
 20
6.1531
 30
0.0
 10
1.2015
 20
5.8939
 30
0.0
 10
1.2015
 20
5.8939
 30
0.0
 10
1.2015
 20
5.8939
 30
0.0
 10
1.2015
 20
5.8939
 30
0.0
 10
1.0651
 20
6.0096
 30
0.0
 10
1.0651
 20
6.0096
 30
0.0
 10
1.0651
 20
6.0096
 30
0.0
 10
1.0651
 20
6.0096
 30
0.0
 10
1.3078
 20
6.281
 30
0.0
 10
1.3078
 20
6.281
 30
0.0
 10
1.3078
 20
6.281
 30
0.0
 10
1.2175
 20
6.4179
 30
0.0
 10
1.1573
 20
6.535
 30
0.0
 10
1.1272
 20
6.6319
 30
0.0
 10
1.1272
 20
6.6319
 30
0.0
 10
1.0971
 20
6.7288
 30
0.0
 10
1.0816
 20
6.8455
 30
0.0
 10
1.0816
 20
6.9814
 30
0.0
 10
1.0816
 20
6.9814
 30
0.0
 10
1.0816
 20
7.1888
 30
0.0
 10
1.123
 20
7.3737
 30
0.0
 10
1.2057
 20
7.536
 30
0.0
 10
1.2057
 20
7.536
 30
0.0
 10
1.2885
 20
7.6983
 30
0.0
 10
1.4042
 20
7.821
 30
0.0
 10
1.5538
 20
7.9047
 30
0.0
 10
1.5538
 20
7.9047
 30
0.0
 10
1.7029
 20
7.988
 30
0.0
 10
1.869
 20
8.0299
 30
0.0
 10
2.0519
 20
8.0299
 30
0.0
 10
2.0519
 20
8.0299
 30
0.0
 10
2.1752
 20
8.0299
 30
0.0
 10
2.2829
 20
8.0139
 30
0.0
 10
2.3751
 20
7.9809
 30
0.0
 10
2.3751
 20
7.9809
 30
0.0
 10
2.4673
 20
7.9485
 30
0.0
 10
2.567
 20
7.8916
 30
0.0
 10
2.6733
 20
7.8107
 30
0.0
  0
SPLINE
  5
62
330
1F
100
AcDbEntity
  8
DEFAULT_1
 62
   250
100
AcDbSpline
210
0.0
220
0.0
230
1.0
 70
    11
 71
     3
 72
    32
 73
    28
 74
     0
 42
0.0000000001
 43
0.0000000001
 40
0.0
 40
0.0
 40
0.0
 40
0.0
 40
0.125
 40
0.125
 40
0.125
 40
0.125
 40
0.25
 40
0.25
 40
0.25
 40
0.25
 40
0.375
 40
0.375
 40
0.375
 40
0.375
 40
0.5
 40
0.5
 40
0.5
 40
0.5
 40
0.625
 40
0.625
 40
0.625
 40
0.625
 40
0.75
 40
0.75
 40
0.75
 40
0.75
 40
1.0
 40
1.0
 40
1.0
 40
1.0
 10
2.5082
 20
7.6249
 30
0.0
 10
2.4216
 20
7.6926
 30
0.0
 10
2.3459
 20
7.7392
 30
0.0
 10
2.2815
 20
7.7641
 30
0.0
 10
2.2815
 20
7.7641
 30
0.0
 10
2.2166
 20
7.7886
 30
0.0
 10
2.1404
 20
7.8013
 30
0.0
 10
2.0533
 20
7.8013
 30
0.0
 10
2.0533
 20
7.8013
 30
0.0
 10
1.852
 20
7.8013
 30
0.0
 10
1.686
 20
7.7331
 30
0.0
 10
1.5543
 20
7.5967
 30
0.0
 10
1.5543
 20
7.5967
 30
0.0
 10
1.423
 20
7.4602
 30
0.0
 10
1.3572
 20
7.2566
 30
0.0
 10
1.3572
 20
6.9852
 30
0.0
 10
1.3572
 20
6.9852
 30
0.0
 10
1.3572
 20
6.8789
 30
0.0
 10
1.3675
 20
6.7843
 30
0.0
 10
1.3878
 20
6.7015
 30
0.0
 10
1.3878
 20
6.7015
 30
0.0
 10
1.4024
 20
6.6399
 30
0.0
 10
1.4329
 20
6.5642
 30
0.0
 10
1.48
 20
6.4744
 30
0.0
 10
1.48
 20
6.4744
 30
0.0
 10
1.48
 20
6.4744
 30
0.0
 10
2.5082
 20
7.6249
 30
0.0
 10
2.5082
 20
7.6249
 30
0.0
  0
SPLINE
  5
63
330
1F
100
AcDbEntity
  8
DEFAULT_1
 62
   250
100
AcDbSpline
210
0.0
220
0.0
230
1.0
 70
    11
 71
     3
 72
    28
 73
    24
 74
     0
 42
0.0000000001
 43
0.0000000001
 40
0.0
 40
0.0
 40
0.0
 40
0.0
 40
0.1428571428571428
 40
0.1428571428571428
 40
0.1428571428571428
 40
0.1428571428571428
 40
0.2857142857142857
 40
0.2857142857142857
 40
0.2857142857142857
 40
0.2857142857142857
 40
0.4285714285714285
 40
0.4285714285714285
 40
0.4285714285714285
 40
0.4285714285714285
 40
0.5714285714285714
 40
0.5714285714285714
 40
0.5714285714285714
 40
0.5714285714285714
 40
0.7142857142857143
 40
0.7142857142857143
 40
0.7142857142857143
 40
0.7142857142857143
 40
1.0
 40
1.0
 40
1.0
 40
1.0
 10
2.6211
 20
7.4828
 30
0.0
 10
2.6211
 20
7.4828
 30
0.0
 10
1.5971
 20
6.3365
 30
0.0
 10
1.5971
 20
6.3365
 30
0.0
 10
1.5971
 20
6.3365
 30
0.0
 10
1.6676
 20
6.2787
 30
0.0
 10
1.733
 20
6.2382
 30
0.0
 10
1.7928
 20
6.2152
 30
0.0
 10
1.7928
 20
6.2152
 30
0.0
 10
1.8708
 20
6.1846
 30
0.0
 10
1.9555
 20
6.1696
 30
0.0
 10
2.0463
 20
6.1696
 30
0.0
 10
2.0463
 20
6.1696
 30
0.0
 10
2.2467
 20
6.1696
 30
0.0
 10
2.4118
 20
6.2401
 30
0.0
 10
2.5425
 20
6.3817
 30
0.0
 10
2.5425
 20
6.3817
 30
0.0
 10
2.6728
 20
6.5233
 30
0.0
 10
2.7382
 20
6.7218
 30
0.0
 10
2.7382
 20
6.9772
 30
0.0
 10
2.7382
 20
6.9772
 30
0.0
 10
2.7382
 20
7.1681
 30
0.0
 10
2.6992
 20
7.337
 30
0.0
 10
2.6211
 20
7.4828
 30
0.0
  0
SPLINE
  5
64
330
1F
100
AcDbEntity
  8
DEFAULT_1
 62
   250
100
AcDbSpline
210
0.0
220
0.0
230
1.0
 70
    11
 71
     3
 72
    40
 73
    36
 74
     0
 42
0.0000000001
 43
0.0000000001
 40
0.0
 40
0.0
 40
0.0
 40
0.0
 40
0.1
 40
0.1
 40
0.1
 40
0.1
 40
0.2
 40
0.2
 40
0.2
 40
0.2
 40
0.3
 40
0.3
 40
0.3
 40
0.3
 40
0.4
 40
0.4
 40
0.4
 40
0.4
 40
0.5
 40
0.5
 40
0.5
 40
0.5
 40
0.6
 40
0.6
 40
0.6
 40
0.6
 40
0.7
 40
0.7
 40
0.7
 40
0.7
 40
0.8
 40
0.8
 40
0.8
 40
0.8
 40
1.0
 40
1.0
 40
1.0
 40
1.0
 10
4.1973
 20
5.9753
 30
0.0
 10
4.1973
 20
5.9753
 30
0.0
 10
3.9494
 20
5.9753
 30
0.0
 10
3.9494
 20
5.9753
 30
0.0
 10
3.9494
 20
5.9753
 30
0.0
 10
3.9494
 20
5.9753
 30
0.0
 10
3.9494
 20
7.5557
 30
0.0
 10
3.9494
 20
7.5557
 30
0.0
 10
3.9494
 20
7.5557
 30
0.0
 10
3.8896
 20
7.4988
 30
0.0
 10
3.8116
 20
7.4419
 30
0.0
 10
3.7147
 20
7.385
 30
0.0
 10
3.7147
 20
7.385
 30
0.0
 10
3.6173
 20
7.3281
 30
0.0
 10
3.5303
 20
7.2853
 30
0.0
 10
3.4531
 20
7.257
 30
0.0
 10
3.4531
 20
7.257
 30
0.0
 10
3.4531
 20
7.257
 30
0.0
 10
3.4531
 20
7.4965
 30
0.0
 10
3.4531
 20
7.4965
 30
0.0
 10
3.4531
 20
7.4965
 30
0.0
 10
3.5919
 20
7.5618
 30
0.0
 10
3.7133
 20
7.6409
 30
0.0
 10
3.8172
 20
7.7335
 30
0.0
 10
3.8172
 20
7.7335
 30
0.0
 10
3.9207
 20
7.8267
 30
0.0
 10
3.9945
 20
7.9165
 30
0.0
 10
4.0378
 20
8.004
 30
0.0
 10
4.0378
 20
8.004
 30
0.0
 10
4.0378
 20
8.004
 30
0.0
 10
4.1973
 20
8.004
 30
0.0
 10
4.1973
 20
8.004
 30
0.0
 10
4.1973
 20
8.004
 30
0.0
 10
4.1973
 20
8.004
 30
0.0
 10
4.1973
 20
5.9753
 30
0.0
 10
4.1973
 20
5.9753
 30
0.0
  0
SPLINE
  5
65
330
1F
100
AcDbEntity
  8
DEFAULT_1
 62
   250
100
AcDbSpline
210
0.0
220
0.0
230
1.0
 70
    11
 71
     3
 72
    52
 73
    48
 74
     0
 42
0.0000000001
 43
0.0000000001
 40
0.0
 40
0.0
 40
0.0
 40
0.0
 40
0.0769230769230769
 40
0.0769230769230769
 40
0.0769230769230769
 40
0.0769230769230769
 40
0.1538461538461539
 40
0.1538461538461539
 40
0.1538461538461539
 40
0.1538461538461539
 40
0.2307692307692308
 40
0.2307692307692308
 40
0.2307692307692308
 40
0.2307692307692308
 40
0.3076923076923077
 40
0.3076923076923077
 40
0.3076923076923077
 40
0.3076923076923077
 40
0.3846153846153846
 40
0.3846153846153846
 40
0.3846153846153846
 40
0.3846153846153846
 40
0.4615384615384616
 40
0.4615384615384616
 40
0.4615384615384616
 40
0.4615384615384616
 40
0.5384615384615384
 40
0.5384615384615384
 40
0.5384615384615384
 40
0.5384615384615384
 40
0.6153846153846154
 40
0.6153846153846154
 40
0.6153846153846154
 40
0.6153846153846154
 40
0.6923076923076923
 40
0.6923076923076923
 40
0.6923076923076923
 40
0.6923076923076923
 40
0.7692307692307693
 40
0.7692307692307693
 40
0.7692307692307693
 40
0.7692307692307693
 40
0.8461538461538461
 40
0.8461538461538461
 40
0.8461538461538461
 40
0.8461538461538461
 40
1.0
 40
1.0
 40
1.0
 40
1.0
 10
4.8327
 20
6.9715
 30
0.0
 10
4.8327
 20
7.2105
 30
0.0
 10
4.8572
 20
7.4029
 30
0.0
 10
4.9066
 20
7.5482
 30
0.0
 10
4.9066
 20
7.5482
 30
0.0
 10
4.9555
 20
7.694
 30
0.0
 10
5.0289
 20
7.8064
 30
0.0
 10
5.1258
 20
7.8855
 30
0.0
 10
5.1258
 20
7.8855
 30
0.0
 10
5.2227
 20
7.9645
 30
0.0
 10
5.3445
 20
8.004
 30
0.0
 10
5.4912
 20
8.004
 30
0.0
 10
5.4912
 20
8.004
 30
0.0
 10
5.5999
 20
8.004
 30
0.0
 10
5.6949
 20
7.9819
 30
0.0
 10
5.7767
 20
7.9381
 30
0.0
 10
5.7767
 20
7.9381
 30
0.0
 10
5.8586
 20
7.8949
 30
0.0
 10
5.9259
 20
7.8318
 30
0.0
 10
5.9795
 20
7.7495
 30
0.0
 10
5.9795
 20
7.7495
 30
0.0
 10
6.0326
 20
7.6672
 30
0.0
 10
6.0745
 20
7.567
 30
0.0
 10
6.1046
 20
7.449
 30
0.0
 10
6.1046
 20
7.449
 30
0.0
 10
6.1352
 20
7.3309
 30
0.0
 10
6.1502
 20
7.1719
 30
0.0
 10
6.1502
 20
6.9715
 30
0.0
 10
6.1502
 20
6.9715
 30
0.0
 10
6.1502
 20
6.7345
 30
0.0
 10
6.1258
 20
6.5435
 30
0.0
 10
6.0773
 20
6.3977
 30
0.0
 10
6.0773
 20
6.3977
 30
0.0
 10
6.0284
 20
6.2519
 30
0.0
 10
5.9555
 20
6.1395
 30
0.0
 10
5.8586
 20
6.06
 30
0.0
 10
5.8586
 20
6.06
 30
0.0
 10
5.7617
 20
5.9805
 30
0.0
 10
5.6394
 20
5.941
 30
0.0
 10
5.4912
 20
5.941
 30
0.0
 10
5.4912
 20
5.941
 30
0.0
 10
5.2965
 20
5.941
 30
0.0
 10
5.1436
 20
6.0106
 30
0.0
 10
5.0326
 20
6.1503
 30
0.0
 10
5.0326
 20
6.1503
 30
0.0
 10
4.8995
 20
6.3182
 30
0.0
 10
4.8327
 20
6.5924
 30
0.0
 10
4.8327
 20
6.9715
 30
0.0
  0
SPLINE
  5
66
330
1F
100
AcDbEntity
  8
DEFAULT_1
 62
   250
100
AcDbSpline
210
0.0
220
0.0
230
1.0
 70
    11
 71
     3
 72
    36
 73
    32
 74
     0
 42
0.0000000001
 43
0.0000000001
 40
0.0
 40
0.0
 40
0.0
 40
0.0
 40
0.1111111111111111
 40
0.1111111111111111
 40
0.1111111111111111
 40
0.1111111111111111
 40
0.2222222222222222
 40
0.2222222222222222
 40
0.2222222222222222
 40
0.2222222222222222
 40
0.3333333333333333
 40
0.3333333333333333
 40
0.3333333333333333
 40
0.3333333333333333
 40
0.4444444444444444
 40
0.4444444444444444
 40
0.4444444444444444
 40
0.4444444444444444
 40
0.5555555555555556
 40
0.5555555555555556
 40
0.5555555555555556
 40
0.5555555555555556
 40
0.6666666666666666
 40
0.6666666666666666
 40
0.6666666666666666
 40
0.6666666666666666
 40
0.7777777777777778
 40
0.7777777777777778
 40
0.7777777777777778
 40
0.7777777777777778
 40
1.0
 40
1.0
 40
1.0
 40
1.0
 10
5.0877
 20
6.9715
 30
0.0
 10
5.0877
 20
6.6399
 30
0.0
 10
5.1267
 20
6.4193
 30
0.0
 10
5.2043
 20
6.3093
 30
0.0
 10
5.2043
 20
6.3093
 30
0.0
 10
5.2819
 20
6.1997
 30
0.0
 10
5.3774
 20
6.1446
 30
0.0
 10
5.4912
 20
6.1446
 30
0.0
 10
5.4912
 20
6.1446
 30
0.0
 10
5.6055
 20
6.1446
 30
0.0
 10
5.701
 20
6.2001
 30
0.0
 10
5.7786
 20
6.3102
 30
0.0
 10
5.7786
 20
6.3102
 30
0.0
 10
5.8562
 20
6.4203
 30
0.0
 10
5.8953
 20
6.6409
 30
0.0
 10
5.8953
 20
6.9715
 30
0.0
 10
5.8953
 20
6.9715
 30
0.0
 10
5.8953
 20
7.3041
 30
0.0
 10
5.8562
 20
7.5252
 30
0.0
 10
5.7786
 20
7.6343
 30
0.0
 10
5.7786
 20
7.6343
 30
0.0
 10
5.701
 20
7.7439
 30
0.0
 10
5.6046
 20
7.7984
 30
0.0
 10
5.4889
 20
7.7984
 30
0.0
 10
5.4889
 20
7.7984
 30
0.0
 10
5.3746
 20
7.7984
 30
0.0
 10
5.2838
 20
7.75
 30
0.0
 10
5.2156
 20
7.6536
 30
0.0
 10
5.2156
 20
7.6536
 30
0.0
 10
5.1305
 20
7.5308
 30
0.0
 10
5.0877
 20
7.3031
 30
0.0
 10
5.0877
 20
6.9715
 30
0.0
  0
SPLINE
  5
67
330
1F
100
AcDbEntity
  8
DEFAULT_1
 62
   250
100
AcDbSpline
210
0.0
220
0.0
230
1.0
 70
    11
 71
     3
 72
    48
 73
    44
 74
     0
 42
0.0000000001
 43
0.0000000001
 40
0.0
 40
0.0
 40
0.0
 40
0.0
 40
0.0833333333333333
 40
0.0833333333333333
 40
0.0833333333333333
 40
0.0833333333333333
 40
0.1666666666666667
 40
0.1666666666666667
 40
0.1666666666666667
 40
0.1666666666666667
 40
0.25
 40
0.25
 40
0.25
 40
0.25
 40
0.3333333333333333
 40
0.3333333333333333
 40
0.3333333333333333
 40
0.3333333333333333
 40
0.4166666666666667
 40
0.4166666666666667
 40
0.4166666666666667
 40
0.4166666666666667
 40
0.5
 40
0.5
 40
0.5
 40
0.5
 40
0.5833333333333334
 40
0.5833333333333334
 40
0.5833333333333334
 40
0.5833333333333334
 40
0.6666666666666666
 40
0.6666666666666666
 40
0.6666666666666666
 40
0.6666666666666666
 40
0.75
 40
0.75
 40
0.75
 40
0.75
 40
0.8333333333333334
 40
0.8333333333333334
 40
0.8333333333333334
 40
0.8333333333333334
 40
1.0
 40
1.0
 40
1.0
 40
1.0
 10
7.1972
 20
5.9753
 30
0.0
 10
7.1972
 20
5.9753
 30
0.0
 10
7.1972
 20
6.4588
 30
0.0
 10
7.1972
 20
6.4588
 30
0.0
 10
7.1972
 20
6.4588
 30
0.0
 10
7.1972
 20
6.4588
 30
0.0
 10
6.3209
 20
6.4588
 30
0.0
 10
6.3209
 20
6.4588
 30
0.0
 10
6.3209
 20
6.4588
 30
0.0
 10
6.3209
 20
6.4588
 30
0.0
 10
6.3209
 20
6.6865
 30
0.0
 10
6.3209
 20
6.6865
 30
0.0
 10
6.3209
 20
6.6865
 30
0.0
 10
6.3209
 20
6.6865
 30
0.0
 10
7.2429
 20
7.9955
 30
0.0
 10
7.2429
 20
7.9955
 30
0.0
 10
7.2429
 20
7.9955
 30
0.0
 10
7.2429
 20
7.9955
 30
0.0
 10
7.4456
 20
7.9955
 30
0.0
 10
7.4456
 20
7.9955
 30
0.0
 10
7.4456
 20
7.9955
 30
0.0
 10
7.4456
 20
7.9955
 30
0.0
 10
7.4456
 20
6.6865
 30
0.0
 10
7.4456
 20
6.6865
 30
0.0
 10
7.4456
 20
6.6865
 30
0.0
 10
7.4456
 20
6.6865
 30
0.0
 10
7.7184
 20
6.6865
 30
0.0
 10
7.7184
 20
6.6865
 30
0.0
 10
7.7184
 20
6.6865
 30
0.0
 10
7.7184
 20
6.6865
 30
0.0
 10
7.7184
 20
6.4588
 30
0.0
 10
7.7184
 20
6.4588
 30
0.0
 10
7.7184
 20
6.4588
 30
0.0
 10
7.7184
 20
6.4588
 30
0.0
 10
7.4456
 20
6.4588
 30
0.0
 10
7.4456
 20
6.4588
 30
0.0
 10
7.4456
 20
6.4588
 30
0.0
 10
7.4456
 20
6.4588
 30
0.0
 10
7.4456
 20
5.9753
 30
0.0
 10
7.4456
 20
5.9753
 30
0.0
 10
7.4456
 20
5.9753
 30
0.0
 10
7.4456
 20
5.9753
 30
0.0
 10
7.1972
 20
5.9753
 30
0.0
 10
7.1972
 20
5.9753
 30
0.0
  0
SPLINE
  5
68
330
1F
100
AcDbEntity
  8
DEFAULT_1
 62
   250
100
AcDbSpline
210
0.0
220
0.0
230
1.0
 70
    11
 71
     3
 72
    16
 73
    12
 74
     0
 42
0.0000000001
 43
0.0000000001
 40
0.0
 40
0.0
 40
0.0
 40
0.0
 40
0.25
 40
0.25
 40
0.25
 40
0.25
 40
0.5
 40
0.5
 40
0.5
 40
0.5
 40
1.0
 40
1.0
 40
1.0
 40
1.0
 10
7.1972
 20
6.6865
 30
0.0
 10
7.1972
 20
6.6865
 30
0.0
 10
7.1972
 20
7.5971
 30
0.0
 10
7.1972
 20
7.5971
 30
0.0
 10
7.1972
 20
7.5971
 30
0.0
 10
7.1972
 20
7.5971
 30
0.0
 10
6.5651
 20
6.6865
 30
0.0
 10
6.5651
 20
6.6865
 30
0.0
 10
6.5651
 20
6.6865
 30
0.0
 10
6.5651
 20
6.6865
 30
0.0
 10
7.1972
 20
6.6865
 30
0.0
 10
7.1972
 20
6.6865
 30
0.0
  0
SPLINE
  5
69
330
1F
100
AcDbEntity
  8
DEFAULT_1
 62
   250
100
AcDbSpline
210
0.0
220
0.0
230
1.0
 70
    11
 71
     3
 72
    20
 73
    16
 74
     0
 42
0.0000000001
 43
0.0000000001
 40
0.0
 40
0.0
 40
0.0
 40
0.0
 40
0.2
 40
0.2
 40
0.2
 40
0.2
 40
0.4
 40
0.4
 40
0.4
 40
0.4
 40
0.6
 40
0.6
 40
0.6
 40
0.6
 40
1.0
 40
1.0
 40
1.0
 40
1.0
 10
9.6555
 20
5.9176
 30
0.0
 10
9.6555
 20
5.9176
 30
0.0
 10
12.1555
 20
5.5647
 30
0.0
 10
12.1555
 20
5.5647
 30
0.0
 10
12.1555
 20
5.5647
 30
0.0
 10
12.1555
 20
5.5647
 30
0.0
 10
12.1555
 20
5.4864
 30
0.0
 10
12.1555
 20
5.4864
 30
0.0
 10
12.1555
 20
5.4864
 30
0.0
 10
12.1555
 20
5.4864
 30
0.0
 10
9.6555
 20
5.1101
 30
0.0
 10
9.6555
 20
5.1101
 30
0.0
 10
9.6555
 20
5.1101
 30
0.0
 10
9.6555
 20
5.1101
 30
0.0
 10
9.6555
 20
5.9176
 30
0.0
 10
9.6555
 20
5.9176
 30
0.0
  0
SPLINE
  5
6A
330
1F
100
AcDbEntity
  8
DEFAULT_1
 62
   250
100
AcDbSpline
210
0.0
220
0.0
230
1.0
 70
    11
 71
     3
 72
    20
 73
    16
 74
     0
 42
0.0000000001
 43
0.0000000001
 40
0.0
 40
0.0
 40
0.0
 40
0.0
 40
0.2
 40
0.2
 40
0.2
 40
0.2
 40
0.4
 40
0.4
 40
0.4
 40
0.4
 40
0.6
 40
0.6
 40
0.6
 40
0.6
 40
1.0
 40
1.0
 40
1.0
 40
1.0
 10
-3.0502
 20
5.1527
 30
0.0
 10
-3.0502
 20
5.1527
 30
0.0
 10
-5.5502
 20
5.5056
 30
0.0
 10
-5.5502
 20
5.5056
 30
0.0
 10
-5.5502
 20
5.5056
 30
0.0
 10
-5.5502
 20
5.5056
 30
0.0
 10
-5.5502
 20
5.5839
 30
0.0
 10
-5.5502
 20
5.5839
 30
0.0
 10
-5.5502
 20
5.5839
 30
0.0
 10
-5.5502
 20
5.5839
 30
0.0
 10
-3.0502
 20
5.9602
 30
0.0
 10
-3.0502
 20
5.9602
 30
0.0
 10
-3.0502
 20
5.9602
 30
0.0
 10
-3.0502
 20
5.9602
 30
0.0
 10
-3.0502
 20
5.1527
 30
0.0
 10
-3.0502
 20
5.1527
 30
0.0
  0
SPLINE
  5
6B
330
1F
100
AcDbEntity
  8
DEFAULT_1
 62
   250
100
AcDbSpline
210
0.0
220
0.0
230
1.0
 70
    24
 71
     3
 72
     8
 73
     4
 74
     0
 42
0.0000000001
 43
0.0000000001
 40
0.0
 40
0.0
 40
0.0
 40
0.0
 40
1.0
 40
1.0
 40
1.0
 40
1.0
 10
-5.2125
 20
11.1384
 30
0.0
 10
-5.2125
 20
11.1384
 30
0.0
 10
11.891
 20
11.1384
 30
0.0
 10
11.891
 20
11.1384
 30
0.0
  0
SPLINE
  5
6C
330
1F
100
AcDbEntity
  8
DEFAULT_1
 62
   250
100
AcDbSpline
210
0.0
220
0.0
230
1.0
 70
    24
 71
     3
 72
     8
 73
     4
 74
     0
 42
0.0000000001
 43
0.0000000001
 40
0.0
 40
0.0
 40
0.0
 40
0.0
 40
1.0
 40
1.0
 40
1.0
 40
1.0
 10
12.1196
 20
11.9238
 30
0.0
 10
12.1196
 20
11.9238
 30
0.0
 10
12.1196
 20
11.7076
 30
0.0
 10
12.1196
 20
11.7076
 30
0.0
  0
SPLINE
  5
6D
330
1F
100
AcDbEntity
  8
DEFAULT_1
 62
   250
100
AcDbSpline
210
0.0
220
0.0
230
1.0
 70
    24
 71
     3
 72
     8
 73
     4
 74
     0
 42
0.0000000001
 43
0.0000000001
 40
0.0
 40
0.0
 40
0.0
 40
0.0
 40
1.0
 40
1.0
 40
1.0
 40
1.0
 10
11.891
 20
11.6464
 30
0.0
 10
11.891
 20
11.6464
 30
0.0
 10
11.891
 20
11.1384
 30
0.0
 10
11.891
 20
11.1384
 30
0.0
  0
SPLINE
  5
6E
330
1F
100
AcDbEntity
  8
DEFAULT_1
 62
   250
100
AcDbSpline
210
0.0
220
0.0
230
1.0
 70
    24
 71
     3
 72
     8
 73
     4
 74
     0
 42
0.0000000001
 43
0.0000000001
 40
0.0
 40
0.0
 40
0.0
 40
0.0
 40
1.0
 40
1.0
 40
1.0
 40
1.0
 10
11.891
 20
11.6464
 30
0.0
 10
11.891
 20
11.6464
 30
0.0
 10
12.1196
 20
11.7076
 30
0.0
 10
12.1196
 20
11.7076
 30
0.0
  0
SPLINE
  5
6F
330
1F
100
AcDbEntity
  8
DEFAULT_1
 62
   250
100
AcDbSpline
210
0.0
220
0.0
230
1.0
 70
    24
 71
     3
 72
     8
 73
     4
 74
     0
 42
0.0000000001
 43
0.0000000001
 40
0.0
 40
0.0
 40
0.0
 40
0.0
 40
1.0
 40
1.0
 40
1.0
 40
1.0
 10
11.891
 20
11.9851
 30
0.0
 10
11.891
 20
11.9851
 30
0.0
 10
12.1196
 20
11.9238
 30
0.0
 10
12.1196
 20
11.9238
 30
0.0
  0
SPLINE
  5
70
330
1F
100
AcDbEntity
  8
DEFAULT_1
 62
   250
100
AcDbSpline
210
0.0
220
0.0
230
1.0
 70
    24
 71
     3
 72
     8
 73
     4
 74
     0
 42
0.0000000001
 43
0.0000000001
 40
0.0
 40
0.0
 40
0.0
 40
0.0
 40
1.0
 40
1.0
 40
1.0
 40
1.0
 10
11.891
 20
11.9851
 30
0.0
 10
11.891
 20
11.9851
 30
0.0
 10
11.891
 20
12.4085
 30
0.0
 10
11.891
 20
12.4085
 30
0.0
  0
SPLINE
  5
71
330
1F
100
AcDbEntity
  8
DEFAULT_1
 62
   250
100
AcDbSpline
210
0.0
220
0.0
230
1.0
 70
    24
 71
     3
 72
     8
 73
     4
 74
     0
 42
0.0000000001
 43
0.0000000001
 40
0.0
 40
0.0
 40
0.0
 40
0.0
 40
1.0
 40
1.0
 40
1.0
 40
1.0
 10
11.891
 20
13.0857
 30
0.0
 10
11.891
 20
13.0857
 30
0.0
 10
11.891
 20
12.6624
 30
0.0
 10
11.891
 20
12.6624
 30
0.0
  0
SPLINE
  5
72
330
1F
100
AcDbEntity
  8
DEFAULT_1
 62
   250
100
AcDbSpline
210
0.0
220
0.0
230
1.0
 70
    24
 71
     3
 72
     8
 73
     4
 74
     0
 42
0.0000000001
 43
0.0000000001
 40
0.0
 40
0.0
 40
0.0
 40
0.0
 40
1.0
 40
1.0
 40
1.0
 40
1.0
 10
12.1196
 20
12.6012
 30
0.0
 10
12.1196
 20
12.6012
 30
0.0
 10
12.1196
 20
12.4697
 30
0.0
 10
12.1196
 20
12.4697
 30
0.0
  0
SPLINE
  5
73
330
1F
100
AcDbEntity
  8
DEFAULT_1
 62
   250
100
AcDbSpline
210
0.0
220
0.0
230
1.0
 70
    24
 71
     3
 72
     8
 73
     4
 74
     0
 42
0.0000000001
 43
0.0000000001
 40
0.0
 40
0.0
 40
0.0
 40
0.0
 40
1.0
 40
1.0
 40
1.0
 40
1.0
 10
11.891
 20
12.4085
 30
0.0
 10
11.891
 20
12.4085
 30
0.0
 10
12.1196
 20
12.4697
 30
0.0
 10
12.1196
 20
12.4697
 30
0.0
  0
SPLINE
  5
74
330
1F
100
AcDbEntity
  8
DEFAULT_1
 62
   250
100
AcDbSpline
210
0.0
220
0.0
230
1.0
 70
    24
 71
     3
 72
     8
 73
     4
 74
     0
 42
0.0000000001
 43
0.0000000001
 40
0.0
 40
0.0
 40
0.0
 40
0.0
 40
1.0
 40
1.0
 40
1.0
 40
1.0
 10
12.1196
 20
13.1471
 30
0.0
 10
12.1196
 20
13.1471
 30
0.0
 10
11.891
 20
13.0857
 30
0.0
 10
11.891
 20
13.0857
 30
0.0
  0
SPLINE
  5
75
330
1F
100
AcDbEntity
  8
DEFAULT_1
 62
   250
100
AcDbSpline
210
0.0
220
0.0
230
1.0
 70
    24
 71
     3
 72
     8
 73
     4
 74
     0
 42
0.0000000001
 43
0.0000000001
 40
0.0
 40
0.0
 40
0.0
 40
0.0
 40
1.0
 40
1.0
 40
1.0
 40
1.0
 10
12.1196
 20
12.6012
 30
0.0
 10
12.1196
 20
12.6012
 30
0.0
 10
11.891
 20
12.6624
 30
0.0
 10
11.891
 20
12.6624
 30
0.0
  0
SPLINE
  5
76
330
1F
100
AcDbEntity
  8
DEFAULT_1
 62
   250
100
AcDbSpline
210
0.0
220
0.0
230
1.0
 70
    24
 71
     3
 72
     8
 73
     4
 74
     0
 42
0.0000000001
 43
0.0000000001
 40
0.0
 40
0.0
 40
0.0
 40
0.0
 40
1.0
 40
1.0
 40
1.0
 40
1.0
 10
11.891
 20
13.3398
 30
0.0
 10
11.891
 20
13.3398
 30
0.0
 10
12.1196
 20
13.2786
 30
0.0
 10
12.1196
 20
13.2786
 30
0.0
  0
SPLINE
  5
77
330
1F
100
AcDbEntity
  8
DEFAULT_1
 62
   250
100
AcDbSpline
210
0.0
220
0.0
230
1.0
 70
    24
 71
     3
 72
     8
 73
     4
 74
     0
 42
0.0000000001
 43
0.0000000001
 40
0.0
 40
0.0
 40
0.0
 40
0.0
 40
1.0
 40
1.0
 40
1.0
 40
1.0
 10
12.1196
 20
13.1471
 30
0.0
 10
12.1196
 20
13.1471
 30
0.0
 10
12.1196
 20
13.2786
 30
0.0
 10
12.1196
 20
13.2786
 30
0.0
  0
SPLINE
  5
78
330
1F
100
AcDbEntity
  8
DEFAULT_1
 62
   250
100
AcDbSpline
210
0.0
220
0.0
230
1.0
 70
    24
 71
     3
 72
     8
 73
     4
 74
     0
 42
0.0000000001
 43
0.0000000001
 40
0.0
 40
0.0
 40
0.0
 40
0.0
 40
1.0
 40
1.0
 40
1.0
 40
1.0
 10
12.1196
 20
13.9559
 30
0.0
 10
12.1196
 20
13.9559
 30
0.0
 10
12.1196
 20
13.8244
 30
0.0
 10
12.1196
 20
13.8244
 30
0.0
  0
SPLINE
  5
79
330
1F
100
AcDbEntity
  8
DEFAULT_1
 62
   250
100
AcDbSpline
210
0.0
220
0.0
230
1.0
 70
    24
 71
     3
 72
     8
 73
     4
 74
     0
 42
0.0000000001
 43
0.0000000001
 40
0.0
 40
0.0
 40
0.0
 40
0.0
 40
1.0
 40
1.0
 40
1.0
 40
1.0
 10
11.891
 20
13.3398
 30
0.0
 10
11.891
 20
13.3398
 30
0.0
 10
11.891
 20
13.7631
 30
0.0
 10
11.891
 20
13.7631
 30
0.0
  0
SPLINE
  5
7A
330
1F
100
AcDbEntity
  8
DEFAULT_1
 62
   250
100
AcDbSpline
210
0.0
220
0.0
230
1.0
 70
    24
 71
     3
 72
     8
 73
     4
 74
     0
 42
0.0000000001
 43
0.0000000001
 40
0.0
 40
0.0
 40
0.0
 40
0.0
 40
1.0
 40
1.0
 40
1.0
 40
1.0
 10
11.891
 20
14.4405
 30
0.0
 10
11.891
 20
14.4405
 30
0.0
 10
11.891
 20
14.0172
 30
0.0
 10
11.891
 20
14.0172
 30
0.0
  0
SPLINE
  5
7B
330
1F
100
AcDbEntity
  8
DEFAULT_1
 62
   250
100
AcDbSpline
210
0.0
220
0.0
230
1.0
 70
    24
 71
     3
 72
     8
 73
     4
 74
     0
 42
0.0000000001
 43
0.0000000001
 40
0.0
 40
0.0
 40
0.0
 40
0.0
 40
1.0
 40
1.0
 40
1.0
 40
1.0
 10
12.1196
 20
13.8244
 30
0.0
 10
12.1196
 20
13.8244
 30
0.0
 10
11.891
 20
13.7631
 30
0.0
 10
11.891
 20
13.7631
 30
0.0
  0
SPLINE
  5
7C
330
1F
100
AcDbEntity
  8
DEFAULT_1
 62
   250
100
AcDbSpline
210
0.0
220
0.0
230
1.0
 70
    24
 71
     3
 72
     8
 73
     4
 74
     0
 42
0.0000000001
 43
0.0000000001
 40
0.0
 40
0.0
 40
0.0
 40
0.0
 40
1.0
 40
1.0
 40
1.0
 40
1.0
 10
12.1196
 20
13.9559
 30
0.0
 10
12.1196
 20
13.9559
 30
0.0
 10
11.891
 20
14.0172
 30
0.0
 10
11.891
 20
14.0172
 30
0.0
  0
SPLINE
  5
7D
330
1F
100
AcDbEntity
  8
DEFAULT_1
 62
   250
100
AcDbSpline
210
0.0
220
0.0
230
1.0
 70
    24
 71
     3
 72
     8
 73
     4
 74
     0
 42
0.0000000001
 43
0.0000000001
 40
0.0
 40
0.0
 40
0.0
 40
0.0
 40
1.0
 40
1.0
 40
1.0
 40
1.0
 10
11.891
 20
14.6945
 30
0.0
 10
11.891
 20
14.6945
 30
0.0
 10
12.1196
 20
14.6333
 30
0.0
 10
12.1196
 20
14.6333
 30
0.0
  0
SPLINE
  5
7E
330
1F
100
AcDbEntity
  8
DEFAULT_1
 62
   250
100
AcDbSpline
210
0.0
220
0.0
230
1.0
 70
    24
 71
     3
 72
     8
 73
     4
 74
     0
 42
0.0000000001
 43
0.0000000001
 40
0.0
 40
0.0
 40
0.0
 40
0.0
 40
1.0
 40
1.0
 40
1.0
 40
1.0
 10
12.1196
 20
14.5018
 30
0.0
 10
12.1196
 20
14.5018
 30
0.0
 10
11.891
 20
14.4405
 30
0.0
 10
11.891
 20
14.4405
 30
0.0
  0
SPLINE
  5
7F
330
1F
100
AcDbEntity
  8
DEFAULT_1
 62
   250
100
AcDbSpline
210
0.0
220
0.0
230
1.0
 70
    24
 71
     3
 72
     8
 73
     4
 74
     0
 42
0.0000000001
 43
0.0000000001
 40
0.0
 40
0.0
 40
0.0
 40
0.0
 40
1.0
 40
1.0
 40
1.0
 40
1.0
 10
12.1196
 20
14.5018
 30
0.0
 10
12.1196
 20
14.5018
 30
0.0
 10
12.1196
 20
14.6333
 30
0.0
 10
12.1196
 20
14.6333
 30
0.0
  0
SPLINE
  5
80
330
1F
100
AcDbEntity
  8
DEFAULT_1
 62
   250
100
AcDbSpline
210
0.0
220
0.0
230
1.0
 70
    24
 71
     3
 72
     8
 73
     4
 74
     0
 42
0.0000000001
 43
0.0000000001
 40
0.0
 40
0.0
 40
0.0
 40
0.0
 40
1.0
 40
1.0
 40
1.0
 40
1.0
 10
12.1196
 20
15.3106
 30
0.0
 10
12.1196
 20
15.3106
 30
0.0
 10
12.1196
 20
15.1791
 30
0.0
 10
12.1196
 20
15.1791
 30
0.0
  0
SPLINE
  5
81
330
1F
100
AcDbEntity
  8
DEFAULT_1
 62
   250
100
AcDbSpline
210
0.0
220
0.0
230
1.0
 70
    24
 71
     3
 72
     8
 73
     4
 74
     0
 42
0.0000000001
 43
0.0000000001
 40
0.0
 40
0.0
 40
0.0
 40
0.0
 40
1.0
 40
1.0
 40
1.0
 40
1.0
 10
11.891
 20
14.6945
 30
0.0
 10
11.891
 20
14.6945
 30
0.0
 10
11.891
 20
15.1179
 30
0.0
 10
11.891
 20
15.1179
 30
0.0
  0
SPLINE
  5
82
330
1F
100
AcDbEntity
  8
DEFAULT_1
 62
   250
100
AcDbSpline
210
0.0
220
0.0
230
1.0
 70
    24
 71
     3
 72
     8
 73
     4
 74
     0
 42
0.0000000001
 43
0.0000000001
 40
0.0
 40
0.0
 40
0.0
 40
0.0
 40
1.0
 40
1.0
 40
1.0
 40
1.0
 10
11.891
 20
15.7952
 30
0.0
 10
11.891
 20
15.7952
 30
0.0
 10
11.891
 20
15.3719
 30
0.0
 10
11.891
 20
15.3719
 30
0.0
  0
SPLINE
  5
83
330
1F
100
AcDbEntity
  8
DEFAULT_1
 62
   250
100
AcDbSpline
210
0.0
220
0.0
230
1.0
 70
    24
 71
     3
 72
     8
 73
     4
 74
     0
 42
0.0000000001
 43
0.0000000001
 40
0.0
 40
0.0
 40
0.0
 40
0.0
 40
1.0
 40
1.0
 40
1.0
 40
1.0
 10
12.1196
 20
15.1791
 30
0.0
 10
12.1196
 20
15.1791
 30
0.0
 10
11.891
 20
15.1179
 30
0.0
 10
11.891
 20
15.1179
 30
0.0
  0
SPLINE
  5
84
330
1F
100
AcDbEntity
  8
DEFAULT_1
 62
   250
100
AcDbSpline
210
0.0
220
0.0
230
1.0
 70
    24
 71
     3
 72
     8
 73
     4
 74
     0
 42
0.0000000001
 43
0.0000000001
 40
0.0
 40
0.0
 40
0.0
 40
0.0
 40
1.0
 40
1.0
 40
1.0
 40
1.0
 10
12.1196
 20
15.3106
 30
0.0
 10
12.1196
 20
15.3106
 30
0.0
 10
11.891
 20
15.3719
 30
0.0
 10
11.891
 20
15.3719
 30
0.0
  0
SPLINE
  5
85
330
1F
100
AcDbEntity
  8
DEFAULT_1
 62
   250
100
AcDbSpline
210
0.0
220
0.0
230
1.0
 70
    24
 71
     3
 72
     8
 73
     4
 74
     0
 42
0.0000000001
 43
0.0000000001
 40
0.0
 40
0.0
 40
0.0
 40
0.0
 40
1.0
 40
1.0
 40
1.0
 40
1.0
 10
11.891
 20
16.0493
 30
0.0
 10
11.891
 20
16.0493
 30
0.0
 10
12.1196
 20
15.988
 30
0.0
 10
12.1196
 20
15.988
 30
0.0
  0
SPLINE
  5
86
330
1F
100
AcDbEntity
  8
DEFAULT_1
 62
   250
100
AcDbSpline
210
0.0
220
0.0
230
1.0
 70
    24
 71
     3
 72
     8
 73
     4
 74
     0
 42
0.0000000001
 43
0.0000000001
 40
0.0
 40
0.0
 40
0.0
 40
0.0
 40
1.0
 40
1.0
 40
1.0
 40
1.0
 10
12.1196
 20
15.8565
 30
0.0
 10
12.1196
 20
15.8565
 30
0.0
 10
11.891
 20
15.7952
 30
0.0
 10
11.891
 20
15.7952
 30
0.0
  0
SPLINE
  5
87
330
1F
100
AcDbEntity
  8
DEFAULT_1
 62
   250
100
AcDbSpline
210
0.0
220
0.0
230
1.0
 70
    24
 71
     3
 72
     8
 73
     4
 74
     0
 42
0.0000000001
 43
0.0000000001
 40
0.0
 40
0.0
 40
0.0
 40
0.0
 40
1.0
 40
1.0
 40
1.0
 40
1.0
 10
12.1196
 20
15.8565
 30
0.0
 10
12.1196
 20
15.8565
 30
0.0
 10
12.1196
 20
15.988
 30
0.0
 10
12.1196
 20
15.988
 30
0.0
  0
SPLINE
  5
88
330
1F
100
AcDbEntity
  8
DEFAULT_1
 62
   250
100
AcDbSpline
210
0.0
220
0.0
230
1.0
 70
    24
 71
     3
 72
     8
 73
     4
 74
     0
 42
0.0000000001
 43
0.0000000001
 40
0.0
 40
0.0
 40
0.0
 40
0.0
 40
1.0
 40
1.0
 40
1.0
 40
1.0
 10
12.1196
 20
16.6654
 30
0.0
 10
12.1196
 20
16.6654
 30
0.0
 10
12.1196
 20
16.5339
 30
0.0
 10
12.1196
 20
16.5339
 30
0.0
  0
SPLINE
  5
89
330
1F
100
AcDbEntity
  8
DEFAULT_1
 62
   250
100
AcDbSpline
210
0.0
220
0.0
230
1.0
 70
    24
 71
     3
 72
     8
 73
     4
 74
     0
 42
0.0000000001
 43
0.0000000001
 40
0.0
 40
0.0
 40
0.0
 40
0.0
 40
1.0
 40
1.0
 40
1.0
 40
1.0
 10
11.891
 20
16.0493
 30
0.0
 10
11.891
 20
16.0493
 30
0.0
 10
11.891
 20
16.4726
 30
0.0
 10
11.891
 20
16.4726
 30
0.0
  0
SPLINE
  5
8A
330
1F
100
AcDbEntity
  8
DEFAULT_1
 62
   250
100
AcDbSpline
210
0.0
220
0.0
230
1.0
 70
    24
 71
     3
 72
     8
 73
     4
 74
     0
 42
0.0000000001
 43
0.0000000001
 40
0.0
 40
0.0
 40
0.0
 40
0.0
 40
1.0
 40
1.0
 40
1.0
 40
1.0
 10
11.891
 20
17.15
 30
0.0
 10
11.891
 20
17.15
 30
0.0
 10
11.891
 20
16.7266
 30
0.0
 10
11.891
 20
16.7266
 30
0.0
  0
SPLINE
  5
8B
330
1F
100
AcDbEntity
  8
DEFAULT_1
 62
   250
100
AcDbSpline
210
0.0
220
0.0
230
1.0
 70
    24
 71
     3
 72
     8
 73
     4
 74
     0
 42
0.0000000001
 43
0.0000000001
 40
0.0
 40
0.0
 40
0.0
 40
0.0
 40
1.0
 40
1.0
 40
1.0
 40
1.0
 10
12.1196
 20
16.5339
 30
0.0
 10
12.1196
 20
16.5339
 30
0.0
 10
11.891
 20
16.4726
 30
0.0
 10
11.891
 20
16.4726
 30
0.0
  0
SPLINE
  5
8C
330
1F
100
AcDbEntity
  8
DEFAULT_1
 62
   250
100
AcDbSpline
210
0.0
220
0.0
230
1.0
 70
    24
 71
     3
 72
     8
 73
     4
 74
     0
 42
0.0000000001
 43
0.0000000001
 40
0.0
 40
0.0
 40
0.0
 40
0.0
 40
1.0
 40
1.0
 40
1.0
 40
1.0
 10
12.1196
 20
16.6654
 30
0.0
 10
12.1196
 20
16.6654
 30
0.0
 10
11.891
 20
16.7266
 30
0.0
 10
11.891
 20
16.7266
 30
0.0
  0
SPLINE
  5
8D
330
1F
100
AcDbEntity
  8
DEFAULT_1
 62
   250
100
AcDbSpline
210
0.0
220
0.0
230
1.0
 70
    24
 71
     3
 72
     8
 73
     4
 74
     0
 42
0.0000000001
 43
0.0000000001
 40
0.0
 40
0.0
 40
0.0
 40
0.0
 40
1.0
 40
1.0
 40
1.0
 40
1.0
 10
11.891
 20
17.404
 30
0.0
 10
11.891
 20
17.404
 30
0.0
 10
12.1196
 20
17.3428
 30
0.0
 10
12.1196
 20
17.3428
 30
0.0
  0
SPLINE
  5
8E
330
1F
100
AcDbEntity
  8
DEFAULT_1
 62
   250
100
AcDbSpline
210
0.0
220
0.0
230
1.0
 70
    24
 71
     3
 72
     8
 73
     4
 74
     0
 42
0.0000000001
 43
0.0000000001
 40
0.0
 40
0.0
 40
0.0
 40
0.0
 40
1.0
 40
1.0
 40
1.0
 40
1.0
 10
12.1196
 20
17.2112
 30
0.0
 10
12.1196
 20
17.2112
 30
0.0
 10
11.891
 20
17.15
 30
0.0
 10
11.891
 20
17.15
 30
0.0
  0
SPLINE
  5
8F
330
1F
100
AcDbEntity
  8
DEFAULT_1
 62
   250
100
AcDbSpline
210
0.0
220
0.0
230
1.0
 70
    24
 71
     3
 72
     8
 73
     4
 74
     0
 42
0.0000000001
 43
0.0000000001
 40
0.0
 40
0.0
 40
0.0
 40
0.0
 40
1.0
 40
1.0
 40
1.0
 40
1.0
 10
12.1196
 20
17.2112
 30
0.0
 10
12.1196
 20
17.2112
 30
0.0
 10
12.1196
 20
17.3428
 30
0.0
 10
12.1196
 20
17.3428
 30
0.0
  0
SPLINE
  5
90
330
1F
100
AcDbEntity
  8
DEFAULT_1
 62
   250
100
AcDbSpline
210
0.0
220
0.0
230
1.0
 70
    24
 71
     3
 72
     8
 73
     4
 74
     0
 42
0.0000000001
 43
0.0000000001
 40
0.0
 40
0.0
 40
0.0
 40
0.0
 40
1.0
 40
1.0
 40
1.0
 40
1.0
 10
12.1196
 20
18.0201
 30
0.0
 10
12.1196
 20
18.0201
 30
0.0
 10
12.1196
 20
17.8886
 30
0.0
 10
12.1196
 20
17.8886
 30
0.0
  0
SPLINE
  5
91
330
1F
100
AcDbEntity
  8
DEFAULT_1
 62
   250
100
AcDbSpline
210
0.0
220
0.0
230
1.0
 70
    24
 71
     3
 72
     8
 73
     4
 74
     0
 42
0.0000000001
 43
0.0000000001
 40
0.0
 40
0.0
 40
0.0
 40
0.0
 40
1.0
 40
1.0
 40
1.0
 40
1.0
 10
11.891
 20
17.404
 30
0.0
 10
11.891
 20
17.404
 30
0.0
 10
11.891
 20
17.8274
 30
0.0
 10
11.891
 20
17.8274
 30
0.0
  0
SPLINE
  5
92
330
1F
100
AcDbEntity
  8
DEFAULT_1
 62
   250
100
AcDbSpline
210
0.0
220
0.0
230
1.0
 70
    24
 71
     3
 72
     8
 73
     4
 74
     0
 42
0.0000000001
 43
0.0000000001
 40
0.0
 40
0.0
 40
0.0
 40
0.0
 40
1.0
 40
1.0
 40
1.0
 40
1.0
 10
11.891
 20
18.5048
 30
0.0
 10
11.891
 20
18.5048
 30
0.0
 10
11.891
 20
18.0814
 30
0.0
 10
11.891
 20
18.0814
 30
0.0
  0
SPLINE
  5
93
330
1F
100
AcDbEntity
  8
DEFAULT_1
 62
   250
100
AcDbSpline
210
0.0
220
0.0
230
1.0
 70
    24
 71
     3
 72
     8
 73
     4
 74
     0
 42
0.0000000001
 43
0.0000000001
 40
0.0
 40
0.0
 40
0.0
 40
0.0
 40
1.0
 40
1.0
 40
1.0
 40
1.0
 10
12.1196
 20
17.8886
 30
0.0
 10
12.1196
 20
17.8886
 30
0.0
 10
11.891
 20
17.8274
 30
0.0
 10
11.891
 20
17.8274
 30
0.0
  0
SPLINE
  5
94
330
1F
100
AcDbEntity
  8
DEFAULT_1
 62
   250
100
AcDbSpline
210
0.0
220
0.0
230
1.0
 70
    24
 71
     3
 72
     8
 73
     4
 74
     0
 42
0.0000000001
 43
0.0000000001
 40
0.0
 40
0.0
 40
0.0
 40
0.0
 40
1.0
 40
1.0
 40
1.0
 40
1.0
 10
12.1196
 20
18.0201
 30
0.0
 10
12.1196
 20
18.0201
 30
0.0
 10
11.891
 20
18.0814
 30
0.0
 10
11.891
 20
18.0814
 30
0.0
  0
SPLINE
  5
95
330
1F
100
AcDbEntity
  8
DEFAULT_1
 62
   250
100
AcDbSpline
210
0.0
220
0.0
230
1.0
 70
    24
 71
     3
 72
     8
 73
     4
 74
     0
 42
0.0000000001
 43
0.0000000001
 40
0.0
 40
0.0
 40
0.0
 40
0.0
 40
1.0
 40
1.0
 40
1.0
 40
1.0
 10
11.891
 20
18.7588
 30
0.0
 10
11.891
 20
18.7588
 30
0.0
 10
12.1196
 20
18.6975
 30
0.0
 10
12.1196
 20
18.6975
 30
0.0
  0
SPLINE
  5
96
330
1F
100
AcDbEntity
  8
DEFAULT_1
 62
   250
100
AcDbSpline
210
0.0
220
0.0
230
1.0
 70
    24
 71
     3
 72
     8
 73
     4
 74
     0
 42
0.0000000001
 43
0.0000000001
 40
0.0
 40
0.0
 40
0.0
 40
0.0
 40
1.0
 40
1.0
 40
1.0
 40
1.0
 10
12.1196
 20
18.566
 30
0.0
 10
12.1196
 20
18.566
 30
0.0
 10
11.891
 20
18.5048
 30
0.0
 10
11.891
 20
18.5048
 30
0.0
  0
SPLINE
  5
97
330
1F
100
AcDbEntity
  8
DEFAULT_1
 62
   250
100
AcDbSpline
210
0.0
220
0.0
230
1.0
 70
    24
 71
     3
 72
     8
 73
     4
 74
     0
 42
0.0000000001
 43
0.0000000001
 40
0.0
 40
0.0
 40
0.0
 40
0.0
 40
1.0
 40
1.0
 40
1.0
 40
1.0
 10
12.1196
 20
18.566
 30
0.0
 10
12.1196
 20
18.566
 30
0.0
 10
12.1196
 20
18.6975
 30
0.0
 10
12.1196
 20
18.6975
 30
0.0
  0
SPLINE
  5
98
330
1F
100
AcDbEntity
  8
DEFAULT_1
 62
   250
100
AcDbSpline
210
0.0
220
0.0
230
1.0
 70
    24
 71
     3
 72
     8
 73
     4
 74
     0
 42
0.0000000001
 43
0.0000000001
 40
0.0
 40
0.0
 40
0.0
 40
0.0
 40
1.0
 40
1.0
 40
1.0
 40
1.0
 10
12.1196
 20
19.3749
 30
0.0
 10
12.1196
 20
19.3749
 30
0.0
 10
12.1196
 20
19.2434
 30
0.0
 10
12.1196
 20
19.2434
 30
0.0
  0
SPLINE
  5
99
330
1F
100
AcDbEntity
  8
DEFAULT_1
 62
   250
100
AcDbSpline
210
0.0
220
0.0
230
1.0
 70
    24
 71
     3
 72
     8
 73
     4
 74
     0
 42
0.0000000001
 43
0.0000000001
 40
0.0
 40
0.0
 40
0.0
 40
0.0
 40
1.0
 40
1.0
 40
1.0
 40
1.0
 10
11.891
 20
18.7588
 30
0.0
 10
11.891
 20
18.7588
 30
0.0
 10
11.891
 20
19.1821
 30
0.0
 10
11.891
 20
19.1821
 30
0.0
  0
SPLINE
  5
9A
330
1F
100
AcDbEntity
  8
DEFAULT_1
 62
   250
100
AcDbSpline
210
0.0
220
0.0
230
1.0
 70
    24
 71
     3
 72
     8
 73
     4
 74
     0
 42
0.0000000001
 43
0.0000000001
 40
0.0
 40
0.0
 40
0.0
 40
0.0
 40
1.0
 40
1.0
 40
1.0
 40
1.0
 10
11.891
 20
19.8594
 30
0.0
 10
11.891
 20
19.8594
 30
0.0
 10
11.891
 20
19.4361
 30
0.0
 10
11.891
 20
19.4361
 30
0.0
  0
SPLINE
  5
9B
330
1F
100
AcDbEntity
  8
DEFAULT_1
 62
   250
100
AcDbSpline
210
0.0
220
0.0
230
1.0
 70
    24
 71
     3
 72
     8
 73
     4
 74
     0
 42
0.0000000001
 43
0.0000000001
 40
0.0
 40
0.0
 40
0.0
 40
0.0
 40
1.0
 40
1.0
 40
1.0
 40
1.0
 10
12.1196
 20
19.2434
 30
0.0
 10
12.1196
 20
19.2434
 30
0.0
 10
11.891
 20
19.1821
 30
0.0
 10
11.891
 20
19.1821
 30
0.0
  0
SPLINE
  5
9C
330
1F
100
AcDbEntity
  8
DEFAULT_1
 62
   250
100
AcDbSpline
210
0.0
220
0.0
230
1.0
 70
    24
 71
     3
 72
     8
 73
     4
 74
     0
 42
0.0000000001
 43
0.0000000001
 40
0.0
 40
0.0
 40
0.0
 40
0.0
 40
1.0
 40
1.0
 40
1.0
 40
1.0
 10
12.1196
 20
19.3749
 30
0.0
 10
12.1196
 20
19.3749
 30
0.0
 10
11.891
 20
19.4361
 30
0.0
 10
11.891
 20
19.4361
 30
0.0
  0
SPLINE
  5
9D
330
1F
100
AcDbEntity
  8
DEFAULT_1
 62
   250
100
AcDbSpline
210
0.0
220
0.0
230
1.0
 70
    24
 71
     3
 72
     8
 73
     4
 74
     0
 42
0.0000000001
 43
0.0000000001
 40
0.0
 40
0.0
 40
0.0
 40
0.0
 40
1.0
 40
1.0
 40
1.0
 40
1.0
 10
11.891
 20
20.1135
 30
0.0
 10
11.891
 20
20.1135
 30
0.0
 10
12.1196
 20
20.0522
 30
0.0
 10
12.1196
 20
20.0522
 30
0.0
  0
SPLINE
  5
9E
330
1F
100
AcDbEntity
  8
DEFAULT_1
 62
   250
100
AcDbSpline
210
0.0
220
0.0
230
1.0
 70
    24
 71
     3
 72
     8
 73
     4
 74
     0
 42
0.0000000001
 43
0.0000000001
 40
0.0
 40
0.0
 40
0.0
 40
0.0
 40
1.0
 40
1.0
 40
1.0
 40
1.0
 10
12.1196
 20
19.9207
 30
0.0
 10
12.1196
 20
19.9207
 30
0.0
 10
11.891
 20
19.8594
 30
0.0
 10
11.891
 20
19.8594
 30
0.0
  0
SPLINE
  5
9F
330
1F
100
AcDbEntity
  8
DEFAULT_1
 62
   250
100
AcDbSpline
210
0.0
220
0.0
230
1.0
 70
    24
 71
     3
 72
     8
 73
     4
 74
     0
 42
0.0000000001
 43
0.0000000001
 40
0.0
 40
0.0
 40
0.0
 40
0.0
 40
1.0
 40
1.0
 40
1.0
 40
1.0
 10
12.1196
 20
19.9207
 30
0.0
 10
12.1196
 20
19.9207
 30
0.0
 10
12.1196
 20
20.0522
 30
0.0
 10
12.1196
 20
20.0522
 30
0.0
  0
SPLINE
  5
A0
330
1F
100
AcDbEntity
  8
DEFAULT_1
 62
   250
100
AcDbSpline
210
0.0
220
0.0
230
1.0
 70
    24
 71
     3
 72
     8
 73
     4
 74
     0
 42
0.0000000001
 43
0.0000000001
 40
0.0
 40
0.0
 40
0.0
 40
0.0
 40
1.0
 40
1.0
 40
1.0
 40
1.0
 10
12.1196
 20
20.7295
 30
0.0
 10
12.1196
 20
20.7295
 30
0.0
 10
12.1196
 20
20.5981
 30
0.0
 10
12.1196
 20
20.5981
 30
0.0
  0
SPLINE
  5
A1
330
1F
100
AcDbEntity
  8
DEFAULT_1
 62
   250
100
AcDbSpline
210
0.0
220
0.0
230
1.0
 70
    24
 71
     3
 72
     8
 73
     4
 74
     0
 42
0.0000000001
 43
0.0000000001
 40
0.0
 40
0.0
 40
0.0
 40
0.0
 40
1.0
 40
1.0
 40
1.0
 40
1.0
 10
11.891
 20
20.1135
 30
0.0
 10
11.891
 20
20.1135
 30
0.0
 10
11.891
 20
20.5368
 30
0.0
 10
11.891
 20
20.5368
 30
0.0
  0
SPLINE
  5
A2
330
1F
100
AcDbEntity
  8
DEFAULT_1
 62
   250
100
AcDbSpline
210
0.0
220
0.0
230
1.0
 70
    24
 71
     3
 72
     8
 73
     4
 74
     0
 42
0.0000000001
 43
0.0000000001
 40
0.0
 40
0.0
 40
0.0
 40
0.0
 40
1.0
 40
1.0
 40
1.0
 40
1.0
 10
11.891
 20
21.2142
 30
0.0
 10
11.891
 20
21.2142
 30
0.0
 10
11.891
 20
20.7909
 30
0.0
 10
11.891
 20
20.7909
 30
0.0
  0
SPLINE
  5
A3
330
1F
100
AcDbEntity
  8
DEFAULT_1
 62
   250
100
AcDbSpline
210
0.0
220
0.0
230
1.0
 70
    24
 71
     3
 72
     8
 73
     4
 74
     0
 42
0.0000000001
 43
0.0000000001
 40
0.0
 40
0.0
 40
0.0
 40
0.0
 40
1.0
 40
1.0
 40
1.0
 40
1.0
 10
12.1196
 20
20.5981
 30
0.0
 10
12.1196
 20
20.5981
 30
0.0
 10
11.891
 20
20.5368
 30
0.0
 10
11.891
 20
20.5368
 30
0.0
  0
SPLINE
  5
A4
330
1F
100
AcDbEntity
  8
DEFAULT_1
 62
   250
100
AcDbSpline
210
0.0
220
0.0
230
1.0
 70
    24
 71
     3
 72
     8
 73
     4
 74
     0
 42
0.0000000001
 43
0.0000000001
 40
0.0
 40
0.0
 40
0.0
 40
0.0
 40
1.0
 40
1.0
 40
1.0
 40
1.0
 10
12.1196
 20
20.7295
 30
0.0
 10
12.1196
 20
20.7295
 30
0.0
 10
11.891
 20
20.7909
 30
0.0
 10
11.891
 20
20.7909
 30
0.0
  0
SPLINE
  5
A5
330
1F
100
AcDbEntity
  8
DEFAULT_1
 62
   250
100
AcDbSpline
210
0.0
220
0.0
230
1.0
 70
    24
 71
     3
 72
     8
 73
     4
 74
     0
 42
0.0000000001
 43
0.0000000001
 40
0.0
 40
0.0
 40
0.0
 40
0.0
 40
1.0
 40
1.0
 40
1.0
 40
1.0
 10
11.891
 20
21.4682
 30
0.0
 10
11.891
 20
21.4682
 30
0.0
 10
12.1196
 20
21.4069
 30
0.0
 10
12.1196
 20
21.4069
 30
0.0
  0
SPLINE
  5
A6
330
1F
100
AcDbEntity
  8
DEFAULT_1
 62
   250
100
AcDbSpline
210
0.0
220
0.0
230
1.0
 70
    24
 71
     3
 72
     8
 73
     4
 74
     0
 42
0.0000000001
 43
0.0000000001
 40
0.0
 40
0.0
 40
0.0
 40
0.0
 40
1.0
 40
1.0
 40
1.0
 40
1.0
 10
12.1196
 20
21.2755
 30
0.0
 10
12.1196
 20
21.2755
 30
0.0
 10
11.891
 20
21.2142
 30
0.0
 10
11.891
 20
21.2142
 30
0.0
  0
SPLINE
  5
A7
330
1F
100
AcDbEntity
  8
DEFAULT_1
 62
   250
100
AcDbSpline
210
0.0
220
0.0
230
1.0
 70
    24
 71
     3
 72
     8
 73
     4
 74
     0
 42
0.0000000001
 43
0.0000000001
 40
0.0
 40
0.0
 40
0.0
 40
0.0
 40
1.0
 40
1.0
 40
1.0
 40
1.0
 10
12.1196
 20
21.2755
 30
0.0
 10
12.1196
 20
21.2755
 30
0.0
 10
12.1196
 20
21.4069
 30
0.0
 10
12.1196
 20
21.4069
 30
0.0
  0
SPLINE
  5
A8
330
1F
100
AcDbEntity
  8
DEFAULT_1
 62
   250
100
AcDbSpline
210
0.0
220
0.0
230
1.0
 70
    24
 71
     3
 72
     8
 73
     4
 74
     0
 42
0.0000000001
 43
0.0000000001
 40
0.0
 40
0.0
 40
0.0
 40
0.0
 40
1.0
 40
1.0
 40
1.0
 40
1.0
 10
12.1196
 20
22.0843
 30
0.0
 10
12.1196
 20
22.0843
 30
0.0
 10
12.1196
 20
21.9527
 30
0.0
 10
12.1196
 20
21.9527
 30
0.0
  0
SPLINE
  5
A9
330
1F
100
AcDbEntity
  8
DEFAULT_1
 62
   250
100
AcDbSpline
210
0.0
220
0.0
230
1.0
 70
    24
 71
     3
 72
     8
 73
     4
 74
     0
 42
0.0000000001
 43
0.0000000001
 40
0.0
 40
0.0
 40
0.0
 40
0.0
 40
1.0
 40
1.0
 40
1.0
 40
1.0
 10
11.891
 20
21.4682
 30
0.0
 10
11.891
 20
21.4682
 30
0.0
 10
11.891
 20
21.8916
 30
0.0
 10
11.891
 20
21.8916
 30
0.0
  0
SPLINE
  5
AA
330
1F
100
AcDbEntity
  8
DEFAULT_1
 62
   250
100
AcDbSpline
210
0.0
220
0.0
230
1.0
 70
    24
 71
     3
 72
     8
 73
     4
 74
     0
 42
0.0000000001
 43
0.0000000001
 40
0.0
 40
0.0
 40
0.0
 40
0.0
 40
1.0
 40
1.0
 40
1.0
 40
1.0
 10
11.891
 20
22.5688
 30
0.0
 10
11.891
 20
22.5688
 30
0.0
 10
11.891
 20
22.1456
 30
0.0
 10
11.891
 20
22.1456
 30
0.0
  0
SPLINE
  5
AB
330
1F
100
AcDbEntity
  8
DEFAULT_1
 62
   250
100
AcDbSpline
210
0.0
220
0.0
230
1.0
 70
    24
 71
     3
 72
     8
 73
     4
 74
     0
 42
0.0000000001
 43
0.0000000001
 40
0.0
 40
0.0
 40
0.0
 40
0.0
 40
1.0
 40
1.0
 40
1.0
 40
1.0
 10
12.1196
 20
21.9527
 30
0.0
 10
12.1196
 20
21.9527
 30
0.0
 10
11.891
 20
21.8916
 30
0.0
 10
11.891
 20
21.8916
 30
0.0
  0
SPLINE
  5
AC
330
1F
100
AcDbEntity
  8
DEFAULT_1
 62
   250
100
AcDbSpline
210
0.0
220
0.0
230
1.0
 70
    24
 71
     3
 72
     8
 73
     4
 74
     0
 42
0.0000000001
 43
0.0000000001
 40
0.0
 40
0.0
 40
0.0
 40
0.0
 40
1.0
 40
1.0
 40
1.0
 40
1.0
 10
12.1196
 20
22.0843
 30
0.0
 10
12.1196
 20
22.0843
 30
0.0
 10
11.891
 20
22.1456
 30
0.0
 10
11.891
 20
22.1456
 30
0.0
  0
SPLINE
  5
AD
330
1F
100
AcDbEntity
  8
DEFAULT_1
 62
   250
100
AcDbSpline
210
0.0
220
0.0
230
1.0
 70
    24
 71
     3
 72
     8
 73
     4
 74
     0
 42
0.0000000001
 43
0.0000000001
 40
0.0
 40
0.0
 40
0.0
 40
0.0
 40
1.0
 40
1.0
 40
1.0
 40
1.0
 10
11.891
 20
22.8229
 30
0.0
 10
11.891
 20
22.8229
 30
0.0
 10
12.1196
 20
22.7617
 30
0.0
 10
12.1196
 20
22.7617
 30
0.0
  0
SPLINE
  5
AE
330
1F
100
AcDbEntity
  8
DEFAULT_1
 62
   250
100
AcDbSpline
210
0.0
220
0.0
230
1.0
 70
    24
 71
     3
 72
     8
 73
     4
 74
     0
 42
0.0000000001
 43
0.0000000001
 40
0.0
 40
0.0
 40
0.0
 40
0.0
 40
1.0
 40
1.0
 40
1.0
 40
1.0
 10
12.1196
 20
22.6301
 30
0.0
 10
12.1196
 20
22.6301
 30
0.0
 10
11.891
 20
22.5688
 30
0.0
 10
11.891
 20
22.5688
 30
0.0
  0
SPLINE
  5
AF
330
1F
100
AcDbEntity
  8
DEFAULT_1
 62
   250
100
AcDbSpline
210
0.0
220
0.0
230
1.0
 70
    24
 71
     3
 72
     8
 73
     4
 74
     0
 42
0.0000000001
 43
0.0000000001
 40
0.0
 40
0.0
 40
0.0
 40
0.0
 40
1.0
 40
1.0
 40
1.0
 40
1.0
 10
12.1196
 20
22.6301
 30
0.0
 10
12.1196
 20
22.6301
 30
0.0
 10
12.1196
 20
22.7617
 30
0.0
 10
12.1196
 20
22.7617
 30
0.0
  0
SPLINE
  5
B0
330
1F
100
AcDbEntity
  8
DEFAULT_1
 62
   250
100
AcDbSpline
210
0.0
220
0.0
230
1.0
 70
    24
 71
     3
 72
     8
 73
     4
 74
     0
 42
0.0000000001
 43
0.0000000001
 40
0.0
 40
0.0
 40
0.0
 40
0.0
 40
1.0
 40
1.0
 40
1.0
 40
1.0
 10
12.1196
 20
23.4391
 30
0.0
 10
12.1196
 20
23.4391
 30
0.0
 10
12.1196
 20
23.3075
 30
0.0
 10
12.1196
 20
23.3075
 30
0.0
  0
SPLINE
  5
B1
330
1F
100
AcDbEntity
  8
DEFAULT_1
 62
   250
100
AcDbSpline
210
0.0
220
0.0
230
1.0
 70
    24
 71
     3
 72
     8
 73
     4
 74
     0
 42
0.0000000001
 43
0.0000000001
 40
0.0
 40
0.0
 40
0.0
 40
0.0
 40
1.0
 40
1.0
 40
1.0
 40
1.0
 10
11.891
 20
22.8229
 30
0.0
 10
11.891
 20
22.8229
 30
0.0
 10
11.891
 20
23.2462
 30
0.0
 10
11.891
 20
23.2462
 30
0.0
  0
SPLINE
  5
B2
330
1F
100
AcDbEntity
  8
DEFAULT_1
 62
   250
100
AcDbSpline
210
0.0
220
0.0
230
1.0
 70
    24
 71
     3
 72
     8
 73
     4
 74
     0
 42
0.0000000001
 43
0.0000000001
 40
0.0
 40
0.0
 40
0.0
 40
0.0
 40
1.0
 40
1.0
 40
1.0
 40
1.0
 10
11.891
 20
23.9236
 30
0.0
 10
11.891
 20
23.9236
 30
0.0
 10
11.891
 20
23.5002
 30
0.0
 10
11.891
 20
23.5002
 30
0.0
  0
SPLINE
  5
B3
330
1F
100
AcDbEntity
  8
DEFAULT_1
 62
   250
100
AcDbSpline
210
0.0
220
0.0
230
1.0
 70
    24
 71
     3
 72
     8
 73
     4
 74
     0
 42
0.0000000001
 43
0.0000000001
 40
0.0
 40
0.0
 40
0.0
 40
0.0
 40
1.0
 40
1.0
 40
1.0
 40
1.0
 10
12.1196
 20
23.3075
 30
0.0
 10
12.1196
 20
23.3075
 30
0.0
 10
11.891
 20
23.2462
 30
0.0
 10
11.891
 20
23.2462
 30
0.0
  0
SPLINE
  5
B4
330
1F
100
AcDbEntity
  8
DEFAULT_1
 62
   250
100
AcDbSpline
210
0.0
220
0.0
230
1.0
 70
    24
 71
     3
 72
     8
 73
     4
 74
     0
 42
0.0000000001
 43
0.0000000001
 40
0.0
 40
0.0
 40
0.0
 40
0.0
 40
1.0
 40
1.0
 40
1.0
 40
1.0
 10
12.1196
 20
23.4391
 30
0.0
 10
12.1196
 20
23.4391
 30
0.0
 10
11.891
 20
23.5002
 30
0.0
 10
11.891
 20
23.5002
 30
0.0
  0
SPLINE
  5
B5
330
1F
100
AcDbEntity
  8
DEFAULT_1
 62
   250
100
AcDbSpline
210
0.0
220
0.0
230
1.0
 70
    24
 71
     3
 72
     8
 73
     4
 74
     0
 42
0.0000000001
 43
0.0000000001
 40
0.0
 40
0.0
 40
0.0
 40
0.0
 40
1.0
 40
1.0
 40
1.0
 40
1.0
 10
11.891
 20
24.1776
 30
0.0
 10
11.891
 20
24.1776
 30
0.0
 10
12.1196
 20
24.1163
 30
0.0
 10
12.1196
 20
24.1163
 30
0.0
  0
SPLINE
  5
B6
330
1F
100
AcDbEntity
  8
DEFAULT_1
 62
   250
100
AcDbSpline
210
0.0
220
0.0
230
1.0
 70
    24
 71
     3
 72
     8
 73
     4
 74
     0
 42
0.0000000001
 43
0.0000000001
 40
0.0
 40
0.0
 40
0.0
 40
0.0
 40
1.0
 40
1.0
 40
1.0
 40
1.0
 10
12.1196
 20
23.9849
 30
0.0
 10
12.1196
 20
23.9849
 30
0.0
 10
11.891
 20
23.9236
 30
0.0
 10
11.891
 20
23.9236
 30
0.0
  0
SPLINE
  5
B7
330
1F
100
AcDbEntity
  8
DEFAULT_1
 62
   250
100
AcDbSpline
210
0.0
220
0.0
230
1.0
 70
    24
 71
     3
 72
     8
 73
     4
 74
     0
 42
0.0000000001
 43
0.0000000001
 40
0.0
 40
0.0
 40
0.0
 40
0.0
 40
1.0
 40
1.0
 40
1.0
 40
1.0
 10
12.1196
 20
23.9849
 30
0.0
 10
12.1196
 20
23.9849
 30
0.0
 10
12.1196
 20
24.1163
 30
0.0
 10
12.1196
 20
24.1163
 30
0.0
  0
SPLINE
  5
B8
330
1F
100
AcDbEntity
  8
DEFAULT_1
 62
   250
100
AcDbSpline
210
0.0
220
0.0
230
1.0
 70
    24
 71
     3
 72
     8
 73
     4
 74
     0
 42
0.0000000001
 43
0.0000000001
 40
0.0
 40
0.0
 40
0.0
 40
0.0
 40
1.0
 40
1.0
 40
1.0
 40
1.0
 10
12.1196
 20
24.7937
 30
0.0
 10
12.1196
 20
24.7937
 30
0.0
 10
12.1196
 20
24.6623
 30
0.0
 10
12.1196
 20
24.6623
 30
0.0
  0
SPLINE
  5
B9
330
1F
100
AcDbEntity
  8
DEFAULT_1
 62
   250
100
AcDbSpline
210
0.0
220
0.0
230
1.0
 70
    24
 71
     3
 72
     8
 73
     4
 74
     0
 42
0.0000000001
 43
0.0000000001
 40
0.0
 40
0.0
 40
0.0
 40
0.0
 40
1.0
 40
1.0
 40
1.0
 40
1.0
 10
11.891
 20
24.1776
 30
0.0
 10
11.891
 20
24.1776
 30
0.0
 10
11.891
 20
24.6009
 30
0.0
 10
11.891
 20
24.6009
 30
0.0
  0
SPLINE
  5
BA
330
1F
100
AcDbEntity
  8
DEFAULT_1
 62
   250
100
AcDbSpline
210
0.0
220
0.0
230
1.0
 70
    24
 71
     3
 72
     8
 73
     4
 74
     0
 42
0.0000000001
 43
0.0000000001
 40
0.0
 40
0.0
 40
0.0
 40
0.0
 40
1.0
 40
1.0
 40
1.0
 40
1.0
 10
11.891
 20
25.2783
 30
0.0
 10
11.891
 20
25.2783
 30
0.0
 10
11.891
 20
24.855
 30
0.0
 10
11.891
 20
24.855
 30
0.0
  0
SPLINE
  5
BB
330
1F
100
AcDbEntity
  8
DEFAULT_1
 62
   250
100
AcDbSpline
210
0.0
220
0.0
230
1.0
 70
    24
 71
     3
 72
     8
 73
     4
 74
     0
 42
0.0000000001
 43
0.0000000001
 40
0.0
 40
0.0
 40
0.0
 40
0.0
 40
1.0
 40
1.0
 40
1.0
 40
1.0
 10
12.1196
 20
24.6623
 30
0.0
 10
12.1196
 20
24.6623
 30
0.0
 10
11.891
 20
24.6009
 30
0.0
 10
11.891
 20
24.6009
 30
0.0
  0
SPLINE
  5
BC
330
1F
100
AcDbEntity
  8
DEFAULT_1
 62
   250
100
AcDbSpline
210
0.0
220
0.0
230
1.0
 70
    24
 71
     3
 72
     8
 73
     4
 74
     0
 42
0.0000000001
 43
0.0000000001
 40
0.0
 40
0.0
 40
0.0
 40
0.0
 40
1.0
 40
1.0
 40
1.0
 40
1.0
 10
12.1196
 20
24.7937
 30
0.0
 10
12.1196
 20
24.7937
 30
0.0
 10
11.891
 20
24.855
 30
0.0
 10
11.891
 20
24.855
 30
0.0
  0
SPLINE
  5
BD
330
1F
100
AcDbEntity
  8
DEFAULT_1
 62
   250
100
AcDbSpline
210
0.0
220
0.0
230
1.0
 70
    24
 71
     3
 72
     8
 73
     4
 74
     0
 42
0.0000000001
 43
0.0000000001
 40
0.0
 40
0.0
 40
0.0
 40
0.0
 40
1.0
 40
1.0
 40
1.0
 40
1.0
 10
11.891
 20
25.5324
 30
0.0
 10
11.891
 20
25.5324
 30
0.0
 10
12.1196
 20
25.471
 30
0.0
 10
12.1196
 20
25.471
 30
0.0
  0
SPLINE
  5
BE
330
1F
100
AcDbEntity
  8
DEFAULT_1
 62
   250
100
AcDbSpline
210
0.0
220
0.0
230
1.0
 70
    24
 71
     3
 72
     8
 73
     4
 74
     0
 42
0.0000000001
 43
0.0000000001
 40
0.0
 40
0.0
 40
0.0
 40
0.0
 40
1.0
 40
1.0
 40
1.0
 40
1.0
 10
12.1196
 20
25.3396
 30
0.0
 10
12.1196
 20
25.3396
 30
0.0
 10
11.891
 20
25.2783
 30
0.0
 10
11.891
 20
25.2783
 30
0.0
  0
SPLINE
  5
BF
330
1F
100
AcDbEntity
  8
DEFAULT_1
 62
   250
100
AcDbSpline
210
0.0
220
0.0
230
1.0
 70
    24
 71
     3
 72
     8
 73
     4
 74
     0
 42
0.0000000001
 43
0.0000000001
 40
0.0
 40
0.0
 40
0.0
 40
0.0
 40
1.0
 40
1.0
 40
1.0
 40
1.0
 10
12.1196
 20
25.3396
 30
0.0
 10
12.1196
 20
25.3396
 30
0.0
 10
12.1196
 20
25.471
 30
0.0
 10
12.1196
 20
25.471
 30
0.0
  0
SPLINE
  5
C0
330
1F
100
AcDbEntity
  8
DEFAULT_1
 62
   250
100
AcDbSpline
210
0.0
220
0.0
230
1.0
 70
    24
 71
     3
 72
     8
 73
     4
 74
     0
 42
0.0000000001
 43
0.0000000001
 40
0.0
 40
0.0
 40
0.0
 40
0.0
 40
1.0
 40
1.0
 40
1.0
 40
1.0
 10
11.891
 20
25.9557
 30
0.0
 10
11.891
 20
25.9557
 30
0.0
 10
12.1196
 20
26.017
 30
0.0
 10
12.1196
 20
26.017
 30
0.0
  0
SPLINE
  5
C1
330
1F
100
AcDbEntity
  8
DEFAULT_1
 62
   250
100
AcDbSpline
210
0.0
220
0.0
230
1.0
 70
    24
 71
     3
 72
     8
 73
     4
 74
     0
 42
0.0000000001
 43
0.0000000001
 40
0.0
 40
0.0
 40
0.0
 40
0.0
 40
1.0
 40
1.0
 40
1.0
 40
1.0
 10
11.891
 20
25.9557
 30
0.0
 10
11.891
 20
25.9557
 30
0.0
 10
11.891
 20
25.5324
 30
0.0
 10
11.891
 20
25.5324
 30
0.0
  0
SPLINE
  5
C2
330
1F
100
AcDbEntity
  8
DEFAULT_1
 62
   250
100
AcDbSpline
210
0.0
220
0.0
230
1.0
 70
    24
 71
     3
 72
     8
 73
     4
 74
     0
 42
0.0000000001
 43
0.0000000001
 40
0.0
 40
0.0
 40
0.0
 40
0.0
 40
1.0
 40
1.0
 40
1.0
 40
1.0
 10
-5.2125
 20
25.9557
 30
0.0
 10
-5.2125
 20
25.9557
 30
0.0
 10
-5.4412
 20
26.017
 30
0.0
 10
-5.4412
 20
26.017
 30
0.0
  0
SPLINE
  5
C3
330
1F
100
AcDbEntity
  8
DEFAULT_1
 62
   250
100
AcDbSpline
210
0.0
220
0.0
230
1.0
 70
    24
 71
     3
 72
     8
 73
     4
 74
     0
 42
0.0000000001
 43
0.0000000001
 40
0.0
 40
0.0
 40
0.0
 40
0.0
 40
1.0
 40
1.0
 40
1.0
 40
1.0
 10
-5.4412
 20
25.471
 30
0.0
 10
-5.4412
 20
25.471
 30
0.0
 10
-5.4412
 20
25.3396
 30
0.0
 10
-5.4412
 20
25.3396
 30
0.0
  0
SPLINE
  5
C4
330
1F
100
AcDbEntity
  8
DEFAULT_1
 62
   250
100
AcDbSpline
210
0.0
220
0.0
230
1.0
 70
    24
 71
     3
 72
     8
 73
     4
 74
     0
 42
0.0000000001
 43
0.0000000001
 40
0.0
 40
0.0
 40
0.0
 40
0.0
 40
1.0
 40
1.0
 40
1.0
 40
1.0
 10
-5.4412
 20
24.7937
 30
0.0
 10
-5.4412
 20
24.7937
 30
0.0
 10
-5.4412
 20
24.6623
 30
0.0
 10
-5.4412
 20
24.6623
 30
0.0
  0
SPLINE
  5
C5
330
1F
100
AcDbEntity
  8
DEFAULT_1
 62
   250
100
AcDbSpline
210
0.0
220
0.0
230
1.0
 70
    24
 71
     3
 72
     8
 73
     4
 74
     0
 42
0.0000000001
 43
0.0000000001
 40
0.0
 40
0.0
 40
0.0
 40
0.0
 40
1.0
 40
1.0
 40
1.0
 40
1.0
 10
-5.4412
 20
23.9849
 30
0.0
 10
-5.4412
 20
23.9849
 30
0.0
 10
-5.4412
 20
24.1163
 30
0.0
 10
-5.4412
 20
24.1163
 30
0.0
  0
SPLINE
  5
C6
330
1F
100
AcDbEntity
  8
DEFAULT_1
 62
   250
100
AcDbSpline
210
0.0
220
0.0
230
1.0
 70
    24
 71
     3
 72
     8
 73
     4
 74
     0
 42
0.0000000001
 43
0.0000000001
 40
0.0
 40
0.0
 40
0.0
 40
0.0
 40
1.0
 40
1.0
 40
1.0
 40
1.0
 10
-5.2125
 20
24.1776
 30
0.0
 10
-5.2125
 20
24.1776
 30
0.0
 10
-5.4412
 20
24.1163
 30
0.0
 10
-5.4412
 20
24.1163
 30
0.0
  0
SPLINE
  5
C7
330
1F
100
AcDbEntity
  8
DEFAULT_1
 62
   250
100
AcDbSpline
210
0.0
220
0.0
230
1.0
 70
    24
 71
     3
 72
     8
 73
     4
 74
     0
 42
0.0000000001
 43
0.0000000001
 40
0.0
 40
0.0
 40
0.0
 40
0.0
 40
1.0
 40
1.0
 40
1.0
 40
1.0
 10
-5.4412
 20
23.4391
 30
0.0
 10
-5.4412
 20
23.4391
 30
0.0
 10
-5.2125
 20
23.5002
 30
0.0
 10
-5.2125
 20
23.5002
 30
0.0
  0
SPLINE
  5
C8
330
1F
100
AcDbEntity
  8
DEFAULT_1
 62
   250
100
AcDbSpline
210
0.0
220
0.0
230
1.0
 70
    24
 71
     3
 72
     8
 73
     4
 74
     0
 42
0.0000000001
 43
0.0000000001
 40
0.0
 40
0.0
 40
0.0
 40
0.0
 40
1.0
 40
1.0
 40
1.0
 40
1.0
 10
-5.4412
 20
23.9849
 30
0.0
 10
-5.4412
 20
23.9849
 30
0.0
 10
-5.2125
 20
23.9236
 30
0.0
 10
-5.2125
 20
23.9236
 30
0.0
  0
SPLINE
  5
C9
330
1F
100
AcDbEntity
  8
DEFAULT_1
 62
   250
100
AcDbSpline
210
0.0
220
0.0
230
1.0
 70
    24
 71
     3
 72
     8
 73
     4
 74
     0
 42
0.0000000001
 43
0.0000000001
 40
0.0
 40
0.0
 40
0.0
 40
0.0
 40
1.0
 40
1.0
 40
1.0
 40
1.0
 10
-5.4412
 20
23.3075
 30
0.0
 10
-5.4412
 20
23.3075
 30
0.0
 10
-5.2125
 20
23.2462
 30
0.0
 10
-5.2125
 20
23.2462
 30
0.0
  0
SPLINE
  5
CA
330
1F
100
AcDbEntity
  8
DEFAULT_1
 62
   250
100
AcDbSpline
210
0.0
220
0.0
230
1.0
 70
    24
 71
     3
 72
     8
 73
     4
 74
     0
 42
0.0000000001
 43
0.0000000001
 40
0.0
 40
0.0
 40
0.0
 40
0.0
 40
1.0
 40
1.0
 40
1.0
 40
1.0
 10
-5.4412
 20
22.6301
 30
0.0
 10
-5.4412
 20
22.6301
 30
0.0
 10
-5.2125
 20
22.5688
 30
0.0
 10
-5.2125
 20
22.5688
 30
0.0
  0
SPLINE
  5
CB
330
1F
100
AcDbEntity
  8
DEFAULT_1
 62
   250
100
AcDbSpline
210
0.0
220
0.0
230
1.0
 70
    24
 71
     3
 72
     8
 73
     4
 74
     0
 42
0.0000000001
 43
0.0000000001
 40
0.0
 40
0.0
 40
0.0
 40
0.0
 40
1.0
 40
1.0
 40
1.0
 40
1.0
 10
-5.4412
 20
21.9527
 30
0.0
 10
-5.4412
 20
21.9527
 30
0.0
 10
-5.2125
 20
21.8916
 30
0.0
 10
-5.2125
 20
21.8916
 30
0.0
  0
SPLINE
  5
CC
330
1F
100
AcDbEntity
  8
DEFAULT_1
 62
   250
100
AcDbSpline
210
0.0
220
0.0
230
1.0
 70
    24
 71
     3
 72
     8
 73
     4
 74
     0
 42
0.0000000001
 43
0.0000000001
 40
0.0
 40
0.0
 40
0.0
 40
0.0
 40
1.0
 40
1.0
 40
1.0
 40
1.0
 10
-5.4412
 20
21.2755
 30
0.0
 10
-5.4412
 20
21.2755
 30
0.0
 10
-5.2125
 20
21.2142
 30
0.0
 10
-5.2125
 20
21.2142
 30
0.0
  0
SPLINE
  5
CD
330
1F
100
AcDbEntity
  8
DEFAULT_1
 62
   250
100
AcDbSpline
210
0.0
220
0.0
230
1.0
 70
    24
 71
     3
 72
     8
 73
     4
 74
     0
 42
0.0000000001
 43
0.0000000001
 40
0.0
 40
0.0
 40
0.0
 40
0.0
 40
1.0
 40
1.0
 40
1.0
 40
1.0
 10
-5.4412
 20
20.5981
 30
0.0
 10
-5.4412
 20
20.5981
 30
0.0
 10
-5.2125
 20
20.5368
 30
0.0
 10
-5.2125
 20
20.5368
 30
0.0
  0
SPLINE
  5
CE
330
1F
100
AcDbEntity
  8
DEFAULT_1
 62
   250
100
AcDbSpline
210
0.0
220
0.0
230
1.0
 70
    24
 71
     3
 72
     8
 73
     4
 74
     0
 42
0.0000000001
 43
0.0000000001
 40
0.0
 40
0.0
 40
0.0
 40
0.0
 40
1.0
 40
1.0
 40
1.0
 40
1.0
 10
-5.4412
 20
19.9207
 30
0.0
 10
-5.4412
 20
19.9207
 30
0.0
 10
-5.2125
 20
19.8594
 30
0.0
 10
-5.2125
 20
19.8594
 30
0.0
  0
SPLINE
  5
CF
330
1F
100
AcDbEntity
  8
DEFAULT_1
 62
   250
100
AcDbSpline
210
0.0
220
0.0
230
1.0
 70
    24
 71
     3
 72
     8
 73
     4
 74
     0
 42
0.0000000001
 43
0.0000000001
 40
0.0
 40
0.0
 40
0.0
 40
0.0
 40
1.0
 40
1.0
 40
1.0
 40
1.0
 10
-5.4412
 20
19.2434
 30
0.0
 10
-5.4412
 20
19.2434
 30
0.0
 10
-5.2125
 20
19.1821
 30
0.0
 10
-5.2125
 20
19.1821
 30
0.0
  0
SPLINE
  5
D0
330
1F
100
AcDbEntity
  8
DEFAULT_1
 62
   250
100
AcDbSpline
210
0.0
220
0.0
230
1.0
 70
    24
 71
     3
 72
     8
 73
     4
 74
     0
 42
0.0000000001
 43
0.0000000001
 40
0.0
 40
0.0
 40
0.0
 40
0.0
 40
1.0
 40
1.0
 40
1.0
 40
1.0
 10
-5.4412
 20
18.566
 30
0.0
 10
-5.4412
 20
18.566
 30
0.0
 10
-5.2125
 20
18.5048
 30
0.0
 10
-5.2125
 20
18.5048
 30
0.0
  0
SPLINE
  5
D1
330
1F
100
AcDbEntity
  8
DEFAULT_1
 62
   250
100
AcDbSpline
210
0.0
220
0.0
230
1.0
 70
    24
 71
     3
 72
     8
 73
     4
 74
     0
 42
0.0000000001
 43
0.0000000001
 40
0.0
 40
0.0
 40
0.0
 40
0.0
 40
1.0
 40
1.0
 40
1.0
 40
1.0
 10
-5.4412
 20
17.8886
 30
0.0
 10
-5.4412
 20
17.8886
 30
0.0
 10
-5.2125
 20
17.8274
 30
0.0
 10
-5.2125
 20
17.8274
 30
0.0
  0
SPLINE
  5
D2
330
1F
100
AcDbEntity
  8
DEFAULT_1
 62
   250
100
AcDbSpline
210
0.0
220
0.0
230
1.0
 70
    24
 71
     3
 72
     8
 73
     4
 74
     0
 42
0.0000000001
 43
0.0000000001
 40
0.0
 40
0.0
 40
0.0
 40
0.0
 40
1.0
 40
1.0
 40
1.0
 40
1.0
 10
-5.4412
 20
17.2112
 30
0.0
 10
-5.4412
 20
17.2112
 30
0.0
 10
-5.2125
 20
17.15
 30
0.0
 10
-5.2125
 20
17.15
 30
0.0
  0
SPLINE
  5
D3
330
1F
100
AcDbEntity
  8
DEFAULT_1
 62
   250
100
AcDbSpline
210
0.0
220
0.0
230
1.0
 70
    24
 71
     3
 72
     8
 73
     4
 74
     0
 42
0.0000000001
 43
0.0000000001
 40
0.0
 40
0.0
 40
0.0
 40
0.0
 40
1.0
 40
1.0
 40
1.0
 40
1.0
 10
-5.4412
 20
16.5339
 30
0.0
 10
-5.4412
 20
16.5339
 30
0.0
 10
-5.2125
 20
16.4726
 30
0.0
 10
-5.2125
 20
16.4726
 30
0.0
  0
SPLINE
  5
D4
330
1F
100
AcDbEntity
  8
DEFAULT_1
 62
   250
100
AcDbSpline
210
0.0
220
0.0
230
1.0
 70
    24
 71
     3
 72
     8
 73
     4
 74
     0
 42
0.0000000001
 43
0.0000000001
 40
0.0
 40
0.0
 40
0.0
 40
0.0
 40
1.0
 40
1.0
 40
1.0
 40
1.0
 10
-5.4412
 20
15.8565
 30
0.0
 10
-5.4412
 20
15.8565
 30
0.0
 10
-5.2125
 20
15.7952
 30
0.0
 10
-5.2125
 20
15.7952
 30
0.0
  0
SPLINE
  5
D5
330
1F
100
AcDbEntity
  8
DEFAULT_1
 62
   250
100
AcDbSpline
210
0.0
220
0.0
230
1.0
 70
    24
 71
     3
 72
     8
 73
     4
 74
     0
 42
0.0000000001
 43
0.0000000001
 40
0.0
 40
0.0
 40
0.0
 40
0.0
 40
1.0
 40
1.0
 40
1.0
 40
1.0
 10
-5.4412
 20
15.1791
 30
0.0
 10
-5.4412
 20
15.1791
 30
0.0
 10
-5.2125
 20
15.1179
 30
0.0
 10
-5.2125
 20
15.1179
 30
0.0
  0
SPLINE
  5
D6
330
1F
100
AcDbEntity
  8
DEFAULT_1
 62
   250
100
AcDbSpline
210
0.0
220
0.0
230
1.0
 70
    24
 71
     3
 72
     8
 73
     4
 74
     0
 42
0.0000000001
 43
0.0000000001
 40
0.0
 40
0.0
 40
0.0
 40
0.0
 40
1.0
 40
1.0
 40
1.0
 40
1.0
 10
-5.4412
 20
14.5018
 30
0.0
 10
-5.4412
 20
14.5018
 30
0.0
 10
-5.2125
 20
14.4405
 30
0.0
 10
-5.2125
 20
14.4405
 30
0.0
  0
SPLINE
  5
D7
330
1F
100
AcDbEntity
  8
DEFAULT_1
 62
   250
100
AcDbSpline
210
0.0
220
0.0
230
1.0
 70
    24
 71
     3
 72
     8
 73
     4
 74
     0
 42
0.0000000001
 43
0.0000000001
 40
0.0
 40
0.0
 40
0.0
 40
0.0
 40
1.0
 40
1.0
 40
1.0
 40
1.0
 10
-5.4412
 20
13.8244
 30
0.0
 10
-5.4412
 20
13.8244
 30
0.0
 10
-5.2125
 20
13.7631
 30
0.0
 10
-5.2125
 20
13.7631
 30
0.0
  0
SPLINE
  5
D8
330
1F
100
AcDbEntity
  8
DEFAULT_1
 62
   250
100
AcDbSpline
210
0.0
220
0.0
230
1.0
 70
    24
 71
     3
 72
     8
 73
     4
 74
     0
 42
0.0000000001
 43
0.0000000001
 40
0.0
 40
0.0
 40
0.0
 40
0.0
 40
1.0
 40
1.0
 40
1.0
 40
1.0
 10
-5.4412
 20
13.1471
 30
0.0
 10
-5.4412
 20
13.1471
 30
0.0
 10
-5.2125
 20
13.0857
 30
0.0
 10
-5.2125
 20
13.0857
 30
0.0
  0
SPLINE
  5
D9
330
1F
100
AcDbEntity
  8
DEFAULT_1
 62
   250
100
AcDbSpline
210
0.0
220
0.0
230
1.0
 70
    24
 71
     3
 72
     8
 73
     4
 74
     0
 42
0.0000000001
 43
0.0000000001
 40
0.0
 40
0.0
 40
0.0
 40
0.0
 40
1.0
 40
1.0
 40
1.0
 40
1.0
 10
-5.4412
 20
12.4697
 30
0.0
 10
-5.4412
 20
12.4697
 30
0.0
 10
-5.2125
 20
12.4085
 30
0.0
 10
-5.2125
 20
12.4085
 30
0.0
  0
SPLINE
  5
DA
330
1F
100
AcDbEntity
  8
DEFAULT_1
 62
   250
100
AcDbSpline
210
0.0
220
0.0
230
1.0
 70
    24
 71
     3
 72
     8
 73
     4
 74
     0
 42
0.0000000001
 43
0.0000000001
 40
0.0
 40
0.0
 40
0.0
 40
0.0
 40
1.0
 40
1.0
 40
1.0
 40
1.0
 10
-5.2125
 20
12.6624
 30
0.0
 10
-5.2125
 20
12.6624
 30
0.0
 10
-5.4412
 20
12.6012
 30
0.0
 10
-5.4412
 20
12.6012
 30
0.0
  0
SPLINE
  5
DB
330
1F
100
AcDbEntity
  8
DEFAULT_1
 62
   250
100
AcDbSpline
210
0.0
220
0.0
230
1.0
 70
    24
 71
     3
 72
     8
 73
     4
 74
     0
 42
0.0000000001
 43
0.0000000001
 40
0.0
 40
0.0
 40
0.0
 40
0.0
 40
1.0
 40
1.0
 40
1.0
 40
1.0
 10
-5.4412
 20
11.9238
 30
0.0
 10
-5.4412
 20
11.9238
 30
0.0
 10
-5.2125
 20
11.9851
 30
0.0
 10
-5.2125
 20
11.9851
 30
0.0
  0
SPLINE
  5
DC
330
1F
100
AcDbEntity
  8
DEFAULT_1
 62
   250
100
AcDbSpline
210
0.0
220
0.0
230
1.0
 70
    24
 71
     3
 72
     8
 73
     4
 74
     0
 42
0.0000000001
 43
0.0000000001
 40
0.0
 40
0.0
 40
0.0
 40
0.0
 40
1.0
 40
1.0
 40
1.0
 40
1.0
 10
-5.4412
 20
12.4697
 30
0.0
 10
-5.4412
 20
12.4697
 30
0.0
 10
-5.4412
 20
12.6012
 30
0.0
 10
-5.4412
 20
12.6012
 30
0.0
  0
SPLINE
  5
DD
330
1F
100
AcDbEntity
  8
DEFAULT_1
 62
   250
100
AcDbSpline
210
0.0
220
0.0
230
1.0
 70
    24
 71
     3
 72
     8
 73
     4
 74
     0
 42
0.0000000001
 43
0.0000000001
 40
0.0
 40
0.0
 40
0.0
 40
0.0
 40
1.0
 40
1.0
 40
1.0
 40
1.0
 10
-5.4412
 20
13.2786
 30
0.0
 10
-5.4412
 20
13.2786
 30
0.0
 10
-5.4412
 20
13.1471
 30
0.0
 10
-5.4412
 20
13.1471
 30
0.0
  0
SPLINE
  5
DE
330
1F
100
AcDbEntity
  8
DEFAULT_1
 62
   250
100
AcDbSpline
210
0.0
220
0.0
230
1.0
 70
    24
 71
     3
 72
     8
 73
     4
 74
     0
 42
0.0000000001
 43
0.0000000001
 40
0.0
 40
0.0
 40
0.0
 40
0.0
 40
1.0
 40
1.0
 40
1.0
 40
1.0
 10
-5.2125
 20
12.6624
 30
0.0
 10
-5.2125
 20
12.6624
 30
0.0
 10
-5.2125
 20
13.0857
 30
0.0
 10
-5.2125
 20
13.0857
 30
0.0
  0
SPLINE
  5
DF
330
1F
100
AcDbEntity
  8
DEFAULT_1
 62
   250
100
AcDbSpline
210
0.0
220
0.0
230
1.0
 70
    24
 71
     3
 72
     8
 73
     4
 74
     0
 42
0.0000000001
 43
0.0000000001
 40
0.0
 40
0.0
 40
0.0
 40
0.0
 40
1.0
 40
1.0
 40
1.0
 40
1.0
 10
-5.2125
 20
13.7631
 30
0.0
 10
-5.2125
 20
13.7631
 30
0.0
 10
-5.2125
 20
13.3398
 30
0.0
 10
-5.2125
 20
13.3398
 30
0.0
  0
SPLINE
  5
E0
330
1F
100
AcDbEntity
  8
DEFAULT_1
 62
   250
100
AcDbSpline
210
0.0
220
0.0
230
1.0
 70
    24
 71
     3
 72
     8
 73
     4
 74
     0
 42
0.0000000001
 43
0.0000000001
 40
0.0
 40
0.0
 40
0.0
 40
0.0
 40
1.0
 40
1.0
 40
1.0
 40
1.0
 10
-5.4412
 20
13.2786
 30
0.0
 10
-5.4412
 20
13.2786
 30
0.0
 10
-5.2125
 20
13.3398
 30
0.0
 10
-5.2125
 20
13.3398
 30
0.0
  0
SPLINE
  5
E1
330
1F
100
AcDbEntity
  8
DEFAULT_1
 62
   250
100
AcDbSpline
210
0.0
220
0.0
230
1.0
 70
    24
 71
     3
 72
     8
 73
     4
 74
     0
 42
0.0000000001
 43
0.0000000001
 40
0.0
 40
0.0
 40
0.0
 40
0.0
 40
1.0
 40
1.0
 40
1.0
 40
1.0
 10
-5.4412
 20
13.9559
 30
0.0
 10
-5.4412
 20
13.9559
 30
0.0
 10
-5.2125
 20
14.0172
 30
0.0
 10
-5.2125
 20
14.0172
 30
0.0
  0
SPLINE
  5
E2
330
1F
100
AcDbEntity
  8
DEFAULT_1
 62
   250
100
AcDbSpline
210
0.0
220
0.0
230
1.0
 70
    24
 71
     3
 72
     8
 73
     4
 74
     0
 42
0.0000000001
 43
0.0000000001
 40
0.0
 40
0.0
 40
0.0
 40
0.0
 40
1.0
 40
1.0
 40
1.0
 40
1.0
 10
-5.4412
 20
14.6333
 30
0.0
 10
-5.4412
 20
14.6333
 30
0.0
 10
-5.2125
 20
14.6945
 30
0.0
 10
-5.2125
 20
14.6945
 30
0.0
  0
SPLINE
  5
E3
330
1F
100
AcDbEntity
  8
DEFAULT_1
 62
   250
100
AcDbSpline
210
0.0
220
0.0
230
1.0
 70
    24
 71
     3
 72
     8
 73
     4
 74
     0
 42
0.0000000001
 43
0.0000000001
 40
0.0
 40
0.0
 40
0.0
 40
0.0
 40
1.0
 40
1.0
 40
1.0
 40
1.0
 10
-5.4412
 20
15.3106
 30
0.0
 10
-5.4412
 20
15.3106
 30
0.0
 10
-5.2125
 20
15.3719
 30
0.0
 10
-5.2125
 20
15.3719
 30
0.0
  0
SPLINE
  5
E4
330
1F
100
AcDbEntity
  8
DEFAULT_1
 62
   250
100
AcDbSpline
210
0.0
220
0.0
230
1.0
 70
    24
 71
     3
 72
     8
 73
     4
 74
     0
 42
0.0000000001
 43
0.0000000001
 40
0.0
 40
0.0
 40
0.0
 40
0.0
 40
1.0
 40
1.0
 40
1.0
 40
1.0
 10
-5.4412
 20
15.988
 30
0.0
 10
-5.4412
 20
15.988
 30
0.0
 10
-5.2125
 20
16.0493
 30
0.0
 10
-5.2125
 20
16.0493
 30
0.0
  0
SPLINE
  5
E5
330
1F
100
AcDbEntity
  8
DEFAULT_1
 62
   250
100
AcDbSpline
210
0.0
220
0.0
230
1.0
 70
    24
 71
     3
 72
     8
 73
     4
 74
     0
 42
0.0000000001
 43
0.0000000001
 40
0.0
 40
0.0
 40
0.0
 40
0.0
 40
1.0
 40
1.0
 40
1.0
 40
1.0
 10
-5.4412
 20
16.6654
 30
0.0
 10
-5.4412
 20
16.6654
 30
0.0
 10
-5.2125
 20
16.7266
 30
0.0
 10
-5.2125
 20
16.7266
 30
0.0
  0
SPLINE
  5
E6
330
1F
100
AcDbEntity
  8
DEFAULT_1
 62
   250
100
AcDbSpline
210
0.0
220
0.0
230
1.0
 70
    24
 71
     3
 72
     8
 73
     4
 74
     0
 42
0.0000000001
 43
0.0000000001
 40
0.0
 40
0.0
 40
0.0
 40
0.0
 40
1.0
 40
1.0
 40
1.0
 40
1.0
 10
-5.4412
 20
17.3428
 30
0.0
 10
-5.4412
 20
17.3428
 30
0.0
 10
-5.2125
 20
17.404
 30
0.0
 10
-5.2125
 20
17.404
 30
0.0
  0
SPLINE
  5
E7
330
1F
100
AcDbEntity
  8
DEFAULT_1
 62
   250
100
AcDbSpline
210
0.0
220
0.0
230
1.0
 70
    24
 71
     3
 72
     8
 73
     4
 74
     0
 42
0.0000000001
 43
0.0000000001
 40
0.0
 40
0.0
 40
0.0
 40
0.0
 40
1.0
 40
1.0
 40
1.0
 40
1.0
 10
-5.4412
 20
18.0201
 30
0.0
 10
-5.4412
 20
18.0201
 30
0.0
 10
-5.2125
 20
18.0814
 30
0.0
 10
-5.2125
 20
18.0814
 30
0.0
  0
SPLINE
  5
E8
330
1F
100
AcDbEntity
  8
DEFAULT_1
 62
   250
100
AcDbSpline
210
0.0
220
0.0
230
1.0
 70
    24
 71
     3
 72
     8
 73
     4
 74
     0
 42
0.0000000001
 43
0.0000000001
 40
0.0
 40
0.0
 40
0.0
 40
0.0
 40
1.0
 40
1.0
 40
1.0
 40
1.0
 10
-5.4412
 20
18.6975
 30
0.0
 10
-5.4412
 20
18.6975
 30
0.0
 10
-5.2125
 20
18.7588
 30
0.0
 10
-5.2125
 20
18.7588
 30
0.0
  0
SPLINE
  5
E9
330
1F
100
AcDbEntity
  8
DEFAULT_1
 62
   250
100
AcDbSpline
210
0.0
220
0.0
230
1.0
 70
    24
 71
     3
 72
     8
 73
     4
 74
     0
 42
0.0000000001
 43
0.0000000001
 40
0.0
 40
0.0
 40
0.0
 40
0.0
 40
1.0
 40
1.0
 40
1.0
 40
1.0
 10
-5.4412
 20
19.3749
 30
0.0
 10
-5.4412
 20
19.3749
 30
0.0
 10
-5.2125
 20
19.4361
 30
0.0
 10
-5.2125
 20
19.4361
 30
0.0
  0
SPLINE
  5
EA
330
1F
100
AcDbEntity
  8
DEFAULT_1
 62
   250
100
AcDbSpline
210
0.0
220
0.0
230
1.0
 70
    24
 71
     3
 72
     8
 73
     4
 74
     0
 42
0.0000000001
 43
0.0000000001
 40
0.0
 40
0.0
 40
0.0
 40
0.0
 40
1.0
 40
1.0
 40
1.0
 40
1.0
 10
-5.4412
 20
20.0522
 30
0.0
 10
-5.4412
 20
20.0522
 30
0.0
 10
-5.2125
 20
20.1135
 30
0.0
 10
-5.2125
 20
20.1135
 30
0.0
  0
SPLINE
  5
EB
330
1F
100
AcDbEntity
  8
DEFAULT_1
 62
   250
100
AcDbSpline
210
0.0
220
0.0
230
1.0
 70
    24
 71
     3
 72
     8
 73
     4
 74
     0
 42
0.0000000001
 43
0.0000000001
 40
0.0
 40
0.0
 40
0.0
 40
0.0
 40
1.0
 40
1.0
 40
1.0
 40
1.0
 10
-5.4412
 20
20.7295
 30
0.0
 10
-5.4412
 20
20.7295
 30
0.0
 10
-5.2125
 20
20.7909
 30
0.0
 10
-5.2125
 20
20.7909
 30
0.0
  0
SPLINE
  5
EC
330
1F
100
AcDbEntity
  8
DEFAULT_1
 62
   250
100
AcDbSpline
210
0.0
220
0.0
230
1.0
 70
    24
 71
     3
 72
     8
 73
     4
 74
     0
 42
0.0000000001
 43
0.0000000001
 40
0.0
 40
0.0
 40
0.0
 40
0.0
 40
1.0
 40
1.0
 40
1.0
 40
1.0
 10
-5.4412
 20
21.4069
 30
0.0
 10
-5.4412
 20
21.4069
 30
0.0
 10
-5.2125
 20
21.4682
 30
0.0
 10
-5.2125
 20
21.4682
 30
0.0
  0
SPLINE
  5
ED
330
1F
100
AcDbEntity
  8
DEFAULT_1
 62
   250
100
AcDbSpline
210
0.0
220
0.0
230
1.0
 70
    24
 71
     3
 72
     8
 73
     4
 74
     0
 42
0.0000000001
 43
0.0000000001
 40
0.0
 40
0.0
 40
0.0
 40
0.0
 40
1.0
 40
1.0
 40
1.0
 40
1.0
 10
-5.4412
 20
22.0843
 30
0.0
 10
-5.4412
 20
22.0843
 30
0.0
 10
-5.2125
 20
22.1456
 30
0.0
 10
-5.2125
 20
22.1456
 30
0.0
  0
SPLINE
  5
EE
330
1F
100
AcDbEntity
  8
DEFAULT_1
 62
   250
100
AcDbSpline
210
0.0
220
0.0
230
1.0
 70
    24
 71
     3
 72
     8
 73
     4
 74
     0
 42
0.0000000001
 43
0.0000000001
 40
0.0
 40
0.0
 40
0.0
 40
0.0
 40
1.0
 40
1.0
 40
1.0
 40
1.0
 10
-5.2125
 20
22.8229
 30
0.0
 10
-5.2125
 20
22.8229
 30
0.0
 10
-5.4412
 20
22.7617
 30
0.0
 10
-5.4412
 20
22.7617
 30
0.0
  0
SPLINE
  5
EF
330
1F
100
AcDbEntity
  8
DEFAULT_1
 62
   250
100
AcDbSpline
210
0.0
220
0.0
230
1.0
 70
    24
 71
     3
 72
     8
 73
     4
 74
     0
 42
0.0000000001
 43
0.0000000001
 40
0.0
 40
0.0
 40
0.0
 40
0.0
 40
1.0
 40
1.0
 40
1.0
 40
1.0
 10
-5.2125
 20
22.5688
 30
0.0
 10
-5.2125
 20
22.5688
 30
0.0
 10
-5.2125
 20
22.1456
 30
0.0
 10
-5.2125
 20
22.1456
 30
0.0
  0
SPLINE
  5
F0
330
1F
100
AcDbEntity
  8
DEFAULT_1
 62
   250
100
AcDbSpline
210
0.0
220
0.0
230
1.0
 70
    24
 71
     3
 72
     8
 73
     4
 74
     0
 42
0.0000000001
 43
0.0000000001
 40
0.0
 40
0.0
 40
0.0
 40
0.0
 40
1.0
 40
1.0
 40
1.0
 40
1.0
 10
-5.2125
 20
21.4682
 30
0.0
 10
-5.2125
 20
21.4682
 30
0.0
 10
-5.2125
 20
21.8916
 30
0.0
 10
-5.2125
 20
21.8916
 30
0.0
  0
SPLINE
  5
F1
330
1F
100
AcDbEntity
  8
DEFAULT_1
 62
   250
100
AcDbSpline
210
0.0
220
0.0
230
1.0
 70
    24
 71
     3
 72
     8
 73
     4
 74
     0
 42
0.0000000001
 43
0.0000000001
 40
0.0
 40
0.0
 40
0.0
 40
0.0
 40
1.0
 40
1.0
 40
1.0
 40
1.0
 10
-5.4412
 20
22.0843
 30
0.0
 10
-5.4412
 20
22.0843
 30
0.0
 10
-5.4412
 20
21.9527
 30
0.0
 10
-5.4412
 20
21.9527
 30
0.0
  0
SPLINE
  5
F2
330
1F
100
AcDbEntity
  8
DEFAULT_1
 62
   250
100
AcDbSpline
210
0.0
220
0.0
230
1.0
 70
    24
 71
     3
 72
     8
 73
     4
 74
     0
 42
0.0000000001
 43
0.0000000001
 40
0.0
 40
0.0
 40
0.0
 40
0.0
 40
1.0
 40
1.0
 40
1.0
 40
1.0
 10
-5.4412
 20
21.2755
 30
0.0
 10
-5.4412
 20
21.2755
 30
0.0
 10
-5.4412
 20
21.4069
 30
0.0
 10
-5.4412
 20
21.4069
 30
0.0
  0
SPLINE
  5
F3
330
1F
100
AcDbEntity
  8
DEFAULT_1
 62
   250
100
AcDbSpline
210
0.0
220
0.0
230
1.0
 70
    24
 71
     3
 72
     8
 73
     4
 74
     0
 42
0.0000000001
 43
0.0000000001
 40
0.0
 40
0.0
 40
0.0
 40
0.0
 40
1.0
 40
1.0
 40
1.0
 40
1.0
 10
-5.2125
 20
20.7909
 30
0.0
 10
-5.2125
 20
20.7909
 30
0.0
 10
-5.2125
 20
21.2142
 30
0.0
 10
-5.2125
 20
21.2142
 30
0.0
  0
SPLINE
  5
F4
330
1F
100
AcDbEntity
  8
DEFAULT_1
 62
   250
100
AcDbSpline
210
0.0
220
0.0
230
1.0
 70
    24
 71
     3
 72
     8
 73
     4
 74
     0
 42
0.0000000001
 43
0.0000000001
 40
0.0
 40
0.0
 40
0.0
 40
0.0
 40
1.0
 40
1.0
 40
1.0
 40
1.0
 10
-5.4412
 20
20.5981
 30
0.0
 10
-5.4412
 20
20.5981
 30
0.0
 10
-5.4412
 20
20.7295
 30
0.0
 10
-5.4412
 20
20.7295
 30
0.0
  0
SPLINE
  5
F5
330
1F
100
AcDbEntity
  8
DEFAULT_1
 62
   250
100
AcDbSpline
210
0.0
220
0.0
230
1.0
 70
    24
 71
     3
 72
     8
 73
     4
 74
     0
 42
0.0000000001
 43
0.0000000001
 40
0.0
 40
0.0
 40
0.0
 40
0.0
 40
1.0
 40
1.0
 40
1.0
 40
1.0
 10
-5.2125
 20
20.1135
 30
0.0
 10
-5.2125
 20
20.1135
 30
0.0
 10
-5.2125
 20
20.5368
 30
0.0
 10
-5.2125
 20
20.5368
 30
0.0
  0
SPLINE
  5
F6
330
1F
100
AcDbEntity
  8
DEFAULT_1
 62
   250
100
AcDbSpline
210
0.0
220
0.0
230
1.0
 70
    24
 71
     3
 72
     8
 73
     4
 74
     0
 42
0.0000000001
 43
0.0000000001
 40
0.0
 40
0.0
 40
0.0
 40
0.0
 40
1.0
 40
1.0
 40
1.0
 40
1.0
 10
-5.4412
 20
19.9207
 30
0.0
 10
-5.4412
 20
19.9207
 30
0.0
 10
-5.4412
 20
20.0522
 30
0.0
 10
-5.4412
 20
20.0522
 30
0.0
  0
SPLINE
  5
F7
330
1F
100
AcDbEntity
  8
DEFAULT_1
 62
   250
100
AcDbSpline
210
0.0
220
0.0
230
1.0
 70
    24
 71
     3
 72
     8
 73
     4
 74
     0
 42
0.0000000001
 43
0.0000000001
 40
0.0
 40
0.0
 40
0.0
 40
0.0
 40
1.0
 40
1.0
 40
1.0
 40
1.0
 10
-5.2125
 20
19.4361
 30
0.0
 10
-5.2125
 20
19.4361
 30
0.0
 10
-5.2125
 20
19.8594
 30
0.0
 10
-5.2125
 20
19.8594
 30
0.0
  0
SPLINE
  5
F8
330
1F
100
AcDbEntity
  8
DEFAULT_1
 62
   250
100
AcDbSpline
210
0.0
220
0.0
230
1.0
 70
    24
 71
     3
 72
     8
 73
     4
 74
     0
 42
0.0000000001
 43
0.0000000001
 40
0.0
 40
0.0
 40
0.0
 40
0.0
 40
1.0
 40
1.0
 40
1.0
 40
1.0
 10
-5.4412
 20
19.2434
 30
0.0
 10
-5.4412
 20
19.2434
 30
0.0
 10
-5.4412
 20
19.3749
 30
0.0
 10
-5.4412
 20
19.3749
 30
0.0
  0
SPLINE
  5
F9
330
1F
100
AcDbEntity
  8
DEFAULT_1
 62
   250
100
AcDbSpline
210
0.0
220
0.0
230
1.0
 70
    24
 71
     3
 72
     8
 73
     4
 74
     0
 42
0.0000000001
 43
0.0000000001
 40
0.0
 40
0.0
 40
0.0
 40
0.0
 40
1.0
 40
1.0
 40
1.0
 40
1.0
 10
-5.2125
 20
18.7588
 30
0.0
 10
-5.2125
 20
18.7588
 30
0.0
 10
-5.2125
 20
19.1821
 30
0.0
 10
-5.2125
 20
19.1821
 30
0.0
  0
SPLINE
  5
FA
330
1F
100
AcDbEntity
  8
DEFAULT_1
 62
   250
100
AcDbSpline
210
0.0
220
0.0
230
1.0
 70
    24
 71
     3
 72
     8
 73
     4
 74
     0
 42
0.0000000001
 43
0.0000000001
 40
0.0
 40
0.0
 40
0.0
 40
0.0
 40
1.0
 40
1.0
 40
1.0
 40
1.0
 10
-5.4412
 20
18.566
 30
0.0
 10
-5.4412
 20
18.566
 30
0.0
 10
-5.4412
 20
18.6975
 30
0.0
 10
-5.4412
 20
18.6975
 30
0.0
  0
SPLINE
  5
FB
330
1F
100
AcDbEntity
  8
DEFAULT_1
 62
   250
100
AcDbSpline
210
0.0
220
0.0
230
1.0
 70
    24
 71
     3
 72
     8
 73
     4
 74
     0
 42
0.0000000001
 43
0.0000000001
 40
0.0
 40
0.0
 40
0.0
 40
0.0
 40
1.0
 40
1.0
 40
1.0
 40
1.0
 10
-5.2125
 20
18.0814
 30
0.0
 10
-5.2125
 20
18.0814
 30
0.0
 10
-5.2125
 20
18.5048
 30
0.0
 10
-5.2125
 20
18.5048
 30
0.0
  0
SPLINE
  5
FC
330
1F
100
AcDbEntity
  8
DEFAULT_1
 62
   250
100
AcDbSpline
210
0.0
220
0.0
230
1.0
 70
    24
 71
     3
 72
     8
 73
     4
 74
     0
 42
0.0000000001
 43
0.0000000001
 40
0.0
 40
0.0
 40
0.0
 40
0.0
 40
1.0
 40
1.0
 40
1.0
 40
1.0
 10
-5.4412
 20
17.8886
 30
0.0
 10
-5.4412
 20
17.8886
 30
0.0
 10
-5.4412
 20
18.0201
 30
0.0
 10
-5.4412
 20
18.0201
 30
0.0
  0
SPLINE
  5
FD
330
1F
100
AcDbEntity
  8
DEFAULT_1
 62
   250
100
AcDbSpline
210
0.0
220
0.0
230
1.0
 70
    24
 71
     3
 72
     8
 73
     4
 74
     0
 42
0.0000000001
 43
0.0000000001
 40
0.0
 40
0.0
 40
0.0
 40
0.0
 40
1.0
 40
1.0
 40
1.0
 40
1.0
 10
-5.2125
 20
17.404
 30
0.0
 10
-5.2125
 20
17.404
 30
0.0
 10
-5.2125
 20
17.8274
 30
0.0
 10
-5.2125
 20
17.8274
 30
0.0
  0
SPLINE
  5
FE
330
1F
100
AcDbEntity
  8
DEFAULT_1
 62
   250
100
AcDbSpline
210
0.0
220
0.0
230
1.0
 70
    24
 71
     3
 72
     8
 73
     4
 74
     0
 42
0.0000000001
 43
0.0000000001
 40
0.0
 40
0.0
 40
0.0
 40
0.0
 40
1.0
 40
1.0
 40
1.0
 40
1.0
 10
-5.4412
 20
17.2112
 30
0.0
 10
-5.4412
 20
17.2112
 30
0.0
 10
-5.4412
 20
17.3428
 30
0.0
 10
-5.4412
 20
17.3428
 30
0.0
  0
SPLINE
  5
FF
330
1F
100
AcDbEntity
  8
DEFAULT_1
 62
   250
100
AcDbSpline
210
0.0
220
0.0
230
1.0
 70
    24
 71
     3
 72
     8
 73
     4
 74
     0
 42
0.0000000001
 43
0.0000000001
 40
0.0
 40
0.0
 40
0.0
 40
0.0
 40
1.0
 40
1.0
 40
1.0
 40
1.0
 10
-5.2125
 20
16.7266
 30
0.0
 10
-5.2125
 20
16.7266
 30
0.0
 10
-5.2125
 20
17.15
 30
0.0
 10
-5.2125
 20
17.15
 30
0.0
  0
SPLINE
  5
100
330
1F
100
AcDbEntity
  8
DEFAULT_1
 62
   250
100
AcDbSpline
210
0.0
220
0.0
230
1.0
 70
    24
 71
     3
 72
     8
 73
     4
 74
     0
 42
0.0000000001
 43
0.0000000001
 40
0.0
 40
0.0
 40
0.0
 40
0.0
 40
1.0
 40
1.0
 40
1.0
 40
1.0
 10
-5.4412
 20
16.5339
 30
0.0
 10
-5.4412
 20
16.5339
 30
0.0
 10
-5.4412
 20
16.6654
 30
0.0
 10
-5.4412
 20
16.6654
 30
0.0
  0
SPLINE
  5
101
330
1F
100
AcDbEntity
  8
DEFAULT_1
 62
   250
100
AcDbSpline
210
0.0
220
0.0
230
1.0
 70
    24
 71
     3
 72
     8
 73
     4
 74
     0
 42
0.0000000001
 43
0.0000000001
 40
0.0
 40
0.0
 40
0.0
 40
0.0
 40
1.0
 40
1.0
 40
1.0
 40
1.0
 10
-5.2125
 20
16.0493
 30
0.0
 10
-5.2125
 20
16.0493
 30
0.0
 10
-5.2125
 20
16.4726
 30
0.0
 10
-5.2125
 20
16.4726
 30
0.0
  0
SPLINE
  5
102
330
1F
100
AcDbEntity
  8
DEFAULT_1
 62
   250
100
AcDbSpline
210
0.0
220
0.0
230
1.0
 70
    24
 71
     3
 72
     8
 73
     4
 74
     0
 42
0.0000000001
 43
0.0000000001
 40
0.0
 40
0.0
 40
0.0
 40
0.0
 40
1.0
 40
1.0
 40
1.0
 40
1.0
 10
-5.4412
 20
15.8565
 30
0.0
 10
-5.4412
 20
15.8565
 30
0.0
 10
-5.4412
 20
15.988
 30
0.0
 10
-5.4412
 20
15.988
 30
0.0
  0
SPLINE
  5
103
330
1F
100
AcDbEntity
  8
DEFAULT_1
 62
   250
100
AcDbSpline
210
0.0
220
0.0
230
1.0
 70
    24
 71
     3
 72
     8
 73
     4
 74
     0
 42
0.0000000001
 43
0.0000000001
 40
0.0
 40
0.0
 40
0.0
 40
0.0
 40
1.0
 40
1.0
 40
1.0
 40
1.0
 10
-5.2125
 20
15.3719
 30
0.0
 10
-5.2125
 20
15.3719
 30
0.0
 10
-5.2125
 20
15.7952
 30
0.0
 10
-5.2125
 20
15.7952
 30
0.0
  0
SPLINE
  5
104
330
1F
100
AcDbEntity
  8
DEFAULT_1
 62
   250
100
AcDbSpline
210
0.0
220
0.0
230
1.0
 70
    24
 71
     3
 72
     8
 73
     4
 74
     0
 42
0.0000000001
 43
0.0000000001
 40
0.0
 40
0.0
 40
0.0
 40
0.0
 40
1.0
 40
1.0
 40
1.0
 40
1.0
 10
-5.4412
 20
15.1791
 30
0.0
 10
-5.4412
 20
15.1791
 30
0.0
 10
-5.4412
 20
15.3106
 30
0.0
 10
-5.4412
 20
15.3106
 30
0.0
  0
SPLINE
  5
105
330
1F
100
AcDbEntity
  8
DEFAULT_1
 62
   250
100
AcDbSpline
210
0.0
220
0.0
230
1.0
 70
    24
 71
     3
 72
     8
 73
     4
 74
     0
 42
0.0000000001
 43
0.0000000001
 40
0.0
 40
0.0
 40
0.0
 40
0.0
 40
1.0
 40
1.0
 40
1.0
 40
1.0
 10
-5.2125
 20
14.6945
 30
0.0
 10
-5.2125
 20
14.6945
 30
0.0
 10
-5.2125
 20
15.1179
 30
0.0
 10
-5.2125
 20
15.1179
 30
0.0
  0
SPLINE
  5
106
330
1F
100
AcDbEntity
  8
DEFAULT_1
 62
   250
100
AcDbSpline
210
0.0
220
0.0
230
1.0
 70
    24
 71
     3
 72
     8
 73
     4
 74
     0
 42
0.0000000001
 43
0.0000000001
 40
0.0
 40
0.0
 40
0.0
 40
0.0
 40
1.0
 40
1.0
 40
1.0
 40
1.0
 10
-5.4412
 20
14.5018
 30
0.0
 10
-5.4412
 20
14.5018
 30
0.0
 10
-5.4412
 20
14.6333
 30
0.0
 10
-5.4412
 20
14.6333
 30
0.0
  0
SPLINE
  5
107
330
1F
100
AcDbEntity
  8
DEFAULT_1
 62
   250
100
AcDbSpline
210
0.0
220
0.0
230
1.0
 70
    24
 71
     3
 72
     8
 73
     4
 74
     0
 42
0.0000000001
 43
0.0000000001
 40
0.0
 40
0.0
 40
0.0
 40
0.0
 40
1.0
 40
1.0
 40
1.0
 40
1.0
 10
-5.2125
 20
14.0172
 30
0.0
 10
-5.2125
 20
14.0172
 30
0.0
 10
-5.2125
 20
14.4405
 30
0.0
 10
-5.2125
 20
14.4405
 30
0.0
  0
SPLINE
  5
108
330
1F
100
AcDbEntity
  8
DEFAULT_1
 62
   250
100
AcDbSpline
210
0.0
220
0.0
230
1.0
 70
    24
 71
     3
 72
     8
 73
     4
 74
     0
 42
0.0000000001
 43
0.0000000001
 40
0.0
 40
0.0
 40
0.0
 40
0.0
 40
1.0
 40
1.0
 40
1.0
 40
1.0
 10
-5.4412
 20
13.8244
 30
0.0
 10
-5.4412
 20
13.8244
 30
0.0
 10
-5.4412
 20
13.9559
 30
0.0
 10
-5.4412
 20
13.9559
 30
0.0
  0
SPLINE
  5
109
330
1F
100
AcDbEntity
  8
DEFAULT_1
 62
   250
100
AcDbSpline
210
0.0
220
0.0
230
1.0
 70
    24
 71
     3
 72
     8
 73
     4
 74
     0
 42
0.0000000001
 43
0.0000000001
 40
0.0
 40
0.0
 40
0.0
 40
0.0
 40
1.0
 40
1.0
 40
1.0
 40
1.0
 10
-5.4412
 20
22.7617
 30
0.0
 10
-5.4412
 20
22.7617
 30
0.0
 10
-5.4412
 20
22.6301
 30
0.0
 10
-5.4412
 20
22.6301
 30
0.0
  0
SPLINE
  5
10A
330
1F
100
AcDbEntity
  8
DEFAULT_1
 62
   250
100
AcDbSpline
210
0.0
220
0.0
230
1.0
 70
    24
 71
     3
 72
     8
 73
     4
 74
     0
 42
0.0000000001
 43
0.0000000001
 40
0.0
 40
0.0
 40
0.0
 40
0.0
 40
1.0
 40
1.0
 40
1.0
 40
1.0
 10
-5.2125
 20
23.2462
 30
0.0
 10
-5.2125
 20
23.2462
 30
0.0
 10
-5.2125
 20
22.8229
 30
0.0
 10
-5.2125
 20
22.8229
 30
0.0
  0
SPLINE
  5
10B
330
1F
100
AcDbEntity
  8
DEFAULT_1
 62
   250
100
AcDbSpline
210
0.0
220
0.0
230
1.0
 70
    24
 71
     3
 72
     8
 73
     4
 74
     0
 42
0.0000000001
 43
0.0000000001
 40
0.0
 40
0.0
 40
0.0
 40
0.0
 40
1.0
 40
1.0
 40
1.0
 40
1.0
 10
-5.4412
 20
23.4391
 30
0.0
 10
-5.4412
 20
23.4391
 30
0.0
 10
-5.4412
 20
23.3075
 30
0.0
 10
-5.4412
 20
23.3075
 30
0.0
  0
SPLINE
  5
10C
330
1F
100
AcDbEntity
  8
DEFAULT_1
 62
   250
100
AcDbSpline
210
0.0
220
0.0
230
1.0
 70
    24
 71
     3
 72
     8
 73
     4
 74
     0
 42
0.0000000001
 43
0.0000000001
 40
0.0
 40
0.0
 40
0.0
 40
0.0
 40
1.0
 40
1.0
 40
1.0
 40
1.0
 10
-5.2125
 20
23.9236
 30
0.0
 10
-5.2125
 20
23.9236
 30
0.0
 10
-5.2125
 20
23.5002
 30
0.0
 10
-5.2125
 20
23.5002
 30
0.0
  0
SPLINE
  5
10D
330
1F
100
AcDbEntity
  8
DEFAULT_1
 62
   250
100
AcDbSpline
210
0.0
220
0.0
230
1.0
 70
    24
 71
     3
 72
     8
 73
     4
 74
     0
 42
0.0000000001
 43
0.0000000001
 40
0.0
 40
0.0
 40
0.0
 40
0.0
 40
1.0
 40
1.0
 40
1.0
 40
1.0
 10
-5.2125
 20
24.6009
 30
0.0
 10
-5.2125
 20
24.6009
 30
0.0
 10
-5.2125
 20
24.1776
 30
0.0
 10
-5.2125
 20
24.1776
 30
0.0
  0
SPLINE
  5
10E
330
1F
100
AcDbEntity
  8
DEFAULT_1
 62
   250
100
AcDbSpline
210
0.0
220
0.0
230
1.0
 70
    24
 71
     3
 72
     8
 73
     4
 74
     0
 42
0.0000000001
 43
0.0000000001
 40
0.0
 40
0.0
 40
0.0
 40
0.0
 40
1.0
 40
1.0
 40
1.0
 40
1.0
 10
-5.2125
 20
24.6009
 30
0.0
 10
-5.2125
 20
24.6009
 30
0.0
 10
-5.4412
 20
24.6623
 30
0.0
 10
-5.4412
 20
24.6623
 30
0.0
  0
SPLINE
  5
10F
330
1F
100
AcDbEntity
  8
DEFAULT_1
 62
   250
100
AcDbSpline
210
0.0
220
0.0
230
1.0
 70
    24
 71
     3
 72
     8
 73
     4
 74
     0
 42
0.0000000001
 43
0.0000000001
 40
0.0
 40
0.0
 40
0.0
 40
0.0
 40
1.0
 40
1.0
 40
1.0
 40
1.0
 10
-5.4412
 20
25.3396
 30
0.0
 10
-5.4412
 20
25.3396
 30
0.0
 10
-5.2125
 20
25.2783
 30
0.0
 10
-5.2125
 20
25.2783
 30
0.0
  0
SPLINE
  5
110
330
1F
100
AcDbEntity
  8
DEFAULT_1
 62
   250
100
AcDbSpline
210
0.0
220
0.0
230
1.0
 70
    24
 71
     3
 72
     8
 73
     4
 74
     0
 42
0.0000000001
 43
0.0000000001
 40
0.0
 40
0.0
 40
0.0
 40
0.0
 40
1.0
 40
1.0
 40
1.0
 40
1.0
 10
-5.2125
 20
24.855
 30
0.0
 10
-5.2125
 20
24.855
 30
0.0
 10
-5.4412
 20
24.7937
 30
0.0
 10
-5.4412
 20
24.7937
 30
0.0
  0
SPLINE
  5
111
330
1F
100
AcDbEntity
  8
DEFAULT_1
 62
   250
100
AcDbSpline
210
0.0
220
0.0
230
1.0
 70
    24
 71
     3
 72
     8
 73
     4
 74
     0
 42
0.0000000001
 43
0.0000000001
 40
0.0
 40
0.0
 40
0.0
 40
0.0
 40
1.0
 40
1.0
 40
1.0
 40
1.0
 10
-5.2125
 20
24.855
 30
0.0
 10
-5.2125
 20
24.855
 30
0.0
 10
-5.2125
 20
25.2783
 30
0.0
 10
-5.2125
 20
25.2783
 30
0.0
  0
SPLINE
  5
112
330
1F
100
AcDbEntity
  8
DEFAULT_1
 62
   250
100
AcDbSpline
210
0.0
220
0.0
230
1.0
 70
    24
 71
     3
 72
     8
 73
     4
 74
     0
 42
0.0000000001
 43
0.0000000001
 40
0.0
 40
0.0
 40
0.0
 40
0.0
 40
1.0
 40
1.0
 40
1.0
 40
1.0
 10
-5.2125
 20
25.5324
 30
0.0
 10
-5.2125
 20
25.5324
 30
0.0
 10
-5.2125
 20
25.9557
 30
0.0
 10
-5.2125
 20
25.9557
 30
0.0
  0
SPLINE
  5
113
330
1F
100
AcDbEntity
  8
DEFAULT_1
 62
   250
100
AcDbSpline
210
0.0
220
0.0
230
1.0
 70
    24
 71
     3
 72
     8
 73
     4
 74
     0
 42
0.0000000001
 43
0.0000000001
 40
0.0
 40
0.0
 40
0.0
 40
0.0
 40
1.0
 40
1.0
 40
1.0
 40
1.0
 10
-5.2125
 20
25.5324
 30
0.0
 10
-5.2125
 20
25.5324
 30
0.0
 10
-5.4412
 20
25.471
 30
0.0
 10
-5.4412
 20
25.471
 30
0.0
  0
SPLINE
  5
114
330
1F
100
AcDbEntity
  8
DEFAULT_1
 62
   250
100
AcDbSpline
210
0.0
220
0.0
230
1.0
 70
    24
 71
     3
 72
     8
 73
     4
 74
     0
 42
0.0000000001
 43
0.0000000001
 40
0.0
 40
0.0
 40
0.0
 40
0.0
 40
1.0
 40
1.0
 40
1.0
 40
1.0
 10
-5.2125
 20
11.9851
 30
0.0
 10
-5.2125
 20
11.9851
 30
0.0
 10
-5.2125
 20
12.4085
 30
0.0
 10
-5.2125
 20
12.4085
 30
0.0
  0
SPLINE
  5
115
330
1F
100
AcDbEntity
  8
DEFAULT_1
 62
   250
100
AcDbSpline
210
0.0
220
0.0
230
1.0
 70
    24
 71
     3
 72
     8
 73
     4
 74
     0
 42
0.0000000001
 43
0.0000000001
 40
0.0
 40
0.0
 40
0.0
 40
0.0
 40
1.0
 40
1.0
 40
1.0
 40
1.0
 10
-5.4412
 20
11.7076
 30
0.0
 10
-5.4412
 20
11.7076
 30
0.0
 10
-5.4412
 20
11.9238
 30
0.0
 10
-5.4412
 20
11.9238
 30
0.0
  0
SPLINE
  5
116
330
1F
100
AcDbEntity
  8
DEFAULT_1
 62
   250
100
AcDbSpline
210
0.0
220
0.0
230
1.0
 70
    24
 71
     3
 72
     8
 73
     4
 74
     0
 42
0.0000000001
 43
0.0000000001
 40
0.0
 40
0.0
 40
0.0
 40
0.0
 40
1.0
 40
1.0
 40
1.0
 40
1.0
 10
-5.2125
 20
11.1384
 30
0.0
 10
-5.2125
 20
11.1384
 30
0.0
 10
-5.2125
 20
11.6464
 30
0.0
 10
-5.2125
 20
11.6464
 30
0.0
  0
SPLINE
  5
117
330
1F
100
AcDbEntity
  8
DEFAULT_1
 62
   250
100
AcDbSpline
210
0.0
220
0.0
230
1.0
 70
    24
 71
     3
 72
     8
 73
     4
 74
     0
 42
0.0000000001
 43
0.0000000001
 40
0.0
 40
0.0
 40
0.0
 40
0.0
 40
1.0
 40
1.0
 40
1.0
 40
1.0
 10
-5.4412
 20
11.7076
 30
0.0
 10
-5.4412
 20
11.7076
 30
0.0
 10
-5.2125
 20
11.6464
 30
0.0
 10
-5.2125
 20
11.6464
 30
0.0
  0
SPLINE
  5
118
330
1F
100
AcDbEntity
  8
DEFAULT_1
 62
   250
100
AcDbSpline
210
0.0
220
0.0
230
1.0
 70
    24
 71
     3
 72
     8
 73
     4
 74
     0
 42
0.0000000001
 43
0.0000000001
 40
0.0
 40
0.0
 40
0.0
 40
0.0
 40
1.0
 40
1.0
 40
1.0
 40
1.0
 10
-5.4412
 20
12.4697
 30
0.0
 10
-5.4412
 20
12.4697
 30
0.0
 10
3.1263
 20
12.4697
 30
0.0
 10
3.1263
 20
12.4697
 30
0.0
  0
SPLINE
  5
119
330
1F
100
AcDbEntity
  8
DEFAULT_1
 62
   250
100
AcDbSpline
210
0.0
220
0.0
230
1.0
 70
    24
 71
     3
 72
     8
 73
     4
 74
     0
 42
0.0000000001
 43
0.0000000001
 40
0.0
 40
0.0
 40
0.0
 40
0.0
 40
1.0
 40
1.0
 40
1.0
 40
1.0
 10
3.552
 20
11.9238
 30
0.0
 10
3.552
 20
11.9238
 30
0.0
 10
12.1196
 20
11.9238
 30
0.0
 10
12.1196
 20
11.9238
 30
0.0
  0
SPLINE
  5
11A
330
1F
100
AcDbEntity
  8
DEFAULT_1
 62
   250
100
AcDbSpline
210
0.0
220
0.0
230
1.0
 70
    24
 71
     3
 72
     8
 73
     4
 74
     0
 42
0.0000000001
 43
0.0000000001
 40
0.0
 40
0.0
 40
0.0
 40
0.0
 40
1.0
 40
1.0
 40
1.0
 40
1.0
 10
3.552
 20
11.7076
 30
0.0
 10
3.552
 20
11.7076
 30
0.0
 10
12.1196
 20
11.7076
 30
0.0
 10
12.1196
 20
11.7076
 30
0.0
  0
SPLINE
  5
11B
330
1F
100
AcDbEntity
  8
DEFAULT_1
 62
   250
100
AcDbSpline
210
0.0
220
0.0
230
1.0
 70
    24
 71
     3
 72
     8
 73
     4
 74
     0
 42
0.0000000001
 43
0.0000000001
 40
0.0
 40
0.0
 40
0.0
 40
0.0
 40
1.0
 40
1.0
 40
1.0
 40
1.0
 10
11.891
 20
11.9851
 30
0.0
 10
11.891
 20
11.9851
 30
0.0
 10
3.5508
 20
11.9851
 30
0.0
 10
3.5508
 20
11.9851
 30
0.0
  0
SPLINE
  5
11C
330
1F
100
AcDbEntity
  8
DEFAULT_1
 62
   250
100
AcDbSpline
210
0.0
220
0.0
230
1.0
 70
    24
 71
     3
 72
     8
 73
     4
 74
     0
 42
0.0000000001
 43
0.0000000001
 40
0.0
 40
0.0
 40
0.0
 40
0.0
 40
1.0
 40
1.0
 40
1.0
 40
1.0
 10
3.1263
 20
12.6012
 30
0.0
 10
3.1263
 20
12.6012
 30
0.0
 10
-5.4412
 20
12.6012
 30
0.0
 10
-5.4412
 20
12.6012
 30
0.0
  0
SPLINE
  5
11D
330
1F
100
AcDbEntity
  8
DEFAULT_1
 62
   250
100
AcDbSpline
210
0.0
220
0.0
230
1.0
 70
    24
 71
     3
 72
     8
 73
     4
 74
     0
 42
0.0000000001
 43
0.0000000001
 40
0.0
 40
0.0
 40
0.0
 40
0.0
 40
1.0
 40
1.0
 40
1.0
 40
1.0
 10
-5.4412
 20
13.1471
 30
0.0
 10
-5.4412
 20
13.1471
 30
0.0
 10
3.1263
 20
13.1471
 30
0.0
 10
3.1263
 20
13.1471
 30
0.0
  0
SPLINE
  5
11E
330
1F
100
AcDbEntity
  8
DEFAULT_1
 62
   250
100
AcDbSpline
210
0.0
220
0.0
230
1.0
 70
    24
 71
     3
 72
     8
 73
     4
 74
     0
 42
0.0000000001
 43
0.0000000001
 40
0.0
 40
0.0
 40
0.0
 40
0.0
 40
1.0
 40
1.0
 40
1.0
 40
1.0
 10
3.552
 20
13.1471
 30
0.0
 10
3.552
 20
13.1471
 30
0.0
 10
12.1196
 20
13.1471
 30
0.0
 10
12.1196
 20
13.1471
 30
0.0
  0
SPLINE
  5
11F
330
1F
100
AcDbEntity
  8
DEFAULT_1
 62
   250
100
AcDbSpline
210
0.0
220
0.0
230
1.0
 70
    24
 71
     3
 72
     8
 73
     4
 74
     0
 42
0.0000000001
 43
0.0000000001
 40
0.0
 40
0.0
 40
0.0
 40
0.0
 40
1.0
 40
1.0
 40
1.0
 40
1.0
 10
3.552
 20
13.2786
 30
0.0
 10
3.552
 20
13.2786
 30
0.0
 10
12.1196
 20
13.2786
 30
0.0
 10
12.1196
 20
13.2786
 30
0.0
  0
SPLINE
  5
120
330
1F
100
AcDbEntity
  8
DEFAULT_1
 62
   250
100
AcDbSpline
210
0.0
220
0.0
230
1.0
 70
    24
 71
     3
 72
     8
 73
     4
 74
     0
 42
0.0000000001
 43
0.0000000001
 40
0.0
 40
0.0
 40
0.0
 40
0.0
 40
1.0
 40
1.0
 40
1.0
 40
1.0
 10
3.552
 20
13.8244
 30
0.0
 10
3.552
 20
13.8244
 30
0.0
 10
12.1196
 20
13.8244
 30
0.0
 10
12.1196
 20
13.8244
 30
0.0
  0
SPLINE
  5
121
330
1F
100
AcDbEntity
  8
DEFAULT_1
 62
   250
100
AcDbSpline
210
0.0
220
0.0
230
1.0
 70
    24
 71
     3
 72
     8
 73
     4
 74
     0
 42
0.0000000001
 43
0.0000000001
 40
0.0
 40
0.0
 40
0.0
 40
0.0
 40
1.0
 40
1.0
 40
1.0
 40
1.0
 10
3.552
 20
13.9559
 30
0.0
 10
3.552
 20
13.9559
 30
0.0
 10
12.1196
 20
13.9559
 30
0.0
 10
12.1196
 20
13.9559
 30
0.0
  0
SPLINE
  5
122
330
1F
100
AcDbEntity
  8
DEFAULT_1
 62
   250
100
AcDbSpline
210
0.0
220
0.0
230
1.0
 70
    24
 71
     3
 72
     8
 73
     4
 74
     0
 42
0.0000000001
 43
0.0000000001
 40
0.0
 40
0.0
 40
0.0
 40
0.0
 40
1.0
 40
1.0
 40
1.0
 40
1.0
 10
3.552
 20
14.5018
 30
0.0
 10
3.552
 20
14.5018
 30
0.0
 10
12.1196
 20
14.5018
 30
0.0
 10
12.1196
 20
14.5018
 30
0.0
  0
SPLINE
  5
123
330
1F
100
AcDbEntity
  8
DEFAULT_1
 62
   250
100
AcDbSpline
210
0.0
220
0.0
230
1.0
 70
    24
 71
     3
 72
     8
 73
     4
 74
     0
 42
0.0000000001
 43
0.0000000001
 40
0.0
 40
0.0
 40
0.0
 40
0.0
 40
1.0
 40
1.0
 40
1.0
 40
1.0
 10
3.552
 20
14.6333
 30
0.0
 10
3.552
 20
14.6333
 30
0.0
 10
12.1196
 20
14.6333
 30
0.0
 10
12.1196
 20
14.6333
 30
0.0
  0
SPLINE
  5
124
330
1F
100
AcDbEntity
  8
DEFAULT_1
 62
   250
100
AcDbSpline
210
0.0
220
0.0
230
1.0
 70
    24
 71
     3
 72
     8
 73
     4
 74
     0
 42
0.0000000001
 43
0.0000000001
 40
0.0
 40
0.0
 40
0.0
 40
0.0
 40
1.0
 40
1.0
 40
1.0
 40
1.0
 10
3.552
 20
15.1791
 30
0.0
 10
3.552
 20
15.1791
 30
0.0
 10
12.1196
 20
15.1791
 30
0.0
 10
12.1196
 20
15.1791
 30
0.0
  0
SPLINE
  5
125
330
1F
100
AcDbEntity
  8
DEFAULT_1
 62
   250
100
AcDbSpline
210
0.0
220
0.0
230
1.0
 70
    24
 71
     3
 72
     8
 73
     4
 74
     0
 42
0.0000000001
 43
0.0000000001
 40
0.0
 40
0.0
 40
0.0
 40
0.0
 40
1.0
 40
1.0
 40
1.0
 40
1.0
 10
3.552
 20
15.3106
 30
0.0
 10
3.552
 20
15.3106
 30
0.0
 10
12.1196
 20
15.3106
 30
0.0
 10
12.1196
 20
15.3106
 30
0.0
  0
SPLINE
  5
126
330
1F
100
AcDbEntity
  8
DEFAULT_1
 62
   250
100
AcDbSpline
210
0.0
220
0.0
230
1.0
 70
    24
 71
     3
 72
     8
 73
     4
 74
     0
 42
0.0000000001
 43
0.0000000001
 40
0.0
 40
0.0
 40
0.0
 40
0.0
 40
1.0
 40
1.0
 40
1.0
 40
1.0
 10
3.552
 20
15.8565
 30
0.0
 10
3.552
 20
15.8565
 30
0.0
 10
12.1196
 20
15.8565
 30
0.0
 10
12.1196
 20
15.8565
 30
0.0
  0
SPLINE
  5
127
330
1F
100
AcDbEntity
  8
DEFAULT_1
 62
   250
100
AcDbSpline
210
0.0
220
0.0
230
1.0
 70
    24
 71
     3
 72
     8
 73
     4
 74
     0
 42
0.0000000001
 43
0.0000000001
 40
0.0
 40
0.0
 40
0.0
 40
0.0
 40
1.0
 40
1.0
 40
1.0
 40
1.0
 10
3.552
 20
15.988
 30
0.0
 10
3.552
 20
15.988
 30
0.0
 10
12.1196
 20
15.988
 30
0.0
 10
12.1196
 20
15.988
 30
0.0
  0
SPLINE
  5
128
330
1F
100
AcDbEntity
  8
DEFAULT_1
 62
   250
100
AcDbSpline
210
0.0
220
0.0
230
1.0
 70
    24
 71
     3
 72
     8
 73
     4
 74
     0
 42
0.0000000001
 43
0.0000000001
 40
0.0
 40
0.0
 40
0.0
 40
0.0
 40
1.0
 40
1.0
 40
1.0
 40
1.0
 10
3.552
 20
16.5339
 30
0.0
 10
3.552
 20
16.5339
 30
0.0
 10
12.1196
 20
16.5339
 30
0.0
 10
12.1196
 20
16.5339
 30
0.0
  0
SPLINE
  5
129
330
1F
100
AcDbEntity
  8
DEFAULT_1
 62
   250
100
AcDbSpline
210
0.0
220
0.0
230
1.0
 70
    24
 71
     3
 72
     8
 73
     4
 74
     0
 42
0.0000000001
 43
0.0000000001
 40
0.0
 40
0.0
 40
0.0
 40
0.0
 40
1.0
 40
1.0
 40
1.0
 40
1.0
 10
3.552
 20
16.6654
 30
0.0
 10
3.552
 20
16.6654
 30
0.0
 10
12.1196
 20
16.6654
 30
0.0
 10
12.1196
 20
16.6654
 30
0.0
  0
SPLINE
  5
12A
330
1F
100
AcDbEntity
  8
DEFAULT_1
 62
   250
100
AcDbSpline
210
0.0
220
0.0
230
1.0
 70
    24
 71
     3
 72
     8
 73
     4
 74
     0
 42
0.0000000001
 43
0.0000000001
 40
0.0
 40
0.0
 40
0.0
 40
0.0
 40
1.0
 40
1.0
 40
1.0
 40
1.0
 10
3.552
 20
17.2112
 30
0.0
 10
3.552
 20
17.2112
 30
0.0
 10
12.1196
 20
17.2112
 30
0.0
 10
12.1196
 20
17.2112
 30
0.0
  0
SPLINE
  5
12B
330
1F
100
AcDbEntity
  8
DEFAULT_1
 62
   250
100
AcDbSpline
210
0.0
220
0.0
230
1.0
 70
    24
 71
     3
 72
     8
 73
     4
 74
     0
 42
0.0000000001
 43
0.0000000001
 40
0.0
 40
0.0
 40
0.0
 40
0.0
 40
1.0
 40
1.0
 40
1.0
 40
1.0
 10
3.552
 20
17.3428
 30
0.0
 10
3.552
 20
17.3428
 30
0.0
 10
12.1196
 20
17.3428
 30
0.0
 10
12.1196
 20
17.3428
 30
0.0
  0
SPLINE
  5
12C
330
1F
100
AcDbEntity
  8
DEFAULT_1
 62
   250
100
AcDbSpline
210
0.0
220
0.0
230
1.0
 70
    24
 71
     3
 72
     8
 73
     4
 74
     0
 42
0.0000000001
 43
0.0000000001
 40
0.0
 40
0.0
 40
0.0
 40
0.0
 40
1.0
 40
1.0
 40
1.0
 40
1.0
 10
3.552
 20
17.8886
 30
0.0
 10
3.552
 20
17.8886
 30
0.0
 10
12.1196
 20
17.8886
 30
0.0
 10
12.1196
 20
17.8886
 30
0.0
  0
SPLINE
  5
12D
330
1F
100
AcDbEntity
  8
DEFAULT_1
 62
   250
100
AcDbSpline
210
0.0
220
0.0
230
1.0
 70
    24
 71
     3
 72
     8
 73
     4
 74
     0
 42
0.0000000001
 43
0.0000000001
 40
0.0
 40
0.0
 40
0.0
 40
0.0
 40
1.0
 40
1.0
 40
1.0
 40
1.0
 10
3.552
 20
18.0201
 30
0.0
 10
3.552
 20
18.0201
 30
0.0
 10
12.1196
 20
18.0201
 30
0.0
 10
12.1196
 20
18.0201
 30
0.0
  0
SPLINE
  5
12E
330
1F
100
AcDbEntity
  8
DEFAULT_1
 62
   250
100
AcDbSpline
210
0.0
220
0.0
230
1.0
 70
    24
 71
     3
 72
     8
 73
     4
 74
     0
 42
0.0000000001
 43
0.0000000001
 40
0.0
 40
0.0
 40
0.0
 40
0.0
 40
1.0
 40
1.0
 40
1.0
 40
1.0
 10
3.552
 20
18.566
 30
0.0
 10
3.552
 20
18.566
 30
0.0
 10
12.1196
 20
18.566
 30
0.0
 10
12.1196
 20
18.566
 30
0.0
  0
SPLINE
  5
12F
330
1F
100
AcDbEntity
  8
DEFAULT_1
 62
   250
100
AcDbSpline
210
0.0
220
0.0
230
1.0
 70
    24
 71
     3
 72
     8
 73
     4
 74
     0
 42
0.0000000001
 43
0.0000000001
 40
0.0
 40
0.0
 40
0.0
 40
0.0
 40
1.0
 40
1.0
 40
1.0
 40
1.0
 10
3.552
 20
18.6975
 30
0.0
 10
3.552
 20
18.6975
 30
0.0
 10
12.1196
 20
18.6975
 30
0.0
 10
12.1196
 20
18.6975
 30
0.0
  0
SPLINE
  5
130
330
1F
100
AcDbEntity
  8
DEFAULT_1
 62
   250
100
AcDbSpline
210
0.0
220
0.0
230
1.0
 70
    24
 71
     3
 72
     8
 73
     4
 74
     0
 42
0.0000000001
 43
0.0000000001
 40
0.0
 40
0.0
 40
0.0
 40
0.0
 40
1.0
 40
1.0
 40
1.0
 40
1.0
 10
3.552
 20
19.2434
 30
0.0
 10
3.552
 20
19.2434
 30
0.0
 10
12.1196
 20
19.2434
 30
0.0
 10
12.1196
 20
19.2434
 30
0.0
  0
SPLINE
  5
131
330
1F
100
AcDbEntity
  8
DEFAULT_1
 62
   250
100
AcDbSpline
210
0.0
220
0.0
230
1.0
 70
    24
 71
     3
 72
     8
 73
     4
 74
     0
 42
0.0000000001
 43
0.0000000001
 40
0.0
 40
0.0
 40
0.0
 40
0.0
 40
1.0
 40
1.0
 40
1.0
 40
1.0
 10
3.552
 20
19.3749
 30
0.0
 10
3.552
 20
19.3749
 30
0.0
 10
12.1196
 20
19.3749
 30
0.0
 10
12.1196
 20
19.3749
 30
0.0
  0
SPLINE
  5
132
330
1F
100
AcDbEntity
  8
DEFAULT_1
 62
   250
100
AcDbSpline
210
0.0
220
0.0
230
1.0
 70
    24
 71
     3
 72
     8
 73
     4
 74
     0
 42
0.0000000001
 43
0.0000000001
 40
0.0
 40
0.0
 40
0.0
 40
0.0
 40
1.0
 40
1.0
 40
1.0
 40
1.0
 10
3.552
 20
19.9207
 30
0.0
 10
3.552
 20
19.9207
 30
0.0
 10
12.1196
 20
19.9207
 30
0.0
 10
12.1196
 20
19.9207
 30
0.0
  0
SPLINE
  5
133
330
1F
100
AcDbEntity
  8
DEFAULT_1
 62
   250
100
AcDbSpline
210
0.0
220
0.0
230
1.0
 70
    24
 71
     3
 72
     8
 73
     4
 74
     0
 42
0.0000000001
 43
0.0000000001
 40
0.0
 40
0.0
 40
0.0
 40
0.0
 40
1.0
 40
1.0
 40
1.0
 40
1.0
 10
3.552
 20
20.0522
 30
0.0
 10
3.552
 20
20.0522
 30
0.0
 10
12.1196
 20
20.0522
 30
0.0
 10
12.1196
 20
20.0522
 30
0.0
  0
SPLINE
  5
134
330
1F
100
AcDbEntity
  8
DEFAULT_1
 62
   250
100
AcDbSpline
210
0.0
220
0.0
230
1.0
 70
    24
 71
     3
 72
     8
 73
     4
 74
     0
 42
0.0000000001
 43
0.0000000001
 40
0.0
 40
0.0
 40
0.0
 40
0.0
 40
1.0
 40
1.0
 40
1.0
 40
1.0
 10
3.552
 20
20.5981
 30
0.0
 10
3.552
 20
20.5981
 30
0.0
 10
12.1196
 20
20.5981
 30
0.0
 10
12.1196
 20
20.5981
 30
0.0
  0
SPLINE
  5
135
330
1F
100
AcDbEntity
  8
DEFAULT_1
 62
   250
100
AcDbSpline
210
0.0
220
0.0
230
1.0
 70
    24
 71
     3
 72
     8
 73
     4
 74
     0
 42
0.0000000001
 43
0.0000000001
 40
0.0
 40
0.0
 40
0.0
 40
0.0
 40
1.0
 40
1.0
 40
1.0
 40
1.0
 10
3.552
 20
20.7295
 30
0.0
 10
3.552
 20
20.7295
 30
0.0
 10
12.1196
 20
20.7295
 30
0.0
 10
12.1196
 20
20.7295
 30
0.0
  0
SPLINE
  5
136
330
1F
100
AcDbEntity
  8
DEFAULT_1
 62
   250
100
AcDbSpline
210
0.0
220
0.0
230
1.0
 70
    24
 71
     3
 72
     8
 73
     4
 74
     0
 42
0.0000000001
 43
0.0000000001
 40
0.0
 40
0.0
 40
0.0
 40
0.0
 40
1.0
 40
1.0
 40
1.0
 40
1.0
 10
3.552
 20
21.2755
 30
0.0
 10
3.552
 20
21.2755
 30
0.0
 10
12.1196
 20
21.2755
 30
0.0
 10
12.1196
 20
21.2755
 30
0.0
  0
SPLINE
  5
137
330
1F
100
AcDbEntity
  8
DEFAULT_1
 62
   250
100
AcDbSpline
210
0.0
220
0.0
230
1.0
 70
    24
 71
     3
 72
     8
 73
     4
 74
     0
 42
0.0000000001
 43
0.0000000001
 40
0.0
 40
0.0
 40
0.0
 40
0.0
 40
1.0
 40
1.0
 40
1.0
 40
1.0
 10
3.552
 20
21.4069
 30
0.0
 10
3.552
 20
21.4069
 30
0.0
 10
12.1196
 20
21.4069
 30
0.0
 10
12.1196
 20
21.4069
 30
0.0
  0
SPLINE
  5
138
330
1F
100
AcDbEntity
  8
DEFAULT_1
 62
   250
100
AcDbSpline
210
0.0
220
0.0
230
1.0
 70
    24
 71
     3
 72
     8
 73
     4
 74
     0
 42
0.0000000001
 43
0.0000000001
 40
0.0
 40
0.0
 40
0.0
 40
0.0
 40
1.0
 40
1.0
 40
1.0
 40
1.0
 10
3.552
 20
21.9527
 30
0.0
 10
3.552
 20
21.9527
 30
0.0
 10
12.1196
 20
21.9527
 30
0.0
 10
12.1196
 20
21.9527
 30
0.0
  0
SPLINE
  5
139
330
1F
100
AcDbEntity
  8
DEFAULT_1
 62
   250
100
AcDbSpline
210
0.0
220
0.0
230
1.0
 70
    24
 71
     3
 72
     8
 73
     4
 74
     0
 42
0.0000000001
 43
0.0000000001
 40
0.0
 40
0.0
 40
0.0
 40
0.0
 40
1.0
 40
1.0
 40
1.0
 40
1.0
 10
3.552
 20
22.0843
 30
0.0
 10
3.552
 20
22.0843
 30
0.0
 10
12.1196
 20
22.0843
 30
0.0
 10
12.1196
 20
22.0843
 30
0.0
  0
SPLINE
  5
13A
330
1F
100
AcDbEntity
  8
DEFAULT_1
 62
   250
100
AcDbSpline
210
0.0
220
0.0
230
1.0
 70
    24
 71
     3
 72
     8
 73
     4
 74
     0
 42
0.0000000001
 43
0.0000000001
 40
0.0
 40
0.0
 40
0.0
 40
0.0
 40
1.0
 40
1.0
 40
1.0
 40
1.0
 10
3.552
 20
22.6301
 30
0.0
 10
3.552
 20
22.6301
 30
0.0
 10
12.1196
 20
22.6301
 30
0.0
 10
12.1196
 20
22.6301
 30
0.0
  0
SPLINE
  5
13B
330
1F
100
AcDbEntity
  8
DEFAULT_1
 62
   250
100
AcDbSpline
210
0.0
220
0.0
230
1.0
 70
    24
 71
     3
 72
     8
 73
     4
 74
     0
 42
0.0000000001
 43
0.0000000001
 40
0.0
 40
0.0
 40
0.0
 40
0.0
 40
1.0
 40
1.0
 40
1.0
 40
1.0
 10
3.552
 20
22.7617
 30
0.0
 10
3.552
 20
22.7617
 30
0.0
 10
12.1196
 20
22.7617
 30
0.0
 10
12.1196
 20
22.7617
 30
0.0
  0
SPLINE
  5
13C
330
1F
100
AcDbEntity
  8
DEFAULT_1
 62
   250
100
AcDbSpline
210
0.0
220
0.0
230
1.0
 70
    24
 71
     3
 72
     8
 73
     4
 74
     0
 42
0.0000000001
 43
0.0000000001
 40
0.0
 40
0.0
 40
0.0
 40
0.0
 40
1.0
 40
1.0
 40
1.0
 40
1.0
 10
3.552
 20
23.3075
 30
0.0
 10
3.552
 20
23.3075
 30
0.0
 10
12.1196
 20
23.3075
 30
0.0
 10
12.1196
 20
23.3075
 30
0.0
  0
SPLINE
  5
13D
330
1F
100
AcDbEntity
  8
DEFAULT_1
 62
   250
100
AcDbSpline
210
0.0
220
0.0
230
1.0
 70
    24
 71
     3
 72
     8
 73
     4
 74
     0
 42
0.0000000001
 43
0.0000000001
 40
0.0
 40
0.0
 40
0.0
 40
0.0
 40
1.0
 40
1.0
 40
1.0
 40
1.0
 10
3.552
 20
23.4391
 30
0.0
 10
3.552
 20
23.4391
 30
0.0
 10
12.1196
 20
23.4391
 30
0.0
 10
12.1196
 20
23.4391
 30
0.0
  0
SPLINE
  5
13E
330
1F
100
AcDbEntity
  8
DEFAULT_1
 62
   250
100
AcDbSpline
210
0.0
220
0.0
230
1.0
 70
    24
 71
     3
 72
     8
 73
     4
 74
     0
 42
0.0000000001
 43
0.0000000001
 40
0.0
 40
0.0
 40
0.0
 40
0.0
 40
1.0
 40
1.0
 40
1.0
 40
1.0
 10
3.552
 20
23.9849
 30
0.0
 10
3.552
 20
23.9849
 30
0.0
 10
12.1196
 20
23.9849
 30
0.0
 10
12.1196
 20
23.9849
 30
0.0
  0
SPLINE
  5
13F
330
1F
100
AcDbEntity
  8
DEFAULT_1
 62
   250
100
AcDbSpline
210
0.0
220
0.0
230
1.0
 70
    24
 71
     3
 72
     8
 73
     4
 74
     0
 42
0.0000000001
 43
0.0000000001
 40
0.0
 40
0.0
 40
0.0
 40
0.0
 40
1.0
 40
1.0
 40
1.0
 40
1.0
 10
3.552
 20
24.1163
 30
0.0
 10
3.552
 20
24.1163
 30
0.0
 10
12.1196
 20
24.1163
 30
0.0
 10
12.1196
 20
24.1163
 30
0.0
  0
SPLINE
  5
140
330
1F
100
AcDbEntity
  8
DEFAULT_1
 62
   250
100
AcDbSpline
210
0.0
220
0.0
230
1.0
 70
    24
 71
     3
 72
     8
 73
     4
 74
     0
 42
0.0000000001
 43
0.0000000001
 40
0.0
 40
0.0
 40
0.0
 40
0.0
 40
1.0
 40
1.0
 40
1.0
 40
1.0
 10
3.552
 20
24.6623
 30
0.0
 10
3.552
 20
24.6623
 30
0.0
 10
12.1196
 20
24.6623
 30
0.0
 10
12.1196
 20
24.6623
 30
0.0
  0
SPLINE
  5
141
330
1F
100
AcDbEntity
  8
DEFAULT_1
 62
   250
100
AcDbSpline
210
0.0
220
0.0
230
1.0
 70
    24
 71
     3
 72
     8
 73
     4
 74
     0
 42
0.0000000001
 43
0.0000000001
 40
0.0
 40
0.0
 40
0.0
 40
0.0
 40
1.0
 40
1.0
 40
1.0
 40
1.0
 10
3.552
 20
24.7937
 30
0.0
 10
3.552
 20
24.7937
 30
0.0
 10
12.1196
 20
24.7937
 30
0.0
 10
12.1196
 20
24.7937
 30
0.0
  0
SPLINE
  5
142
330
1F
100
AcDbEntity
  8
DEFAULT_1
 62
   250
100
AcDbSpline
210
0.0
220
0.0
230
1.0
 70
    24
 71
     3
 72
     8
 73
     4
 74
     0
 42
0.0000000001
 43
0.0000000001
 40
0.0
 40
0.0
 40
0.0
 40
0.0
 40
1.0
 40
1.0
 40
1.0
 40
1.0
 10
3.552
 20
25.3396
 30
0.0
 10
3.552
 20
25.3396
 30
0.0
 10
12.1196
 20
25.3396
 30
0.0
 10
12.1196
 20
25.3396
 30
0.0
  0
SPLINE
  5
143
330
1F
100
AcDbEntity
  8
DEFAULT_1
 62
   250
100
AcDbSpline
210
0.0
220
0.0
230
1.0
 70
    24
 71
     3
 72
     8
 73
     4
 74
     0
 42
0.0000000001
 43
0.0000000001
 40
0.0
 40
0.0
 40
0.0
 40
0.0
 40
1.0
 40
1.0
 40
1.0
 40
1.0
 10
3.552
 20
25.471
 30
0.0
 10
3.552
 20
25.471
 30
0.0
 10
12.1196
 20
25.471
 30
0.0
 10
12.1196
 20
25.471
 30
0.0
  0
SPLINE
  5
144
330
1F
100
AcDbEntity
  8
DEFAULT_1
 62
   250
100
AcDbSpline
210
0.0
220
0.0
230
1.0
 70
    24
 71
     3
 72
     8
 73
     4
 74
     0
 42
0.0000000001
 43
0.0000000001
 40
0.0
 40
0.0
 40
0.0
 40
0.0
 40
1.0
 40
1.0
 40
1.0
 40
1.0
 10
-5.4412
 20
26.017
 30
0.0
 10
-5.4412
 20
26.017
 30
0.0
 10
12.1196
 20
26.017
 30
0.0
 10
12.1196
 20
26.017
 30
0.0
  0
SPLINE
  5
145
330
1F
100
AcDbEntity
  8
DEFAULT_1
 62
   250
100
AcDbSpline
210
0.0
220
0.0
230
1.0
 70
    24
 71
     3
 72
     8
 73
     4
 74
     0
 42
0.0000000001
 43
0.0000000001
 40
0.0
 40
0.0
 40
0.0
 40
0.0
 40
1.0
 40
1.0
 40
1.0
 40
1.0
 10
11.891
 20
25.5324
 30
0.0
 10
11.891
 20
25.5324
 30
0.0
 10
3.5508
 20
25.5324
 30
0.0
 10
3.5508
 20
25.5324
 30
0.0
  0
SPLINE
  5
146
330
1F
100
AcDbEntity
  8
DEFAULT_1
 62
   250
100
AcDbSpline
210
0.0
220
0.0
230
1.0
 70
    24
 71
     3
 72
     8
 73
     4
 74
     0
 42
0.0000000001
 43
0.0000000001
 40
0.0
 40
0.0
 40
0.0
 40
0.0
 40
1.0
 40
1.0
 40
1.0
 40
1.0
 10
-5.2125
 20
25.2783
 30
0.0
 10
-5.2125
 20
25.2783
 30
0.0
 10
3.1275
 20
25.2783
 30
0.0
 10
3.1275
 20
25.2783
 30
0.0
  0
SPLINE
  5
147
330
1F
100
AcDbEntity
  8
DEFAULT_1
 62
   250
100
AcDbSpline
210
0.0
220
0.0
230
1.0
 70
    24
 71
     3
 72
     8
 73
     4
 74
     0
 42
0.0000000001
 43
0.0000000001
 40
0.0
 40
0.0
 40
0.0
 40
0.0
 40
1.0
 40
1.0
 40
1.0
 40
1.0
 10
3.1263
 20
24.6623
 30
0.0
 10
3.1263
 20
24.6623
 30
0.0
 10
-5.4412
 20
24.6623
 30
0.0
 10
-5.4412
 20
24.6623
 30
0.0
  0
SPLINE
  5
148
330
1F
100
AcDbEntity
  8
DEFAULT_1
 62
   250
100
AcDbSpline
210
0.0
220
0.0
230
1.0
 70
    24
 71
     3
 72
     8
 73
     4
 74
     0
 42
0.0000000001
 43
0.0000000001
 40
0.0
 40
0.0
 40
0.0
 40
0.0
 40
1.0
 40
1.0
 40
1.0
 40
1.0
 10
-5.4412
 20
24.1163
 30
0.0
 10
-5.4412
 20
24.1163
 30
0.0
 10
3.1263
 20
24.1163
 30
0.0
 10
3.1263
 20
24.1163
 30
0.0
  0
SPLINE
  5
149
330
1F
100
AcDbEntity
  8
DEFAULT_1
 62
   250
100
AcDbSpline
210
0.0
220
0.0
230
1.0
 70
    24
 71
     3
 72
     8
 73
     4
 74
     0
 42
0.0000000001
 43
0.0000000001
 40
0.0
 40
0.0
 40
0.0
 40
0.0
 40
1.0
 40
1.0
 40
1.0
 40
1.0
 10
-5.4412
 20
23.4391
 30
0.0
 10
-5.4412
 20
23.4391
 30
0.0
 10
3.1263
 20
23.4391
 30
0.0
 10
3.1263
 20
23.4391
 30
0.0
  0
SPLINE
  5
14A
330
1F
100
AcDbEntity
  8
DEFAULT_1
 62
   250
100
AcDbSpline
210
0.0
220
0.0
230
1.0
 70
    24
 71
     3
 72
     8
 73
     4
 74
     0
 42
0.0000000001
 43
0.0000000001
 40
0.0
 40
0.0
 40
0.0
 40
0.0
 40
1.0
 40
1.0
 40
1.0
 40
1.0
 10
11.891
 20
24.6009
 30
0.0
 10
11.891
 20
24.6009
 30
0.0
 10
3.5508
 20
24.6009
 30
0.0
 10
3.5508
 20
24.6009
 30
0.0
  0
SPLINE
  5
14B
330
1F
100
AcDbEntity
  8
DEFAULT_1
 62
   250
100
AcDbSpline
210
0.0
220
0.0
230
1.0
 70
    24
 71
     3
 72
     8
 73
     4
 74
     0
 42
0.0000000001
 43
0.0000000001
 40
0.0
 40
0.0
 40
0.0
 40
0.0
 40
1.0
 40
1.0
 40
1.0
 40
1.0
 10
-5.2125
 20
24.855
 30
0.0
 10
-5.2125
 20
24.855
 30
0.0
 10
3.1275
 20
24.855
 30
0.0
 10
3.1275
 20
24.855
 30
0.0
  0
SPLINE
  5
14C
330
1F
100
AcDbEntity
  8
DEFAULT_1
 62
   250
100
AcDbSpline
210
0.0
220
0.0
230
1.0
 70
    24
 71
     3
 72
     8
 73
     4
 74
     0
 42
0.0000000001
 43
0.0000000001
 40
0.0
 40
0.0
 40
0.0
 40
0.0
 40
1.0
 40
1.0
 40
1.0
 40
1.0
 10
11.891
 20
24.855
 30
0.0
 10
11.891
 20
24.855
 30
0.0
 10
3.5508
 20
24.855
 30
0.0
 10
3.5508
 20
24.855
 30
0.0
  0
SPLINE
  5
14D
330
1F
100
AcDbEntity
  8
DEFAULT_1
 62
   250
100
AcDbSpline
210
0.0
220
0.0
230
1.0
 70
    24
 71
     3
 72
     8
 73
     4
 74
     0
 42
0.0000000001
 43
0.0000000001
 40
0.0
 40
0.0
 40
0.0
 40
0.0
 40
1.0
 40
1.0
 40
1.0
 40
1.0
 10
3.1275
 20
24.6009
 30
0.0
 10
3.1275
 20
24.6009
 30
0.0
 10
-5.2125
 20
24.6009
 30
0.0
 10
-5.2125
 20
24.6009
 30
0.0
  0
SPLINE
  5
14E
330
1F
100
AcDbEntity
  8
DEFAULT_1
 62
   250
100
AcDbSpline
210
0.0
220
0.0
230
1.0
 70
    24
 71
     3
 72
     8
 73
     4
 74
     0
 42
0.0000000001
 43
0.0000000001
 40
0.0
 40
0.0
 40
0.0
 40
0.0
 40
1.0
 40
1.0
 40
1.0
 40
1.0
 10
-5.2125
 20
24.1776
 30
0.0
 10
-5.2125
 20
24.1776
 30
0.0
 10
3.1275
 20
24.1776
 30
0.0
 10
3.1275
 20
24.1776
 30
0.0
  0
SPLINE
  5
14F
330
1F
100
AcDbEntity
  8
DEFAULT_1
 62
   250
100
AcDbSpline
210
0.0
220
0.0
230
1.0
 70
    24
 71
     3
 72
     8
 73
     4
 74
     0
 42
0.0000000001
 43
0.0000000001
 40
0.0
 40
0.0
 40
0.0
 40
0.0
 40
1.0
 40
1.0
 40
1.0
 40
1.0
 10
11.891
 20
23.9236
 30
0.0
 10
11.891
 20
23.9236
 30
0.0
 10
3.5508
 20
23.9236
 30
0.0
 10
3.5508
 20
23.9236
 30
0.0
  0
SPLINE
  5
150
330
1F
100
AcDbEntity
  8
DEFAULT_1
 62
   250
100
AcDbSpline
210
0.0
220
0.0
230
1.0
 70
    24
 71
     3
 72
     8
 73
     4
 74
     0
 42
0.0000000001
 43
0.0000000001
 40
0.0
 40
0.0
 40
0.0
 40
0.0
 40
1.0
 40
1.0
 40
1.0
 40
1.0
 10
-5.4412
 20
23.3075
 30
0.0
 10
-5.4412
 20
23.3075
 30
0.0
 10
3.1263
 20
23.3075
 30
0.0
 10
3.1263
 20
23.3075
 30
0.0
  0
SPLINE
  5
151
330
1F
100
AcDbEntity
  8
DEFAULT_1
 62
   250
100
AcDbSpline
210
0.0
220
0.0
230
1.0
 70
    24
 71
     3
 72
     8
 73
     4
 74
     0
 42
0.0000000001
 43
0.0000000001
 40
0.0
 40
0.0
 40
0.0
 40
0.0
 40
1.0
 40
1.0
 40
1.0
 40
1.0
 10
11.891
 20
23.2462
 30
0.0
 10
11.891
 20
23.2462
 30
0.0
 10
3.5508
 20
23.2462
 30
0.0
 10
3.5508
 20
23.2462
 30
0.0
  0
SPLINE
  5
152
330
1F
100
AcDbEntity
  8
DEFAULT_1
 62
   250
100
AcDbSpline
210
0.0
220
0.0
230
1.0
 70
    24
 71
     3
 72
     8
 73
     4
 74
     0
 42
0.0000000001
 43
0.0000000001
 40
0.0
 40
0.0
 40
0.0
 40
0.0
 40
1.0
 40
1.0
 40
1.0
 40
1.0
 10
3.1263
 20
22.6301
 30
0.0
 10
3.1263
 20
22.6301
 30
0.0
 10
-5.4412
 20
22.6301
 30
0.0
 10
-5.4412
 20
22.6301
 30
0.0
  0
SPLINE
  5
153
330
1F
100
AcDbEntity
  8
DEFAULT_1
 62
   250
100
AcDbSpline
210
0.0
220
0.0
230
1.0
 70
    24
 71
     3
 72
     8
 73
     4
 74
     0
 42
0.0000000001
 43
0.0000000001
 40
0.0
 40
0.0
 40
0.0
 40
0.0
 40
1.0
 40
1.0
 40
1.0
 40
1.0
 10
-5.4412
 20
22.0843
 30
0.0
 10
-5.4412
 20
22.0843
 30
0.0
 10
3.1263
 20
22.0843
 30
0.0
 10
3.1263
 20
22.0843
 30
0.0
  0
SPLINE
  5
154
330
1F
100
AcDbEntity
  8
DEFAULT_1
 62
   250
100
AcDbSpline
210
0.0
220
0.0
230
1.0
 70
    24
 71
     3
 72
     8
 73
     4
 74
     0
 42
0.0000000001
 43
0.0000000001
 40
0.0
 40
0.0
 40
0.0
 40
0.0
 40
1.0
 40
1.0
 40
1.0
 40
1.0
 10
3.5508
 20
21.4682
 30
0.0
 10
3.5508
 20
21.4682
 30
0.0
 10
11.891
 20
21.4682
 30
0.0
 10
11.891
 20
21.4682
 30
0.0
  0
SPLINE
  5
155
330
1F
100
AcDbEntity
  8
DEFAULT_1
 62
   250
100
AcDbSpline
210
0.0
220
0.0
230
1.0
 70
    24
 71
     3
 72
     8
 73
     4
 74
     0
 42
0.0000000001
 43
0.0000000001
 40
0.0
 40
0.0
 40
0.0
 40
0.0
 40
1.0
 40
1.0
 40
1.0
 40
1.0
 10
3.5508
 20
21.2142
 30
0.0
 10
3.5508
 20
21.2142
 30
0.0
 10
11.891
 20
21.2142
 30
0.0
 10
11.891
 20
21.2142
 30
0.0
  0
SPLINE
  5
156
330
1F
100
AcDbEntity
  8
DEFAULT_1
 62
   250
100
AcDbSpline
210
0.0
220
0.0
230
1.0
 70
    24
 71
     3
 72
     8
 73
     4
 74
     0
 42
0.0000000001
 43
0.0000000001
 40
0.0
 40
0.0
 40
0.0
 40
0.0
 40
1.0
 40
1.0
 40
1.0
 40
1.0
 10
3.5508
 20
20.7909
 30
0.0
 10
3.5508
 20
20.7909
 30
0.0
 10
11.891
 20
20.7909
 30
0.0
 10
11.891
 20
20.7909
 30
0.0
  0
SPLINE
  5
157
330
1F
100
AcDbEntity
  8
DEFAULT_1
 62
   250
100
AcDbSpline
210
0.0
220
0.0
230
1.0
 70
    24
 71
     3
 72
     8
 73
     4
 74
     0
 42
0.0000000001
 43
0.0000000001
 40
0.0
 40
0.0
 40
0.0
 40
0.0
 40
1.0
 40
1.0
 40
1.0
 40
1.0
 10
3.5508
 20
20.5368
 30
0.0
 10
3.5508
 20
20.5368
 30
0.0
 10
11.891
 20
20.5368
 30
0.0
 10
11.891
 20
20.5368
 30
0.0
  0
SPLINE
  5
158
330
1F
100
AcDbEntity
  8
DEFAULT_1
 62
   250
100
AcDbSpline
210
0.0
220
0.0
230
1.0
 70
    24
 71
     3
 72
     8
 73
     4
 74
     0
 42
0.0000000001
 43
0.0000000001
 40
0.0
 40
0.0
 40
0.0
 40
0.0
 40
1.0
 40
1.0
 40
1.0
 40
1.0
 10
3.5508
 20
20.1135
 30
0.0
 10
3.5508
 20
20.1135
 30
0.0
 10
11.891
 20
20.1135
 30
0.0
 10
11.891
 20
20.1135
 30
0.0
  0
SPLINE
  5
159
330
1F
100
AcDbEntity
  8
DEFAULT_1
 62
   250
100
AcDbSpline
210
0.0
220
0.0
230
1.0
 70
    24
 71
     3
 72
     8
 73
     4
 74
     0
 42
0.0000000001
 43
0.0000000001
 40
0.0
 40
0.0
 40
0.0
 40
0.0
 40
1.0
 40
1.0
 40
1.0
 40
1.0
 10
3.5508
 20
19.8594
 30
0.0
 10
3.5508
 20
19.8594
 30
0.0
 10
11.891
 20
19.8594
 30
0.0
 10
11.891
 20
19.8594
 30
0.0
  0
SPLINE
  5
15A
330
1F
100
AcDbEntity
  8
DEFAULT_1
 62
   250
100
AcDbSpline
210
0.0
220
0.0
230
1.0
 70
    24
 71
     3
 72
     8
 73
     4
 74
     0
 42
0.0000000001
 43
0.0000000001
 40
0.0
 40
0.0
 40
0.0
 40
0.0
 40
1.0
 40
1.0
 40
1.0
 40
1.0
 10
3.5508
 20
19.4361
 30
0.0
 10
3.5508
 20
19.4361
 30
0.0
 10
11.891
 20
19.4361
 30
0.0
 10
11.891
 20
19.4361
 30
0.0
  0
SPLINE
  5
15B
330
1F
100
AcDbEntity
  8
DEFAULT_1
 62
   250
100
AcDbSpline
210
0.0
220
0.0
230
1.0
 70
    24
 71
     3
 72
     8
 73
     4
 74
     0
 42
0.0000000001
 43
0.0000000001
 40
0.0
 40
0.0
 40
0.0
 40
0.0
 40
1.0
 40
1.0
 40
1.0
 40
1.0
 10
3.5508
 20
19.1821
 30
0.0
 10
3.5508
 20
19.1821
 30
0.0
 10
11.891
 20
19.1821
 30
0.0
 10
11.891
 20
19.1821
 30
0.0
  0
SPLINE
  5
15C
330
1F
100
AcDbEntity
  8
DEFAULT_1
 62
   250
100
AcDbSpline
210
0.0
220
0.0
230
1.0
 70
    24
 71
     3
 72
     8
 73
     4
 74
     0
 42
0.0000000001
 43
0.0000000001
 40
0.0
 40
0.0
 40
0.0
 40
0.0
 40
1.0
 40
1.0
 40
1.0
 40
1.0
 10
3.5508
 20
18.7588
 30
0.0
 10
3.5508
 20
18.7588
 30
0.0
 10
11.891
 20
18.7588
 30
0.0
 10
11.891
 20
18.7588
 30
0.0
  0
SPLINE
  5
15D
330
1F
100
AcDbEntity
  8
DEFAULT_1
 62
   250
100
AcDbSpline
210
0.0
220
0.0
230
1.0
 70
    24
 71
     3
 72
     8
 73
     4
 74
     0
 42
0.0000000001
 43
0.0000000001
 40
0.0
 40
0.0
 40
0.0
 40
0.0
 40
1.0
 40
1.0
 40
1.0
 40
1.0
 10
3.5508
 20
18.5048
 30
0.0
 10
3.5508
 20
18.5048
 30
0.0
 10
11.891
 20
18.5048
 30
0.0
 10
11.891
 20
18.5048
 30
0.0
  0
SPLINE
  5
15E
330
1F
100
AcDbEntity
  8
DEFAULT_1
 62
   250
100
AcDbSpline
210
0.0
220
0.0
230
1.0
 70
    24
 71
     3
 72
     8
 73
     4
 74
     0
 42
0.0000000001
 43
0.0000000001
 40
0.0
 40
0.0
 40
0.0
 40
0.0
 40
1.0
 40
1.0
 40
1.0
 40
1.0
 10
3.5508
 20
18.0814
 30
0.0
 10
3.5508
 20
18.0814
 30
0.0
 10
11.891
 20
18.0814
 30
0.0
 10
11.891
 20
18.0814
 30
0.0
  0
SPLINE
  5
15F
330
1F
100
AcDbEntity
  8
DEFAULT_1
 62
   250
100
AcDbSpline
210
0.0
220
0.0
230
1.0
 70
    24
 71
     3
 72
     8
 73
     4
 74
     0
 42
0.0000000001
 43
0.0000000001
 40
0.0
 40
0.0
 40
0.0
 40
0.0
 40
1.0
 40
1.0
 40
1.0
 40
1.0
 10
3.5508
 20
17.8274
 30
0.0
 10
3.5508
 20
17.8274
 30
0.0
 10
11.891
 20
17.8274
 30
0.0
 10
11.891
 20
17.8274
 30
0.0
  0
SPLINE
  5
160
330
1F
100
AcDbEntity
  8
DEFAULT_1
 62
   250
100
AcDbSpline
210
0.0
220
0.0
230
1.0
 70
    24
 71
     3
 72
     8
 73
     4
 74
     0
 42
0.0000000001
 43
0.0000000001
 40
0.0
 40
0.0
 40
0.0
 40
0.0
 40
1.0
 40
1.0
 40
1.0
 40
1.0
 10
3.5508
 20
17.404
 30
0.0
 10
3.5508
 20
17.404
 30
0.0
 10
11.891
 20
17.404
 30
0.0
 10
11.891
 20
17.404
 30
0.0
  0
SPLINE
  5
161
330
1F
100
AcDbEntity
  8
DEFAULT_1
 62
   250
100
AcDbSpline
210
0.0
220
0.0
230
1.0
 70
    24
 71
     3
 72
     8
 73
     4
 74
     0
 42
0.0000000001
 43
0.0000000001
 40
0.0
 40
0.0
 40
0.0
 40
0.0
 40
1.0
 40
1.0
 40
1.0
 40
1.0
 10
3.5508
 20
17.15
 30
0.0
 10
3.5508
 20
17.15
 30
0.0
 10
11.891
 20
17.15
 30
0.0
 10
11.891
 20
17.15
 30
0.0
  0
SPLINE
  5
162
330
1F
100
AcDbEntity
  8
DEFAULT_1
 62
   250
100
AcDbSpline
210
0.0
220
0.0
230
1.0
 70
    24
 71
     3
 72
     8
 73
     4
 74
     0
 42
0.0000000001
 43
0.0000000001
 40
0.0
 40
0.0
 40
0.0
 40
0.0
 40
1.0
 40
1.0
 40
1.0
 40
1.0
 10
3.5508
 20
16.7266
 30
0.0
 10
3.5508
 20
16.7266
 30
0.0
 10
11.891
 20
16.7266
 30
0.0
 10
11.891
 20
16.7266
 30
0.0
  0
SPLINE
  5
163
330
1F
100
AcDbEntity
  8
DEFAULT_1
 62
   250
100
AcDbSpline
210
0.0
220
0.0
230
1.0
 70
    24
 71
     3
 72
     8
 73
     4
 74
     0
 42
0.0000000001
 43
0.0000000001
 40
0.0
 40
0.0
 40
0.0
 40
0.0
 40
1.0
 40
1.0
 40
1.0
 40
1.0
 10
3.5508
 20
16.4726
 30
0.0
 10
3.5508
 20
16.4726
 30
0.0
 10
11.891
 20
16.4726
 30
0.0
 10
11.891
 20
16.4726
 30
0.0
  0
SPLINE
  5
164
330
1F
100
AcDbEntity
  8
DEFAULT_1
 62
   250
100
AcDbSpline
210
0.0
220
0.0
230
1.0
 70
    24
 71
     3
 72
     8
 73
     4
 74
     0
 42
0.0000000001
 43
0.0000000001
 40
0.0
 40
0.0
 40
0.0
 40
0.0
 40
1.0
 40
1.0
 40
1.0
 40
1.0
 10
3.5508
 20
16.0493
 30
0.0
 10
3.5508
 20
16.0493
 30
0.0
 10
11.891
 20
16.0493
 30
0.0
 10
11.891
 20
16.0493
 30
0.0
  0
SPLINE
  5
165
330
1F
100
AcDbEntity
  8
DEFAULT_1
 62
   250
100
AcDbSpline
210
0.0
220
0.0
230
1.0
 70
    24
 71
     3
 72
     8
 73
     4
 74
     0
 42
0.0000000001
 43
0.0000000001
 40
0.0
 40
0.0
 40
0.0
 40
0.0
 40
1.0
 40
1.0
 40
1.0
 40
1.0
 10
3.5508
 20
15.7952
 30
0.0
 10
3.5508
 20
15.7952
 30
0.0
 10
11.891
 20
15.7952
 30
0.0
 10
11.891
 20
15.7952
 30
0.0
  0
SPLINE
  5
166
330
1F
100
AcDbEntity
  8
DEFAULT_1
 62
   250
100
AcDbSpline
210
0.0
220
0.0
230
1.0
 70
    24
 71
     3
 72
     8
 73
     4
 74
     0
 42
0.0000000001
 43
0.0000000001
 40
0.0
 40
0.0
 40
0.0
 40
0.0
 40
1.0
 40
1.0
 40
1.0
 40
1.0
 10
3.5508
 20
15.3719
 30
0.0
 10
3.5508
 20
15.3719
 30
0.0
 10
11.891
 20
15.3719
 30
0.0
 10
11.891
 20
15.3719
 30
0.0
  0
SPLINE
  5
167
330
1F
100
AcDbEntity
  8
DEFAULT_1
 62
   250
100
AcDbSpline
210
0.0
220
0.0
230
1.0
 70
    24
 71
     3
 72
     8
 73
     4
 74
     0
 42
0.0000000001
 43
0.0000000001
 40
0.0
 40
0.0
 40
0.0
 40
0.0
 40
1.0
 40
1.0
 40
1.0
 40
1.0
 10
3.5508
 20
15.1179
 30
0.0
 10
3.5508
 20
15.1179
 30
0.0
 10
11.891
 20
15.1179
 30
0.0
 10
11.891
 20
15.1179
 30
0.0
  0
SPLINE
  5
168
330
1F
100
AcDbEntity
  8
DEFAULT_1
 62
   250
100
AcDbSpline
210
0.0
220
0.0
230
1.0
 70
    24
 71
     3
 72
     8
 73
     4
 74
     0
 42
0.0000000001
 43
0.0000000001
 40
0.0
 40
0.0
 40
0.0
 40
0.0
 40
1.0
 40
1.0
 40
1.0
 40
1.0
 10
3.5508
 20
14.6945
 30
0.0
 10
3.5508
 20
14.6945
 30
0.0
 10
11.891
 20
14.6945
 30
0.0
 10
11.891
 20
14.6945
 30
0.0
  0
SPLINE
  5
169
330
1F
100
AcDbEntity
  8
DEFAULT_1
 62
   250
100
AcDbSpline
210
0.0
220
0.0
230
1.0
 70
    24
 71
     3
 72
     8
 73
     4
 74
     0
 42
0.0000000001
 43
0.0000000001
 40
0.0
 40
0.0
 40
0.0
 40
0.0
 40
1.0
 40
1.0
 40
1.0
 40
1.0
 10
3.5508
 20
14.4405
 30
0.0
 10
3.5508
 20
14.4405
 30
0.0
 10
11.891
 20
14.4405
 30
0.0
 10
11.891
 20
14.4405
 30
0.0
  0
SPLINE
  5
16A
330
1F
100
AcDbEntity
  8
DEFAULT_1
 62
   250
100
AcDbSpline
210
0.0
220
0.0
230
1.0
 70
    24
 71
     3
 72
     8
 73
     4
 74
     0
 42
0.0000000001
 43
0.0000000001
 40
0.0
 40
0.0
 40
0.0
 40
0.0
 40
1.0
 40
1.0
 40
1.0
 40
1.0
 10
3.5508
 20
14.0172
 30
0.0
 10
3.5508
 20
14.0172
 30
0.0
 10
11.891
 20
14.0172
 30
0.0
 10
11.891
 20
14.0172
 30
0.0
  0
SPLINE
  5
16B
330
1F
100
AcDbEntity
  8
DEFAULT_1
 62
   250
100
AcDbSpline
210
0.0
220
0.0
230
1.0
 70
    24
 71
     3
 72
     8
 73
     4
 74
     0
 42
0.0000000001
 43
0.0000000001
 40
0.0
 40
0.0
 40
0.0
 40
0.0
 40
1.0
 40
1.0
 40
1.0
 40
1.0
 10
3.5508
 20
13.7631
 30
0.0
 10
3.5508
 20
13.7631
 30
0.0
 10
11.891
 20
13.7631
 30
0.0
 10
11.891
 20
13.7631
 30
0.0
  0
SPLINE
  5
16C
330
1F
100
AcDbEntity
  8
DEFAULT_1
 62
   250
100
AcDbSpline
210
0.0
220
0.0
230
1.0
 70
    24
 71
     3
 72
     8
 73
     4
 74
     0
 42
0.0000000001
 43
0.0000000001
 40
0.0
 40
0.0
 40
0.0
 40
0.0
 40
1.0
 40
1.0
 40
1.0
 40
1.0
 10
3.5508
 20
13.3398
 30
0.0
 10
3.5508
 20
13.3398
 30
0.0
 10
11.891
 20
13.3398
 30
0.0
 10
11.891
 20
13.3398
 30
0.0
  0
SPLINE
  5
16D
330
1F
100
AcDbEntity
  8
DEFAULT_1
 62
   250
100
AcDbSpline
210
0.0
220
0.0
230
1.0
 70
    24
 71
     3
 72
     8
 73
     4
 74
     0
 42
0.0000000001
 43
0.0000000001
 40
0.0
 40
0.0
 40
0.0
 40
0.0
 40
1.0
 40
1.0
 40
1.0
 40
1.0
 10
3.5508
 20
13.0857
 30
0.0
 10
3.5508
 20
13.0857
 30
0.0
 10
11.891
 20
13.0857
 30
0.0
 10
11.891
 20
13.0857
 30
0.0
  0
SPLINE
  5
16E
330
1F
100
AcDbEntity
  8
DEFAULT_1
 62
   250
100
AcDbSpline
210
0.0
220
0.0
230
1.0
 70
    24
 71
     3
 72
     8
 73
     4
 74
     0
 42
0.0000000001
 43
0.0000000001
 40
0.0
 40
0.0
 40
0.0
 40
0.0
 40
1.0
 40
1.0
 40
1.0
 40
1.0
 10
3.552
 20
12.6012
 30
0.0
 10
3.552
 20
12.6012
 30
0.0
 10
12.1196
 20
12.6012
 30
0.0
 10
12.1196
 20
12.6012
 30
0.0
  0
SPLINE
  5
16F
330
1F
100
AcDbEntity
  8
DEFAULT_1
 62
   250
100
AcDbSpline
210
0.0
220
0.0
230
1.0
 70
    24
 71
     3
 72
     8
 73
     4
 74
     0
 42
0.0000000001
 43
0.0000000001
 40
0.0
 40
0.0
 40
0.0
 40
0.0
 40
1.0
 40
1.0
 40
1.0
 40
1.0
 10
12.1196
 20
12.4697
 30
0.0
 10
12.1196
 20
12.4697
 30
0.0
 10
3.552
 20
12.4697
 30
0.0
 10
3.552
 20
12.4697
 30
0.0
  0
SPLINE
  5
170
330
1F
100
AcDbEntity
  8
DEFAULT_1
 62
   250
100
AcDbSpline
210
0.0
220
0.0
230
1.0
 70
    24
 71
     3
 72
     8
 73
     4
 74
     0
 42
0.0000000001
 43
0.0000000001
 40
0.0
 40
0.0
 40
0.0
 40
0.0
 40
1.0
 40
1.0
 40
1.0
 40
1.0
 10
-5.4412
 20
11.9238
 30
0.0
 10
-5.4412
 20
11.9238
 30
0.0
 10
3.1263
 20
11.9238
 30
0.0
 10
3.1263
 20
11.9238
 30
0.0
  0
SPLINE
  5
171
330
1F
100
AcDbEntity
  8
DEFAULT_1
 62
   250
100
AcDbSpline
210
0.0
220
0.0
230
1.0
 70
    24
 71
     3
 72
     8
 73
     4
 74
     0
 42
0.0000000001
 43
0.0000000001
 40
0.0
 40
0.0
 40
0.0
 40
0.0
 40
1.0
 40
1.0
 40
1.0
 40
1.0
 10
3.5508
 20
11.6464
 30
0.0
 10
3.5508
 20
11.6464
 30
0.0
 10
9.3862
 20
11.6464
 30
0.0
 10
9.3862
 20
11.6464
 30
0.0
  0
SPLINE
  5
172
330
1F
100
AcDbEntity
  8
DEFAULT_1
 62
   250
100
AcDbSpline
210
0.0
220
0.0
230
1.0
 70
    24
 71
     3
 72
     8
 73
     4
 74
     0
 42
0.0000000001
 43
0.0000000001
 40
0.0
 40
0.0
 40
0.0
 40
0.0
 40
1.0
 40
1.0
 40
1.0
 40
1.0
 10
11.891
 20
11.6464
 30
0.0
 10
11.891
 20
11.6464
 30
0.0
 10
9.4591
 20
11.6464
 30
0.0
 10
9.4591
 20
11.6464
 30
0.0
  0
SPLINE
  5
173
330
1F
100
AcDbEntity
  8
DEFAULT_1
 62
   250
100
AcDbSpline
210
0.0
220
0.0
230
1.0
 70
    24
 71
     3
 72
     8
 73
     4
 74
     0
 42
0.0000000001
 43
0.0000000001
 40
0.0
 40
0.0
 40
0.0
 40
0.0
 40
1.0
 40
1.0
 40
1.0
 40
1.0
 10
-5.2125
 20
11.9851
 30
0.0
 10
-5.2125
 20
11.9851
 30
0.0
 10
3.1275
 20
11.9851
 30
0.0
 10
3.1275
 20
11.9851
 30
0.0
  0
SPLINE
  5
174
330
1F
100
AcDbEntity
  8
DEFAULT_1
 62
   250
100
AcDbSpline
210
0.0
220
0.0
230
1.0
 70
    24
 71
     3
 72
     8
 73
     4
 74
     0
 42
0.0000000001
 43
0.0000000001
 40
0.0
 40
0.0
 40
0.0
 40
0.0
 40
1.0
 40
1.0
 40
1.0
 40
1.0
 10
-5.4412
 20
13.2786
 30
0.0
 10
-5.4412
 20
13.2786
 30
0.0
 10
3.1263
 20
13.2786
 30
0.0
 10
3.1263
 20
13.2786
 30
0.0
  0
SPLINE
  5
175
330
1F
100
AcDbEntity
  8
DEFAULT_1
 62
   250
100
AcDbSpline
210
0.0
220
0.0
230
1.0
 70
    24
 71
     3
 72
     8
 73
     4
 74
     0
 42
0.0000000001
 43
0.0000000001
 40
0.0
 40
0.0
 40
0.0
 40
0.0
 40
1.0
 40
1.0
 40
1.0
 40
1.0
 10
-5.4412
 20
15.1791
 30
0.0
 10
-5.4412
 20
15.1791
 30
0.0
 10
3.1263
 20
15.1791
 30
0.0
 10
3.1263
 20
15.1791
 30
0.0
  0
SPLINE
  5
176
330
1F
100
AcDbEntity
  8
DEFAULT_1
 62
   250
100
AcDbSpline
210
0.0
220
0.0
230
1.0
 70
    24
 71
     3
 72
     8
 73
     4
 74
     0
 42
0.0000000001
 43
0.0000000001
 40
0.0
 40
0.0
 40
0.0
 40
0.0
 40
1.0
 40
1.0
 40
1.0
 40
1.0
 10
-5.4412
 20
15.8565
 30
0.0
 10
-5.4412
 20
15.8565
 30
0.0
 10
3.1263
 20
15.8565
 30
0.0
 10
3.1263
 20
15.8565
 30
0.0
  0
SPLINE
  5
177
330
1F
100
AcDbEntity
  8
DEFAULT_1
 62
   250
100
AcDbSpline
210
0.0
220
0.0
230
1.0
 70
    24
 71
     3
 72
     8
 73
     4
 74
     0
 42
0.0000000001
 43
0.0000000001
 40
0.0
 40
0.0
 40
0.0
 40
0.0
 40
1.0
 40
1.0
 40
1.0
 40
1.0
 10
3.1275
 20
15.7952
 30
0.0
 10
3.1275
 20
15.7952
 30
0.0
 10
-5.2125
 20
15.7952
 30
0.0
 10
-5.2125
 20
15.7952
 30
0.0
  0
SPLINE
  5
178
330
1F
100
AcDbEntity
  8
DEFAULT_1
 62
   250
100
AcDbSpline
210
0.0
220
0.0
230
1.0
 70
    24
 71
     3
 72
     8
 73
     4
 74
     0
 42
0.0000000001
 43
0.0000000001
 40
0.0
 40
0.0
 40
0.0
 40
0.0
 40
1.0
 40
1.0
 40
1.0
 40
1.0
 10
-5.2125
 20
16.0493
 30
0.0
 10
-5.2125
 20
16.0493
 30
0.0
 10
3.1275
 20
16.0493
 30
0.0
 10
3.1275
 20
16.0493
 30
0.0
  0
SPLINE
  5
179
330
1F
100
AcDbEntity
  8
DEFAULT_1
 62
   250
100
AcDbSpline
210
0.0
220
0.0
230
1.0
 70
    24
 71
     3
 72
     8
 73
     4
 74
     0
 42
0.0000000001
 43
0.0000000001
 40
0.0
 40
0.0
 40
0.0
 40
0.0
 40
1.0
 40
1.0
 40
1.0
 40
1.0
 10
3.1263
 20
15.988
 30
0.0
 10
3.1263
 20
15.988
 30
0.0
 10
-5.4412
 20
15.988
 30
0.0
 10
-5.4412
 20
15.988
 30
0.0
  0
SPLINE
  5
17A
330
1F
100
AcDbEntity
  8
DEFAULT_1
 62
   250
100
AcDbSpline
210
0.0
220
0.0
230
1.0
 70
    24
 71
     3
 72
     8
 73
     4
 74
     0
 42
0.0000000001
 43
0.0000000001
 40
0.0
 40
0.0
 40
0.0
 40
0.0
 40
1.0
 40
1.0
 40
1.0
 40
1.0
 10
-5.4412
 20
16.5339
 30
0.0
 10
-5.4412
 20
16.5339
 30
0.0
 10
3.1263
 20
16.5339
 30
0.0
 10
3.1263
 20
16.5339
 30
0.0
  0
SPLINE
  5
17B
330
1F
100
AcDbEntity
  8
DEFAULT_1
 62
   250
100
AcDbSpline
210
0.0
220
0.0
230
1.0
 70
    24
 71
     3
 72
     8
 73
     4
 74
     0
 42
0.0000000001
 43
0.0000000001
 40
0.0
 40
0.0
 40
0.0
 40
0.0
 40
1.0
 40
1.0
 40
1.0
 40
1.0
 10
3.5508
 20
17.404
 30
0.0
 10
3.5508
 20
17.404
 30
0.0
 10
3.5508
 20
17.15
 30
0.0
 10
3.5508
 20
17.15
 30
0.0
  0
SPLINE
  5
17C
330
1F
100
AcDbEntity
  8
DEFAULT_1
 62
   250
100
AcDbSpline
210
0.0
220
0.0
230
1.0
 70
    24
 71
     3
 72
     8
 73
     4
 74
     0
 42
0.0000000001
 43
0.0000000001
 40
0.0
 40
0.0
 40
0.0
 40
0.0
 40
1.0
 40
1.0
 40
1.0
 40
1.0
 10
-5.2125
 20
16.7266
 30
0.0
 10
-5.2125
 20
16.7266
 30
0.0
 10
3.1275
 20
16.7266
 30
0.0
 10
3.1275
 20
16.7266
 30
0.0
  0
SPLINE
  5
17D
330
1F
100
AcDbEntity
  8
DEFAULT_1
 62
   250
100
AcDbSpline
210
0.0
220
0.0
230
1.0
 70
    24
 71
     3
 72
     8
 73
     4
 74
     0
 42
0.0000000001
 43
0.0000000001
 40
0.0
 40
0.0
 40
0.0
 40
0.0
 40
1.0
 40
1.0
 40
1.0
 40
1.0
 10
3.1263
 20
17.2112
 30
0.0
 10
3.1263
 20
17.2112
 30
0.0
 10
-5.4412
 20
17.2112
 30
0.0
 10
-5.4412
 20
17.2112
 30
0.0
  0
SPLINE
  5
17E
330
1F
100
AcDbEntity
  8
DEFAULT_1
 62
   250
100
AcDbSpline
210
0.0
220
0.0
230
1.0
 70
    24
 71
     3
 72
     8
 73
     4
 74
     0
 42
0.0000000001
 43
0.0000000001
 40
0.0
 40
0.0
 40
0.0
 40
0.0
 40
1.0
 40
1.0
 40
1.0
 40
1.0
 10
-5.4412
 20
17.3428
 30
0.0
 10
-5.4412
 20
17.3428
 30
0.0
 10
3.1263
 20
17.3428
 30
0.0
 10
3.1263
 20
17.3428
 30
0.0
  0
SPLINE
  5
17F
330
1F
100
AcDbEntity
  8
DEFAULT_1
 62
   250
100
AcDbSpline
210
0.0
220
0.0
230
1.0
 70
    24
 71
     3
 72
     8
 73
     4
 74
     0
 42
0.0000000001
 43
0.0000000001
 40
0.0
 40
0.0
 40
0.0
 40
0.0
 40
1.0
 40
1.0
 40
1.0
 40
1.0
 10
-5.2125
 20
17.404
 30
0.0
 10
-5.2125
 20
17.404
 30
0.0
 10
3.1275
 20
17.404
 30
0.0
 10
3.1275
 20
17.404
 30
0.0
  0
SPLINE
  5
180
330
1F
100
AcDbEntity
  8
DEFAULT_1
 62
   250
100
AcDbSpline
210
0.0
220
0.0
230
1.0
 70
    24
 71
     3
 72
     8
 73
     4
 74
     0
 42
0.0000000001
 43
0.0000000001
 40
0.0
 40
0.0
 40
0.0
 40
0.0
 40
1.0
 40
1.0
 40
1.0
 40
1.0
 10
3.1263
 20
18.0201
 30
0.0
 10
3.1263
 20
18.0201
 30
0.0
 10
-5.4412
 20
18.0201
 30
0.0
 10
-5.4412
 20
18.0201
 30
0.0
  0
SPLINE
  5
181
330
1F
100
AcDbEntity
  8
DEFAULT_1
 62
   250
100
AcDbSpline
210
0.0
220
0.0
230
1.0
 70
    24
 71
     3
 72
     8
 73
     4
 74
     0
 42
0.0000000001
 43
0.0000000001
 40
0.0
 40
0.0
 40
0.0
 40
0.0
 40
1.0
 40
1.0
 40
1.0
 40
1.0
 10
-5.4412
 20
18.566
 30
0.0
 10
-5.4412
 20
18.566
 30
0.0
 10
3.1263
 20
18.566
 30
0.0
 10
3.1263
 20
18.566
 30
0.0
  0
SPLINE
  5
182
330
1F
100
AcDbEntity
  8
DEFAULT_1
 62
   250
100
AcDbSpline
210
0.0
220
0.0
230
1.0
 70
    24
 71
     3
 72
     8
 73
     4
 74
     0
 42
0.0000000001
 43
0.0000000001
 40
0.0
 40
0.0
 40
0.0
 40
0.0
 40
1.0
 40
1.0
 40
1.0
 40
1.0
 10
-5.4412
 20
19.2434
 30
0.0
 10
-5.4412
 20
19.2434
 30
0.0
 10
3.1263
 20
19.2434
 30
0.0
 10
3.1263
 20
19.2434
 30
0.0
  0
SPLINE
  5
183
330
1F
100
AcDbEntity
  8
DEFAULT_1
 62
   250
100
AcDbSpline
210
0.0
220
0.0
230
1.0
 70
    24
 71
     3
 72
     8
 73
     4
 74
     0
 42
0.0000000001
 43
0.0000000001
 40
0.0
 40
0.0
 40
0.0
 40
0.0
 40
1.0
 40
1.0
 40
1.0
 40
1.0
 10
3.1263
 20
19.3749
 30
0.0
 10
3.1263
 20
19.3749
 30
0.0
 10
-5.4412
 20
19.3749
 30
0.0
 10
-5.4412
 20
19.3749
 30
0.0
  0
SPLINE
  5
184
330
1F
100
AcDbEntity
  8
DEFAULT_1
 62
   250
100
AcDbSpline
210
0.0
220
0.0
230
1.0
 70
    24
 71
     3
 72
     8
 73
     4
 74
     0
 42
0.0000000001
 43
0.0000000001
 40
0.0
 40
0.0
 40
0.0
 40
0.0
 40
1.0
 40
1.0
 40
1.0
 40
1.0
 10
-5.4412
 20
19.9207
 30
0.0
 10
-5.4412
 20
19.9207
 30
0.0
 10
3.1263
 20
19.9207
 30
0.0
 10
3.1263
 20
19.9207
 30
0.0
  0
SPLINE
  5
185
330
1F
100
AcDbEntity
  8
DEFAULT_1
 62
   250
100
AcDbSpline
210
0.0
220
0.0
230
1.0
 70
    24
 71
     3
 72
     8
 73
     4
 74
     0
 42
0.0000000001
 43
0.0000000001
 40
0.0
 40
0.0
 40
0.0
 40
0.0
 40
1.0
 40
1.0
 40
1.0
 40
1.0
 10
3.1263
 20
20.7295
 30
0.0
 10
3.1263
 20
20.7295
 30
0.0
 10
-5.4412
 20
20.7295
 30
0.0
 10
-5.4412
 20
20.7295
 30
0.0
  0
SPLINE
  5
186
330
1F
100
AcDbEntity
  8
DEFAULT_1
 62
   250
100
AcDbSpline
210
0.0
220
0.0
230
1.0
 70
    24
 71
     3
 72
     8
 73
     4
 74
     0
 42
0.0000000001
 43
0.0000000001
 40
0.0
 40
0.0
 40
0.0
 40
0.0
 40
1.0
 40
1.0
 40
1.0
 40
1.0
 10
-5.4412
 20
20.5981
 30
0.0
 10
-5.4412
 20
20.5981
 30
0.0
 10
3.1263
 20
20.5981
 30
0.0
 10
3.1263
 20
20.5981
 30
0.0
  0
SPLINE
  5
187
330
1F
100
AcDbEntity
  8
DEFAULT_1
 62
   250
100
AcDbSpline
210
0.0
220
0.0
230
1.0
 70
    24
 71
     3
 72
     8
 73
     4
 74
     0
 42
0.0000000001
 43
0.0000000001
 40
0.0
 40
0.0
 40
0.0
 40
0.0
 40
1.0
 40
1.0
 40
1.0
 40
1.0
 10
-5.2125
 20
20.1135
 30
0.0
 10
-5.2125
 20
20.1135
 30
0.0
 10
3.1275
 20
20.1135
 30
0.0
 10
3.1275
 20
20.1135
 30
0.0
  0
SPLINE
  5
188
330
1F
100
AcDbEntity
  8
DEFAULT_1
 62
   250
100
AcDbSpline
210
0.0
220
0.0
230
1.0
 70
    24
 71
     3
 72
     8
 73
     4
 74
     0
 42
0.0000000001
 43
0.0000000001
 40
0.0
 40
0.0
 40
0.0
 40
0.0
 40
1.0
 40
1.0
 40
1.0
 40
1.0
 10
3.1275
 20
20.5368
 30
0.0
 10
3.1275
 20
20.5368
 30
0.0
 10
-5.2125
 20
20.5368
 30
0.0
 10
-5.2125
 20
20.5368
 30
0.0
  0
SPLINE
  5
189
330
1F
100
AcDbEntity
  8
DEFAULT_1
 62
   250
100
AcDbSpline
210
0.0
220
0.0
230
1.0
 70
    24
 71
     3
 72
     8
 73
     4
 74
     0
 42
0.0000000001
 43
0.0000000001
 40
0.0
 40
0.0
 40
0.0
 40
0.0
 40
1.0
 40
1.0
 40
1.0
 40
1.0
 10
-5.2125
 20
20.7909
 30
0.0
 10
-5.2125
 20
20.7909
 30
0.0
 10
3.1275
 20
20.7909
 30
0.0
 10
3.1275
 20
20.7909
 30
0.0
  0
SPLINE
  5
18A
330
1F
100
AcDbEntity
  8
DEFAULT_1
 62
   250
100
AcDbSpline
210
0.0
220
0.0
230
1.0
 70
    24
 71
     3
 72
     8
 73
     4
 74
     0
 42
0.0000000001
 43
0.0000000001
 40
0.0
 40
0.0
 40
0.0
 40
0.0
 40
1.0
 40
1.0
 40
1.0
 40
1.0
 10
11.891
 20
21.8916
 30
0.0
 10
11.891
 20
21.8916
 30
0.0
 10
3.5508
 20
21.8916
 30
0.0
 10
3.5508
 20
21.8916
 30
0.0
  0
SPLINE
  5
18B
330
1F
100
AcDbEntity
  8
DEFAULT_1
 62
   250
100
AcDbSpline
210
0.0
220
0.0
230
1.0
 70
    24
 71
     3
 72
     8
 73
     4
 74
     0
 42
0.0000000001
 43
0.0000000001
 40
0.0
 40
0.0
 40
0.0
 40
0.0
 40
1.0
 40
1.0
 40
1.0
 40
1.0
 10
-5.2125
 20
22.1456
 30
0.0
 10
-5.2125
 20
22.1456
 30
0.0
 10
3.1275
 20
22.1456
 30
0.0
 10
3.1275
 20
22.1456
 30
0.0
  0
SPLINE
  5
18C
330
1F
100
AcDbEntity
  8
DEFAULT_1
 62
   250
100
AcDbSpline
210
0.0
220
0.0
230
1.0
 70
    24
 71
     3
 72
     8
 73
     4
 74
     0
 42
0.0000000001
 43
0.0000000001
 40
0.0
 40
0.0
 40
0.0
 40
0.0
 40
1.0
 40
1.0
 40
1.0
 40
1.0
 10
11.891
 20
22.1456
 30
0.0
 10
11.891
 20
22.1456
 30
0.0
 10
3.5508
 20
22.1456
 30
0.0
 10
3.5508
 20
22.1456
 30
0.0
  0
SPLINE
  5
18D
330
1F
100
AcDbEntity
  8
DEFAULT_1
 62
   250
100
AcDbSpline
210
0.0
220
0.0
230
1.0
 70
    24
 71
     3
 72
     8
 73
     4
 74
     0
 42
0.0000000001
 43
0.0000000001
 40
0.0
 40
0.0
 40
0.0
 40
0.0
 40
1.0
 40
1.0
 40
1.0
 40
1.0
 10
3.1275
 20
21.8916
 30
0.0
 10
3.1275
 20
21.8916
 30
0.0
 10
-5.2125
 20
21.8916
 30
0.0
 10
-5.2125
 20
21.8916
 30
0.0
  0
SPLINE
  5
18E
330
1F
100
AcDbEntity
  8
DEFAULT_1
 62
   250
100
AcDbSpline
210
0.0
220
0.0
230
1.0
 70
    24
 71
     3
 72
     8
 73
     4
 74
     0
 42
0.0000000001
 43
0.0000000001
 40
0.0
 40
0.0
 40
0.0
 40
0.0
 40
1.0
 40
1.0
 40
1.0
 40
1.0
 10
-5.2125
 20
21.4682
 30
0.0
 10
-5.2125
 20
21.4682
 30
0.0
 10
3.1275
 20
21.4682
 30
0.0
 10
3.1275
 20
21.4682
 30
0.0
  0
SPLINE
  5
18F
330
1F
100
AcDbEntity
  8
DEFAULT_1
 62
   250
100
AcDbSpline
210
0.0
220
0.0
230
1.0
 70
    24
 71
     3
 72
     8
 73
     4
 74
     0
 42
0.0000000001
 43
0.0000000001
 40
0.0
 40
0.0
 40
0.0
 40
0.0
 40
1.0
 40
1.0
 40
1.0
 40
1.0
 10
-5.4412
 20
21.2755
 30
0.0
 10
-5.4412
 20
21.2755
 30
0.0
 10
3.1263
 20
21.2755
 30
0.0
 10
3.1263
 20
21.2755
 30
0.0
  0
SPLINE
  5
190
330
1F
100
AcDbEntity
  8
DEFAULT_1
 62
   250
100
AcDbSpline
210
0.0
220
0.0
230
1.0
 70
    24
 71
     3
 72
     8
 73
     4
 74
     0
 42
0.0000000001
 43
0.0000000001
 40
0.0
 40
0.0
 40
0.0
 40
0.0
 40
1.0
 40
1.0
 40
1.0
 40
1.0
 10
3.1263
 20
22.7617
 30
0.0
 10
3.1263
 20
22.7617
 30
0.0
 10
-5.4412
 20
22.7617
 30
0.0
 10
-5.4412
 20
22.7617
 30
0.0
  0
SPLINE
  5
191
330
1F
100
AcDbEntity
  8
DEFAULT_1
 62
   250
100
AcDbSpline
210
0.0
220
0.0
230
1.0
 70
    24
 71
     3
 72
     8
 73
     4
 74
     0
 42
0.0000000001
 43
0.0000000001
 40
0.0
 40
0.0
 40
0.0
 40
0.0
 40
1.0
 40
1.0
 40
1.0
 40
1.0
 10
3.1275
 20
23.2462
 30
0.0
 10
3.1275
 20
23.2462
 30
0.0
 10
-5.2125
 20
23.2462
 30
0.0
 10
-5.2125
 20
23.2462
 30
0.0
  0
SPLINE
  5
192
330
1F
100
AcDbEntity
  8
DEFAULT_1
 62
   250
100
AcDbSpline
210
0.0
220
0.0
230
1.0
 70
    24
 71
     3
 72
     8
 73
     4
 74
     0
 42
0.0000000001
 43
0.0000000001
 40
0.0
 40
0.0
 40
0.0
 40
0.0
 40
1.0
 40
1.0
 40
1.0
 40
1.0
 10
3.1275
 20
22.8229
 30
0.0
 10
3.1275
 20
22.8229
 30
0.0
 10
-5.2125
 20
22.8229
 30
0.0
 10
-5.2125
 20
22.8229
 30
0.0
  0
SPLINE
  5
193
330
1F
100
AcDbEntity
  8
DEFAULT_1
 62
   250
100
AcDbSpline
210
0.0
220
0.0
230
1.0
 70
    24
 71
     3
 72
     8
 73
     4
 74
     0
 42
0.0000000001
 43
0.0000000001
 40
0.0
 40
0.0
 40
0.0
 40
0.0
 40
1.0
 40
1.0
 40
1.0
 40
1.0
 10
3.1275
 20
22.5688
 30
0.0
 10
3.1275
 20
22.5688
 30
0.0
 10
-5.2125
 20
22.5688
 30
0.0
 10
-5.2125
 20
22.5688
 30
0.0
  0
SPLINE
  5
194
330
1F
100
AcDbEntity
  8
DEFAULT_1
 62
   250
100
AcDbSpline
210
0.0
220
0.0
230
1.0
 70
    24
 71
     3
 72
     8
 73
     4
 74
     0
 42
0.0000000001
 43
0.0000000001
 40
0.0
 40
0.0
 40
0.0
 40
0.0
 40
1.0
 40
1.0
 40
1.0
 40
1.0
 10
-5.4412
 20
21.9527
 30
0.0
 10
-5.4412
 20
21.9527
 30
0.0
 10
3.1263
 20
21.9527
 30
0.0
 10
3.1263
 20
21.9527
 30
0.0
  0
SPLINE
  5
195
330
1F
100
AcDbEntity
  8
DEFAULT_1
 62
   250
100
AcDbSpline
210
0.0
220
0.0
230
1.0
 70
    24
 71
     3
 72
     8
 73
     4
 74
     0
 42
0.0000000001
 43
0.0000000001
 40
0.0
 40
0.0
 40
0.0
 40
0.0
 40
1.0
 40
1.0
 40
1.0
 40
1.0
 10
3.5508
 20
22.5688
 30
0.0
 10
3.5508
 20
22.5688
 30
0.0
 10
11.891
 20
22.5688
 30
0.0
 10
11.891
 20
22.5688
 30
0.0
  0
SPLINE
  5
196
330
1F
100
AcDbEntity
  8
DEFAULT_1
 62
   250
100
AcDbSpline
210
0.0
220
0.0
230
1.0
 70
    24
 71
     3
 72
     8
 73
     4
 74
     0
 42
0.0000000001
 43
0.0000000001
 40
0.0
 40
0.0
 40
0.0
 40
0.0
 40
1.0
 40
1.0
 40
1.0
 40
1.0
 10
11.891
 20
22.8229
 30
0.0
 10
11.891
 20
22.8229
 30
0.0
 10
3.5508
 20
22.8229
 30
0.0
 10
3.5508
 20
22.8229
 30
0.0
  0
SPLINE
  5
197
330
1F
100
AcDbEntity
  8
DEFAULT_1
 62
   250
100
AcDbSpline
210
0.0
220
0.0
230
1.0
 70
    24
 71
     3
 72
     8
 73
     4
 74
     0
 42
0.0000000001
 43
0.0000000001
 40
0.0
 40
0.0
 40
0.0
 40
0.0
 40
1.0
 40
1.0
 40
1.0
 40
1.0
 10
3.1263
 20
23.9849
 30
0.0
 10
3.1263
 20
23.9849
 30
0.0
 10
-5.4412
 20
23.9849
 30
0.0
 10
-5.4412
 20
23.9849
 30
0.0
  0
SPLINE
  5
198
330
1F
100
AcDbEntity
  8
DEFAULT_1
 62
   250
100
AcDbSpline
210
0.0
220
0.0
230
1.0
 70
    24
 71
     3
 72
     8
 73
     4
 74
     0
 42
0.0000000001
 43
0.0000000001
 40
0.0
 40
0.0
 40
0.0
 40
0.0
 40
1.0
 40
1.0
 40
1.0
 40
1.0
 10
3.1275
 20
23.9236
 30
0.0
 10
3.1275
 20
23.9236
 30
0.0
 10
-5.2125
 20
23.9236
 30
0.0
 10
-5.2125
 20
23.9236
 30
0.0
  0
SPLINE
  5
199
330
1F
100
AcDbEntity
  8
DEFAULT_1
 62
   250
100
AcDbSpline
210
0.0
220
0.0
230
1.0
 70
    24
 71
     3
 72
     8
 73
     4
 74
     0
 42
0.0000000001
 43
0.0000000001
 40
0.0
 40
0.0
 40
0.0
 40
0.0
 40
1.0
 40
1.0
 40
1.0
 40
1.0
 10
3.1275
 20
23.5002
 30
0.0
 10
3.1275
 20
23.5002
 30
0.0
 10
-5.2125
 20
23.5002
 30
0.0
 10
-5.2125
 20
23.5002
 30
0.0
  0
SPLINE
  5
19A
330
1F
100
AcDbEntity
  8
DEFAULT_1
 62
   250
100
AcDbSpline
210
0.0
220
0.0
230
1.0
 70
    24
 71
     3
 72
     8
 73
     4
 74
     0
 42
0.0000000001
 43
0.0000000001
 40
0.0
 40
0.0
 40
0.0
 40
0.0
 40
1.0
 40
1.0
 40
1.0
 40
1.0
 10
11.891
 20
23.5002
 30
0.0
 10
11.891
 20
23.5002
 30
0.0
 10
3.5508
 20
23.5002
 30
0.0
 10
3.5508
 20
23.5002
 30
0.0
  0
SPLINE
  5
19B
330
1F
100
AcDbEntity
  8
DEFAULT_1
 62
   250
100
AcDbSpline
210
0.0
220
0.0
230
1.0
 70
    24
 71
     3
 72
     8
 73
     4
 74
     0
 42
0.0000000001
 43
0.0000000001
 40
0.0
 40
0.0
 40
0.0
 40
0.0
 40
1.0
 40
1.0
 40
1.0
 40
1.0
 10
3.1276
 20
23.9236
 30
0.0
 10
3.1276
 20
23.9236
 30
0.0
 10
3.1276
 20
24.1776
 30
0.0
 10
3.1276
 20
24.1776
 30
0.0
  0
SPLINE
  5
19C
330
1F
100
AcDbEntity
  8
DEFAULT_1
 62
   250
100
AcDbSpline
210
0.0
220
0.0
230
1.0
 70
    24
 71
     3
 72
     8
 73
     4
 74
     0
 42
0.0000000001
 43
0.0000000001
 40
0.0
 40
0.0
 40
0.0
 40
0.0
 40
1.0
 40
1.0
 40
1.0
 40
1.0
 10
-5.4412
 20
24.7937
 30
0.0
 10
-5.4412
 20
24.7937
 30
0.0
 10
3.1263
 20
24.7937
 30
0.0
 10
3.1263
 20
24.7937
 30
0.0
  0
SPLINE
  5
19D
330
1F
100
AcDbEntity
  8
DEFAULT_1
 62
   250
100
AcDbSpline
210
0.0
220
0.0
230
1.0
 70
    24
 71
     3
 72
     8
 73
     4
 74
     0
 42
0.0000000001
 43
0.0000000001
 40
0.0
 40
0.0
 40
0.0
 40
0.0
 40
1.0
 40
1.0
 40
1.0
 40
1.0
 10
11.891
 20
25.2783
 30
0.0
 10
11.891
 20
25.2783
 30
0.0
 10
3.5508
 20
25.2783
 30
0.0
 10
3.5508
 20
25.2783
 30
0.0
  0
SPLINE
  5
19E
330
1F
100
AcDbEntity
  8
DEFAULT_1
 62
   250
100
AcDbSpline
210
0.0
220
0.0
230
1.0
 70
    24
 71
     3
 72
     8
 73
     4
 74
     0
 42
0.0000000001
 43
0.0000000001
 40
0.0
 40
0.0
 40
0.0
 40
0.0
 40
1.0
 40
1.0
 40
1.0
 40
1.0
 10
3.1275
 20
25.5324
 30
0.0
 10
3.1275
 20
25.5324
 30
0.0
 10
-5.2125
 20
25.5324
 30
0.0
 10
-5.2125
 20
25.5324
 30
0.0
  0
SPLINE
  5
19F
330
1F
100
AcDbEntity
  8
DEFAULT_1
 62
   250
100
AcDbSpline
210
0.0
220
0.0
230
1.0
 70
    24
 71
     3
 72
     8
 73
     4
 74
     0
 42
0.0000000001
 43
0.0000000001
 40
0.0
 40
0.0
 40
0.0
 40
0.0
 40
1.0
 40
1.0
 40
1.0
 40
1.0
 10
-5.2125
 20
25.9557
 30
0.0
 10
-5.2125
 20
25.9557
 30
0.0
 10
11.891
 20
25.9557
 30
0.0
 10
11.891
 20
25.9557
 30
0.0
  0
SPLINE
  5
1A0
330
1F
100
AcDbEntity
  8
DEFAULT_1
 62
   250
100
AcDbSpline
210
0.0
220
0.0
230
1.0
 70
    24
 71
     3
 72
     8
 73
     4
 74
     0
 42
0.0000000001
 43
0.0000000001
 40
0.0
 40
0.0
 40
0.0
 40
0.0
 40
1.0
 40
1.0
 40
1.0
 40
1.0
 10
3.1263
 20
25.471
 30
0.0
 10
3.1263
 20
25.471
 30
0.0
 10
-5.4412
 20
25.471
 30
0.0
 10
-5.4412
 20
25.471
 30
0.0
  0
SPLINE
  5
1A1
330
1F
100
AcDbEntity
  8
DEFAULT_1
 62
   250
100
AcDbSpline
210
0.0
220
0.0
230
1.0
 70
    24
 71
     3
 72
     8
 73
     4
 74
     0
 42
0.0000000001
 43
0.0000000001
 40
0.0
 40
0.0
 40
0.0
 40
0.0
 40
1.0
 40
1.0
 40
1.0
 40
1.0
 10
3.1263
 20
25.3396
 30
0.0
 10
3.1263
 20
25.3396
 30
0.0
 10
-5.4412
 20
25.3396
 30
0.0
 10
-5.4412
 20
25.3396
 30
0.0
  0
SPLINE
  5
1A2
330
1F
100
AcDbEntity
  8
DEFAULT_1
 62
   250
100
AcDbSpline
210
0.0
220
0.0
230
1.0
 70
    24
 71
     3
 72
     8
 73
     4
 74
     0
 42
0.0000000001
 43
0.0000000001
 40
0.0
 40
0.0
 40
0.0
 40
0.0
 40
1.0
 40
1.0
 40
1.0
 40
1.0
 10
11.891
 20
24.1776
 30
0.0
 10
11.891
 20
24.1776
 30
0.0
 10
3.5508
 20
24.1776
 30
0.0
 10
3.5508
 20
24.1776
 30
0.0
  0
SPLINE
  5
1A3
330
1F
100
AcDbEntity
  8
DEFAULT_1
 62
   250
100
AcDbSpline
210
0.0
220
0.0
230
1.0
 70
    24
 71
     3
 72
     8
 73
     4
 74
     0
 42
0.0000000001
 43
0.0000000001
 40
0.0
 40
0.0
 40
0.0
 40
0.0
 40
1.0
 40
1.0
 40
1.0
 40
1.0
 10
-5.2125
 20
21.2142
 30
0.0
 10
-5.2125
 20
21.2142
 30
0.0
 10
3.1275
 20
21.2142
 30
0.0
 10
3.1275
 20
21.2142
 30
0.0
  0
SPLINE
  5
1A4
330
1F
100
AcDbEntity
  8
DEFAULT_1
 62
   250
100
AcDbSpline
210
0.0
220
0.0
230
1.0
 70
    24
 71
     3
 72
     8
 73
     4
 74
     0
 42
0.0000000001
 43
0.0000000001
 40
0.0
 40
0.0
 40
0.0
 40
0.0
 40
1.0
 40
1.0
 40
1.0
 40
1.0
 10
-5.4412
 20
21.4069
 30
0.0
 10
-5.4412
 20
21.4069
 30
0.0
 10
3.1263
 20
21.4069
 30
0.0
 10
3.1263
 20
21.4069
 30
0.0
  0
SPLINE
  5
1A5
330
1F
100
AcDbEntity
  8
DEFAULT_1
 62
   250
100
AcDbSpline
210
0.0
220
0.0
230
1.0
 70
    24
 71
     3
 72
     8
 73
     4
 74
     0
 42
0.0000000001
 43
0.0000000001
 40
0.0
 40
0.0
 40
0.0
 40
0.0
 40
1.0
 40
1.0
 40
1.0
 40
1.0
 10
-5.2125
 20
19.4361
 30
0.0
 10
-5.2125
 20
19.4361
 30
0.0
 10
3.1275
 20
19.4361
 30
0.0
 10
3.1275
 20
19.4361
 30
0.0
  0
SPLINE
  5
1A6
330
1F
100
AcDbEntity
  8
DEFAULT_1
 62
   250
100
AcDbSpline
210
0.0
220
0.0
230
1.0
 70
    24
 71
     3
 72
     8
 73
     4
 74
     0
 42
0.0000000001
 43
0.0000000001
 40
0.0
 40
0.0
 40
0.0
 40
0.0
 40
1.0
 40
1.0
 40
1.0
 40
1.0
 10
3.1263
 20
18.6975
 30
0.0
 10
3.1263
 20
18.6975
 30
0.0
 10
-5.4412
 20
18.6975
 30
0.0
 10
-5.4412
 20
18.6975
 30
0.0
  0
SPLINE
  5
1A7
330
1F
100
AcDbEntity
  8
DEFAULT_1
 62
   250
100
AcDbSpline
210
0.0
220
0.0
230
1.0
 70
    24
 71
     3
 72
     8
 73
     4
 74
     0
 42
0.0000000001
 43
0.0000000001
 40
0.0
 40
0.0
 40
0.0
 40
0.0
 40
1.0
 40
1.0
 40
1.0
 40
1.0
 10
-5.2125
 20
18.0814
 30
0.0
 10
-5.2125
 20
18.0814
 30
0.0
 10
3.1275
 20
18.0814
 30
0.0
 10
3.1275
 20
18.0814
 30
0.0
  0
SPLINE
  5
1A8
330
1F
100
AcDbEntity
  8
DEFAULT_1
 62
   250
100
AcDbSpline
210
0.0
220
0.0
230
1.0
 70
    24
 71
     3
 72
     8
 73
     4
 74
     0
 42
0.0000000001
 43
0.0000000001
 40
0.0
 40
0.0
 40
0.0
 40
0.0
 40
1.0
 40
1.0
 40
1.0
 40
1.0
 10
3.1275
 20
18.7588
 30
0.0
 10
3.1275
 20
18.7588
 30
0.0
 10
-5.2125
 20
18.7588
 30
0.0
 10
-5.2125
 20
18.7588
 30
0.0
  0
SPLINE
  5
1A9
330
1F
100
AcDbEntity
  8
DEFAULT_1
 62
   250
100
AcDbSpline
210
0.0
220
0.0
230
1.0
 70
    24
 71
     3
 72
     8
 73
     4
 74
     0
 42
0.0000000001
 43
0.0000000001
 40
0.0
 40
0.0
 40
0.0
 40
0.0
 40
1.0
 40
1.0
 40
1.0
 40
1.0
 10
3.1275
 20
19.1821
 30
0.0
 10
3.1275
 20
19.1821
 30
0.0
 10
-5.2125
 20
19.1821
 30
0.0
 10
-5.2125
 20
19.1821
 30
0.0
  0
SPLINE
  5
1AA
330
1F
100
AcDbEntity
  8
DEFAULT_1
 62
   250
100
AcDbSpline
210
0.0
220
0.0
230
1.0
 70
    24
 71
     3
 72
     8
 73
     4
 74
     0
 42
0.0000000001
 43
0.0000000001
 40
0.0
 40
0.0
 40
0.0
 40
0.0
 40
1.0
 40
1.0
 40
1.0
 40
1.0
 10
3.1275
 20
18.5048
 30
0.0
 10
3.1275
 20
18.5048
 30
0.0
 10
-5.2125
 20
18.5048
 30
0.0
 10
-5.2125
 20
18.5048
 30
0.0
  0
SPLINE
  5
1AB
330
1F
100
AcDbEntity
  8
DEFAULT_1
 62
   250
100
AcDbSpline
210
0.0
220
0.0
230
1.0
 70
    24
 71
     3
 72
     8
 73
     4
 74
     0
 42
0.0000000001
 43
0.0000000001
 40
0.0
 40
0.0
 40
0.0
 40
0.0
 40
1.0
 40
1.0
 40
1.0
 40
1.0
 10
-5.4412
 20
17.8886
 30
0.0
 10
-5.4412
 20
17.8886
 30
0.0
 10
3.1263
 20
17.8886
 30
0.0
 10
3.1263
 20
17.8886
 30
0.0
  0
SPLINE
  5
1AC
330
1F
100
AcDbEntity
  8
DEFAULT_1
 62
   250
100
AcDbSpline
210
0.0
220
0.0
230
1.0
 70
    24
 71
     3
 72
     8
 73
     4
 74
     0
 42
0.0000000001
 43
0.0000000001
 40
0.0
 40
0.0
 40
0.0
 40
0.0
 40
1.0
 40
1.0
 40
1.0
 40
1.0
 10
3.1275
 20
17.8274
 30
0.0
 10
3.1275
 20
17.8274
 30
0.0
 10
-5.2125
 20
17.8274
 30
0.0
 10
-5.2125
 20
17.8274
 30
0.0
  0
SPLINE
  5
1AD
330
1F
100
AcDbEntity
  8
DEFAULT_1
 62
   250
100
AcDbSpline
210
0.0
220
0.0
230
1.0
 70
    24
 71
     3
 72
     8
 73
     4
 74
     0
 42
0.0000000001
 43
0.0000000001
 40
0.0
 40
0.0
 40
0.0
 40
0.0
 40
1.0
 40
1.0
 40
1.0
 40
1.0
 10
-5.2125
 20
19.8594
 30
0.0
 10
-5.2125
 20
19.8594
 30
0.0
 10
3.1275
 20
19.8594
 30
0.0
 10
3.1275
 20
19.8594
 30
0.0
  0
SPLINE
  5
1AE
330
1F
100
AcDbEntity
  8
DEFAULT_1
 62
   250
100
AcDbSpline
210
0.0
220
0.0
230
1.0
 70
    24
 71
     3
 72
     8
 73
     4
 74
     0
 42
0.0000000001
 43
0.0000000001
 40
0.0
 40
0.0
 40
0.0
 40
0.0
 40
1.0
 40
1.0
 40
1.0
 40
1.0
 10
-5.4412
 20
20.0522
 30
0.0
 10
-5.4412
 20
20.0522
 30
0.0
 10
3.1263
 20
20.0522
 30
0.0
 10
3.1263
 20
20.0522
 30
0.0
  0
SPLINE
  5
1AF
330
1F
100
AcDbEntity
  8
DEFAULT_1
 62
   250
100
AcDbSpline
210
0.0
220
0.0
230
1.0
 70
    24
 71
     3
 72
     8
 73
     4
 74
     0
 42
0.0000000001
 43
0.0000000001
 40
0.0
 40
0.0
 40
0.0
 40
0.0
 40
1.0
 40
1.0
 40
1.0
 40
1.0
 10
3.1275
 20
17.15
 30
0.0
 10
3.1275
 20
17.15
 30
0.0
 10
-5.2125
 20
17.15
 30
0.0
 10
-5.2125
 20
17.15
 30
0.0
  0
SPLINE
  5
1B0
330
1F
100
AcDbEntity
  8
DEFAULT_1
 62
   250
100
AcDbSpline
210
0.0
220
0.0
230
1.0
 70
    24
 71
     3
 72
     8
 73
     4
 74
     0
 42
0.0000000001
 43
0.0000000001
 40
0.0
 40
0.0
 40
0.0
 40
0.0
 40
1.0
 40
1.0
 40
1.0
 40
1.0
 10
-5.4412
 20
16.6654
 30
0.0
 10
-5.4412
 20
16.6654
 30
0.0
 10
3.1263
 20
16.6654
 30
0.0
 10
3.1263
 20
16.6654
 30
0.0
  0
SPLINE
  5
1B1
330
1F
100
AcDbEntity
  8
DEFAULT_1
 62
   250
100
AcDbSpline
210
0.0
220
0.0
230
1.0
 70
    24
 71
     3
 72
     8
 73
     4
 74
     0
 42
0.0000000001
 43
0.0000000001
 40
0.0
 40
0.0
 40
0.0
 40
0.0
 40
1.0
 40
1.0
 40
1.0
 40
1.0
 10
3.1275
 20
16.4726
 30
0.0
 10
3.1275
 20
16.4726
 30
0.0
 10
-5.2125
 20
16.4726
 30
0.0
 10
-5.2125
 20
16.4726
 30
0.0
  0
SPLINE
  5
1B2
330
1F
100
AcDbEntity
  8
DEFAULT_1
 62
   250
100
AcDbSpline
210
0.0
220
0.0
230
1.0
 70
    24
 71
     3
 72
     8
 73
     4
 74
     0
 42
0.0000000001
 43
0.0000000001
 40
0.0
 40
0.0
 40
0.0
 40
0.0
 40
1.0
 40
1.0
 40
1.0
 40
1.0
 10
3.1263
 20
15.3106
 30
0.0
 10
3.1263
 20
15.3106
 30
0.0
 10
-5.4412
 20
15.3106
 30
0.0
 10
-5.4412
 20
15.3106
 30
0.0
  0
SPLINE
  5
1B3
330
1F
100
AcDbEntity
  8
DEFAULT_1
 62
   250
100
AcDbSpline
210
0.0
220
0.0
230
1.0
 70
    24
 71
     3
 72
     8
 73
     4
 74
     0
 42
0.0000000001
 43
0.0000000001
 40
0.0
 40
0.0
 40
0.0
 40
0.0
 40
1.0
 40
1.0
 40
1.0
 40
1.0
 10
3.1275
 20
14.6945
 30
0.0
 10
3.1275
 20
14.6945
 30
0.0
 10
-5.2125
 20
14.6945
 30
0.0
 10
-5.2125
 20
14.6945
 30
0.0
  0
SPLINE
  5
1B4
330
1F
100
AcDbEntity
  8
DEFAULT_1
 62
   250
100
AcDbSpline
210
0.0
220
0.0
230
1.0
 70
    24
 71
     3
 72
     8
 73
     4
 74
     0
 42
0.0000000001
 43
0.0000000001
 40
0.0
 40
0.0
 40
0.0
 40
0.0
 40
1.0
 40
1.0
 40
1.0
 40
1.0
 10
3.1275
 20
15.1179
 30
0.0
 10
3.1275
 20
15.1179
 30
0.0
 10
-5.2125
 20
15.1179
 30
0.0
 10
-5.2125
 20
15.1179
 30
0.0
  0
SPLINE
  5
1B5
330
1F
100
AcDbEntity
  8
DEFAULT_1
 62
   250
100
AcDbSpline
210
0.0
220
0.0
230
1.0
 70
    24
 71
     3
 72
     8
 73
     4
 74
     0
 42
0.0000000001
 43
0.0000000001
 40
0.0
 40
0.0
 40
0.0
 40
0.0
 40
1.0
 40
1.0
 40
1.0
 40
1.0
 10
3.1275
 20
15.3719
 30
0.0
 10
3.1275
 20
15.3719
 30
0.0
 10
-5.2125
 20
15.3719
 30
0.0
 10
-5.2125
 20
15.3719
 30
0.0
  0
SPLINE
  5
1B6
330
1F
100
AcDbEntity
  8
DEFAULT_1
 62
   250
100
AcDbSpline
210
0.0
220
0.0
230
1.0
 70
    24
 71
     3
 72
     8
 73
     4
 74
     0
 42
0.0000000001
 43
0.0000000001
 40
0.0
 40
0.0
 40
0.0
 40
0.0
 40
1.0
 40
1.0
 40
1.0
 40
1.0
 10
-5.4412
 20
13.8244
 30
0.0
 10
-5.4412
 20
13.8244
 30
0.0
 10
3.1263
 20
13.8244
 30
0.0
 10
3.1263
 20
13.8244
 30
0.0
  0
SPLINE
  5
1B7
330
1F
100
AcDbEntity
  8
DEFAULT_1
 62
   250
100
AcDbSpline
210
0.0
220
0.0
230
1.0
 70
    24
 71
     3
 72
     8
 73
     4
 74
     0
 42
0.0000000001
 43
0.0000000001
 40
0.0
 40
0.0
 40
0.0
 40
0.0
 40
1.0
 40
1.0
 40
1.0
 40
1.0
 10
11.891
 20
12.6624
 30
0.0
 10
11.891
 20
12.6624
 30
0.0
 10
3.5508
 20
12.6624
 30
0.0
 10
3.5508
 20
12.6624
 30
0.0
  0
SPLINE
  5
1B8
330
1F
100
AcDbEntity
  8
DEFAULT_1
 62
   250
100
AcDbSpline
210
0.0
220
0.0
230
1.0
 70
    24
 71
     3
 72
     8
 73
     4
 74
     0
 42
0.0000000001
 43
0.0000000001
 40
0.0
 40
0.0
 40
0.0
 40
0.0
 40
1.0
 40
1.0
 40
1.0
 40
1.0
 10
3.1275
 20
12.4085
 30
0.0
 10
3.1275
 20
12.4085
 30
0.0
 10
-5.2125
 20
12.4085
 30
0.0
 10
-5.2125
 20
12.4085
 30
0.0
  0
SPLINE
  5
1B9
330
1F
100
AcDbEntity
  8
DEFAULT_1
 62
   250
100
AcDbSpline
210
0.0
220
0.0
230
1.0
 70
    24
 71
     3
 72
     8
 73
     4
 74
     0
 42
0.0000000001
 43
0.0000000001
 40
0.0
 40
0.0
 40
0.0
 40
0.0
 40
1.0
 40
1.0
 40
1.0
 40
1.0
 10
-5.2125
 20
12.6624
 30
0.0
 10
-5.2125
 20
12.6624
 30
0.0
 10
3.1275
 20
12.6624
 30
0.0
 10
3.1275
 20
12.6624
 30
0.0
  0
SPLINE
  5
1BA
330
1F
100
AcDbEntity
  8
DEFAULT_1
 62
   250
100
AcDbSpline
210
0.0
220
0.0
230
1.0
 70
    24
 71
     3
 72
     8
 73
     4
 74
     0
 42
0.0000000001
 43
0.0000000001
 40
0.0
 40
0.0
 40
0.0
 40
0.0
 40
1.0
 40
1.0
 40
1.0
 40
1.0
 10
11.891
 20
12.4085
 30
0.0
 10
11.891
 20
12.4085
 30
0.0
 10
3.5508
 20
12.4085
 30
0.0
 10
3.5508
 20
12.4085
 30
0.0
  0
SPLINE
  5
1BB
330
1F
100
AcDbEntity
  8
DEFAULT_1
 62
   250
100
AcDbSpline
210
0.0
220
0.0
230
1.0
 70
    24
 71
     3
 72
     8
 73
     4
 74
     0
 42
0.0000000001
 43
0.0000000001
 40
0.0
 40
0.0
 40
0.0
 40
0.0
 40
1.0
 40
1.0
 40
1.0
 40
1.0
 10
-5.4412
 20
13.9559
 30
0.0
 10
-5.4412
 20
13.9559
 30
0.0
 10
3.1263
 20
13.9559
 30
0.0
 10
3.1263
 20
13.9559
 30
0.0
  0
SPLINE
  5
1BC
330
1F
100
AcDbEntity
  8
DEFAULT_1
 62
   250
100
AcDbSpline
210
0.0
220
0.0
230
1.0
 70
    24
 71
     3
 72
     8
 73
     4
 74
     0
 42
0.0000000001
 43
0.0000000001
 40
0.0
 40
0.0
 40
0.0
 40
0.0
 40
1.0
 40
1.0
 40
1.0
 40
1.0
 10
3.1263
 20
14.5018
 30
0.0
 10
3.1263
 20
14.5018
 30
0.0
 10
-5.4412
 20
14.5018
 30
0.0
 10
-5.4412
 20
14.5018
 30
0.0
  0
SPLINE
  5
1BD
330
1F
100
AcDbEntity
  8
DEFAULT_1
 62
   250
100
AcDbSpline
210
0.0
220
0.0
230
1.0
 70
    24
 71
     3
 72
     8
 73
     4
 74
     0
 42
0.0000000001
 43
0.0000000001
 40
0.0
 40
0.0
 40
0.0
 40
0.0
 40
1.0
 40
1.0
 40
1.0
 40
1.0
 10
3.1263
 20
14.6333
 30
0.0
 10
3.1263
 20
14.6333
 30
0.0
 10
-5.4412
 20
14.6333
 30
0.0
 10
-5.4412
 20
14.6333
 30
0.0
  0
SPLINE
  5
1BE
330
1F
100
AcDbEntity
  8
DEFAULT_1
 62
   250
100
AcDbSpline
210
0.0
220
0.0
230
1.0
 70
    24
 71
     3
 72
     8
 73
     4
 74
     0
 42
0.0000000001
 43
0.0000000001
 40
0.0
 40
0.0
 40
0.0
 40
0.0
 40
1.0
 40
1.0
 40
1.0
 40
1.0
 10
-5.2125
 20
14.4405
 30
0.0
 10
-5.2125
 20
14.4405
 30
0.0
 10
3.1275
 20
14.4405
 30
0.0
 10
3.1275
 20
14.4405
 30
0.0
  0
SPLINE
  5
1BF
330
1F
100
AcDbEntity
  8
DEFAULT_1
 62
   250
100
AcDbSpline
210
0.0
220
0.0
230
1.0
 70
    24
 71
     3
 72
     8
 73
     4
 74
     0
 42
0.0000000001
 43
0.0000000001
 40
0.0
 40
0.0
 40
0.0
 40
0.0
 40
1.0
 40
1.0
 40
1.0
 40
1.0
 10
-5.2125
 20
14.0172
 30
0.0
 10
-5.2125
 20
14.0172
 30
0.0
 10
3.1275
 20
14.0172
 30
0.0
 10
3.1275
 20
14.0172
 30
0.0
  0
SPLINE
  5
1C0
330
1F
100
AcDbEntity
  8
DEFAULT_1
 62
   250
100
AcDbSpline
210
0.0
220
0.0
230
1.0
 70
    24
 71
     3
 72
     8
 73
     4
 74
     0
 42
0.0000000001
 43
0.0000000001
 40
0.0
 40
0.0
 40
0.0
 40
0.0
 40
1.0
 40
1.0
 40
1.0
 40
1.0
 10
3.1275
 20
13.7631
 30
0.0
 10
3.1275
 20
13.7631
 30
0.0
 10
-5.2125
 20
13.7631
 30
0.0
 10
-5.2125
 20
13.7631
 30
0.0
  0
SPLINE
  5
1C1
330
1F
100
AcDbEntity
  8
DEFAULT_1
 62
   250
100
AcDbSpline
210
0.0
220
0.0
230
1.0
 70
    24
 71
     3
 72
     8
 73
     4
 74
     0
 42
0.0000000001
 43
0.0000000001
 40
0.0
 40
0.0
 40
0.0
 40
0.0
 40
1.0
 40
1.0
 40
1.0
 40
1.0
 10
-5.2125
 20
13.3398
 30
0.0
 10
-5.2125
 20
13.3398
 30
0.0
 10
3.1275
 20
13.3398
 30
0.0
 10
3.1275
 20
13.3398
 30
0.0
  0
SPLINE
  5
1C2
330
1F
100
AcDbEntity
  8
DEFAULT_1
 62
   250
100
AcDbSpline
210
0.0
220
0.0
230
1.0
 70
    24
 71
     3
 72
     8
 73
     4
 74
     0
 42
0.0000000001
 43
0.0000000001
 40
0.0
 40
0.0
 40
0.0
 40
0.0
 40
1.0
 40
1.0
 40
1.0
 40
1.0
 10
-5.2125
 20
13.0857
 30
0.0
 10
-5.2125
 20
13.0857
 30
0.0
 10
3.1275
 20
13.0857
 30
0.0
 10
3.1275
 20
13.0857
 30
0.0
  0
SPLINE
  5
1C3
330
1F
100
AcDbEntity
  8
DEFAULT_1
 62
   250
100
AcDbSpline
210
0.0
220
0.0
230
1.0
 70
    24
 71
     3
 72
     8
 73
     4
 74
     0
 42
0.0000000001
 43
0.0000000001
 40
0.0
 40
0.0
 40
0.0
 40
0.0
 40
1.0
 40
1.0
 40
1.0
 40
1.0
 10
-5.4412
 20
11.7076
 30
0.0
 10
-5.4412
 20
11.7076
 30
0.0
 10
3.1263
 20
11.7076
 30
0.0
 10
3.1263
 20
11.7076
 30
0.0
  0
SPLINE
  5
1C4
330
1F
100
AcDbEntity
  8
DEFAULT_1
 62
   250
100
AcDbSpline
210
0.0
220
0.0
230
1.0
 70
    24
 71
     3
 72
     8
 73
     4
 74
     0
 42
0.0000000001
 43
0.0000000001
 40
0.0
 40
0.0
 40
0.0
 40
0.0
 40
1.0
 40
1.0
 40
1.0
 40
1.0
 10
3.1275
 20
11.6464
 30
0.0
 10
3.1275
 20
11.6464
 30
0.0
 10
-5.2125
 20
11.6464
 30
0.0
 10
-5.2125
 20
11.6464
 30
0.0
  0
SPLINE
  5
1C5
330
1F
100
AcDbEntity
  8
DEFAULT_1
 62
   250
100
AcDbSpline
210
0.0
220
0.0
230
1.0
 70
    24
 71
     3
 72
     8
 73
     4
 74
     0
 42
0.0000000001
 43
0.0000000001
 40
0.0
 40
0.0
 40
0.0
 40
0.0
 40
1.0
 40
1.0
 40
1.0
 40
1.0
 10
9.3862
 20
11.1384
 30
0.0
 10
9.3862
 20
11.1384
 30
0.0
 10
9.3862
 20
11.6464
 30
0.0
 10
9.3862
 20
11.6464
 30
0.0
  0
SPLINE
  5
1C6
330
1F
100
AcDbEntity
  8
DEFAULT_1
 62
   250
100
AcDbSpline
210
0.0
220
0.0
230
1.0
 70
     8
 71
     3
 72
     8
 73
     4
 74
     0
 42
0.0000000001
 43
0.0000000001
 40
0.0
 40
0.0
 40
0.0
 40
0.0
 40
1.0
 40
1.0
 40
1.0
 40
1.0
 10
3.1276
 20
12.4085
 30
0.0
 10
3.1259
 20
12.4931
 30
0.0
 10
3.1259
 20
12.5778
 30
0.0
 10
3.1276
 20
12.6624
 30
0.0
  0
SPLINE
  5
1C7
330
1F
100
AcDbEntity
  8
DEFAULT_1
 62
   250
100
AcDbSpline
210
0.0
220
0.0
230
1.0
 70
     8
 71
     3
 72
     8
 73
     4
 74
     0
 42
0.0000000001
 43
0.0000000001
 40
0.0
 40
0.0
 40
0.0
 40
0.0
 40
1.0
 40
1.0
 40
1.0
 40
1.0
 10
3.5508
 20
13.3398
 30
0.0
 10
3.5526
 20
13.2552
 30
0.0
 10
3.5526
 20
13.1705
 30
0.0
 10
3.5508
 20
13.0857
 30
0.0
  0
SPLINE
  5
1C8
330
1F
100
AcDbEntity
  8
DEFAULT_1
 62
   250
100
AcDbSpline
210
0.0
220
0.0
230
1.0
 70
     8
 71
     3
 72
     8
 73
     4
 74
     0
 42
0.0000000001
 43
0.0000000001
 40
0.0
 40
0.0
 40
0.0
 40
0.0
 40
1.0
 40
1.0
 40
1.0
 40
1.0
 10
3.5508
 20
12.4085
 30
0.0
 10
3.5526
 20
12.4931
 30
0.0
 10
3.5526
 20
12.5778
 30
0.0
 10
3.5508
 20
12.6624
 30
0.0
  0
SPLINE
  5
1C9
330
1F
100
AcDbEntity
  8
DEFAULT_1
 62
   250
100
AcDbSpline
210
0.0
220
0.0
230
1.0
 70
     8
 71
     3
 72
     8
 73
     4
 74
     0
 42
0.0000000001
 43
0.0000000001
 40
0.0
 40
0.0
 40
0.0
 40
0.0
 40
1.0
 40
1.0
 40
1.0
 40
1.0
 10
3.1276
 20
13.3398
 30
0.0
 10
3.1259
 20
13.2552
 30
0.0
 10
3.1259
 20
13.1705
 30
0.0
 10
3.1276
 20
13.0857
 30
0.0
  0
SPLINE
  5
1CA
330
1F
100
AcDbEntity
  8
DEFAULT_1
 62
   250
100
AcDbSpline
210
0.0
220
0.0
230
1.0
 70
     8
 71
     3
 72
     8
 73
     4
 74
     0
 42
0.0000000001
 43
0.0000000001
 40
0.0
 40
0.0
 40
0.0
 40
0.0
 40
1.0
 40
1.0
 40
1.0
 40
1.0
 10
3.5508
 20
13.7631
 30
0.0
 10
3.5526
 20
13.8478
 30
0.0
 10
3.5526
 20
13.9325
 30
0.0
 10
3.5508
 20
14.0172
 30
0.0
  0
SPLINE
  5
1CB
330
1F
100
AcDbEntity
  8
DEFAULT_1
 62
   250
100
AcDbSpline
210
0.0
220
0.0
230
1.0
 70
     8
 71
     3
 72
     8
 73
     4
 74
     0
 42
0.0000000001
 43
0.0000000001
 40
0.0
 40
0.0
 40
0.0
 40
0.0
 40
1.0
 40
1.0
 40
1.0
 40
1.0
 10
3.5508
 20
14.6945
 30
0.0
 10
3.5526
 20
14.6098
 30
0.0
 10
3.5526
 20
14.5252
 30
0.0
 10
3.5508
 20
14.4405
 30
0.0
  0
SPLINE
  5
1CC
330
1F
100
AcDbEntity
  8
DEFAULT_1
 62
   250
100
AcDbSpline
210
0.0
220
0.0
230
1.0
 70
     8
 71
     3
 72
     8
 73
     4
 74
     0
 42
0.0000000001
 43
0.0000000001
 40
0.0
 40
0.0
 40
0.0
 40
0.0
 40
1.0
 40
1.0
 40
1.0
 40
1.0
 10
3.1276
 20
14.0172
 30
0.0
 10
3.1259
 20
13.9325
 30
0.0
 10
3.1259
 20
13.8478
 30
0.0
 10
3.1276
 20
13.7631
 30
0.0
  0
SPLINE
  5
1CD
330
1F
100
AcDbEntity
  8
DEFAULT_1
 62
   250
100
AcDbSpline
210
0.0
220
0.0
230
1.0
 70
     8
 71
     3
 72
     8
 73
     4
 74
     0
 42
0.0000000001
 43
0.0000000001
 40
0.0
 40
0.0
 40
0.0
 40
0.0
 40
1.0
 40
1.0
 40
1.0
 40
1.0
 10
3.5508
 20
24.855
 30
0.0
 10
3.5526
 20
24.7703
 30
0.0
 10
3.5526
 20
24.6857
 30
0.0
 10
3.5508
 20
24.6009
 30
0.0
  0
SPLINE
  5
1CE
330
1F
100
AcDbEntity
  8
DEFAULT_1
 62
   250
100
AcDbSpline
210
0.0
220
0.0
230
1.0
 70
     8
 71
     3
 72
     8
 73
     4
 74
     0
 42
0.0000000001
 43
0.0000000001
 40
0.0
 40
0.0
 40
0.0
 40
0.0
 40
1.0
 40
1.0
 40
1.0
 40
1.0
 10
3.5508
 20
23.9236
 30
0.0
 10
3.5526
 20
24.0083
 30
0.0
 10
3.5526
 20
24.0929
 30
0.0
 10
3.5508
 20
24.1776
 30
0.0
  0
SPLINE
  5
1CF
330
1F
100
AcDbEntity
  8
DEFAULT_1
 62
   250
100
AcDbSpline
210
0.0
220
0.0
230
1.0
 70
     8
 71
     3
 72
     8
 73
     4
 74
     0
 42
0.0000000001
 43
0.0000000001
 40
0.0
 40
0.0
 40
0.0
 40
0.0
 40
1.0
 40
1.0
 40
1.0
 40
1.0
 10
3.1276
 20
24.6009
 30
0.0
 10
3.1259
 20
24.6857
 30
0.0
 10
3.1259
 20
24.7703
 30
0.0
 10
3.1276
 20
24.855
 30
0.0
  0
SPLINE
  5
1D0
330
1F
100
AcDbEntity
  8
DEFAULT_1
 62
   250
100
AcDbSpline
210
0.0
220
0.0
230
1.0
 70
     8
 71
     3
 72
     8
 73
     4
 74
     0
 42
0.0000000001
 43
0.0000000001
 40
0.0
 40
0.0
 40
0.0
 40
0.0
 40
1.0
 40
1.0
 40
1.0
 40
1.0
 10
3.5508
 20
25.5324
 30
0.0
 10
3.5526
 20
25.4477
 30
0.0
 10
3.5526
 20
25.363
 30
0.0
 10
3.5508
 20
25.2783
 30
0.0
  0
SPLINE
  5
1D1
330
1F
100
AcDbEntity
  8
DEFAULT_1
 62
   250
100
AcDbSpline
210
0.0
220
0.0
230
1.0
 70
     8
 71
     3
 72
     8
 73
     4
 74
     0
 42
0.0000000001
 43
0.0000000001
 40
0.0
 40
0.0
 40
0.0
 40
0.0
 40
1.0
 40
1.0
 40
1.0
 40
1.0
 10
3.5508
 20
23.5002
 30
0.0
 10
3.5526
 20
23.4155
 30
0.0
 10
3.5526
 20
23.3309
 30
0.0
 10
3.5508
 20
23.2462
 30
0.0
  0
SPLINE
  5
1D2
330
1F
100
AcDbEntity
  8
DEFAULT_1
 62
   250
100
AcDbSpline
210
0.0
220
0.0
230
1.0
 70
     8
 71
     3
 72
     8
 73
     4
 74
     0
 42
0.0000000001
 43
0.0000000001
 40
0.0
 40
0.0
 40
0.0
 40
0.0
 40
1.0
 40
1.0
 40
1.0
 40
1.0
 10
3.5508
 20
22.5688
 30
0.0
 10
3.5526
 20
22.6536
 30
0.0
 10
3.5526
 20
22.7383
 30
0.0
 10
3.5508
 20
22.8229
 30
0.0
  0
SPLINE
  5
1D3
330
1F
100
AcDbEntity
  8
DEFAULT_1
 62
   250
100
AcDbSpline
210
0.0
220
0.0
230
1.0
 70
     8
 71
     3
 72
     8
 73
     4
 74
     0
 42
0.0000000001
 43
0.0000000001
 40
0.0
 40
0.0
 40
0.0
 40
0.0
 40
1.0
 40
1.0
 40
1.0
 40
1.0
 10
3.1276
 20
23.5002
 30
0.0
 10
3.1259
 20
23.4155
 30
0.0
 10
3.1259
 20
23.3309
 30
0.0
 10
3.1276
 20
23.2462
 30
0.0
  0
SPLINE
  5
1D4
330
1F
100
AcDbEntity
  8
DEFAULT_1
 62
   250
100
AcDbSpline
210
0.0
220
0.0
230
1.0
 70
     8
 71
     3
 72
     8
 73
     4
 74
     0
 42
0.0000000001
 43
0.0000000001
 40
0.0
 40
0.0
 40
0.0
 40
0.0
 40
1.0
 40
1.0
 40
1.0
 40
1.0
 10
3.1276
 20
22.5688
 30
0.0
 10
3.1259
 20
22.6536
 30
0.0
 10
3.1259
 20
22.7383
 30
0.0
 10
3.1276
 20
22.8229
 30
0.0
  0
SPLINE
  5
1D5
330
1F
100
AcDbEntity
  8
DEFAULT_1
 62
   250
100
AcDbSpline
210
0.0
220
0.0
230
1.0
 70
     8
 71
     3
 72
     8
 73
     4
 74
     0
 42
0.0000000001
 43
0.0000000001
 40
0.0
 40
0.0
 40
0.0
 40
0.0
 40
1.0
 40
1.0
 40
1.0
 40
1.0
 10
3.5508
 20
11.9851
 30
0.0
 10
3.5531
 20
11.8722
 30
0.0
 10
3.5531
 20
11.7593
 30
0.0
 10
3.5508
 20
11.6464
 30
0.0
  0
SPLINE
  5
1D6
330
1F
100
AcDbEntity
  8
DEFAULT_1
 62
   250
100
AcDbSpline
210
0.0
220
0.0
230
1.0
 70
     8
 71
     3
 72
     8
 73
     4
 74
     0
 42
0.0000000001
 43
0.0000000001
 40
0.0
 40
0.0
 40
0.0
 40
0.0
 40
1.0
 40
1.0
 40
1.0
 40
1.0
 10
3.1275
 20
11.6464
 30
0.0
 10
3.1253
 20
11.7593
 30
0.0
 10
3.1253
 20
11.8722
 30
0.0
 10
3.1276
 20
11.9851
 30
0.0
  0
SPLINE
  5
1D7
330
1F
100
AcDbEntity
  8
DEFAULT_1
 62
   250
100
AcDbSpline
210
0.0
220
0.0
230
1.0
 70
     8
 71
     3
 72
     8
 73
     4
 74
     0
 42
0.0000000001
 43
0.0000000001
 40
0.0
 40
0.0
 40
0.0
 40
0.0
 40
1.0
 40
1.0
 40
1.0
 40
1.0
 10
3.5508
 20
15.3719
 30
0.0
 10
3.5526
 20
15.2872
 30
0.0
 10
3.5526
 20
15.2026
 30
0.0
 10
3.5508
 20
15.1179
 30
0.0
  0
SPLINE
  5
1D8
330
1F
100
AcDbEntity
  8
DEFAULT_1
 62
   250
100
AcDbSpline
210
0.0
220
0.0
230
1.0
 70
     8
 71
     3
 72
     8
 73
     4
 74
     0
 42
0.0000000001
 43
0.0000000001
 40
0.0
 40
0.0
 40
0.0
 40
0.0
 40
1.0
 40
1.0
 40
1.0
 40
1.0
 10
3.1276
 20
14.4405
 30
0.0
 10
3.1259
 20
14.5252
 30
0.0
 10
3.1259
 20
14.6098
 30
0.0
 10
3.1276
 20
14.6945
 30
0.0
  0
SPLINE
  5
1D9
330
1F
100
AcDbEntity
  8
DEFAULT_1
 62
   250
100
AcDbSpline
210
0.0
220
0.0
230
1.0
 70
     8
 71
     3
 72
     8
 73
     4
 74
     0
 42
0.0000000001
 43
0.0000000001
 40
0.0
 40
0.0
 40
0.0
 40
0.0
 40
1.0
 40
1.0
 40
1.0
 40
1.0
 10
3.1276
 20
15.1179
 30
0.0
 10
3.1259
 20
15.2026
 30
0.0
 10
3.1259
 20
15.2872
 30
0.0
 10
3.1276
 20
15.3719
 30
0.0
  0
SPLINE
  5
1DA
330
1F
100
AcDbEntity
  8
DEFAULT_1
 62
   250
100
AcDbSpline
210
0.0
220
0.0
230
1.0
 70
     8
 71
     3
 72
     8
 73
     4
 74
     0
 42
0.0000000001
 43
0.0000000001
 40
0.0
 40
0.0
 40
0.0
 40
0.0
 40
1.0
 40
1.0
 40
1.0
 40
1.0
 10
3.1276
 20
16.0493
 30
0.0
 10
3.1259
 20
15.9646
 30
0.0
 10
3.1259
 20
15.8799
 30
0.0
 10
3.1276
 20
15.7952
 30
0.0
  0
SPLINE
  5
1DB
330
1F
100
AcDbEntity
  8
DEFAULT_1
 62
   250
100
AcDbSpline
210
0.0
220
0.0
230
1.0
 70
     8
 71
     3
 72
     8
 73
     4
 74
     0
 42
0.0000000001
 43
0.0000000001
 40
0.0
 40
0.0
 40
0.0
 40
0.0
 40
1.0
 40
1.0
 40
1.0
 40
1.0
 10
3.5508
 20
15.7952
 30
0.0
 10
3.5526
 20
15.8799
 30
0.0
 10
3.5526
 20
15.9646
 30
0.0
 10
3.5508
 20
16.0493
 30
0.0
  0
SPLINE
  5
1DC
330
1F
100
AcDbEntity
  8
DEFAULT_1
 62
   250
100
AcDbSpline
210
0.0
220
0.0
230
1.0
 70
     8
 71
     3
 72
     8
 73
     4
 74
     0
 42
0.0000000001
 43
0.0000000001
 40
0.0
 40
0.0
 40
0.0
 40
0.0
 40
1.0
 40
1.0
 40
1.0
 40
1.0
 10
3.1276
 20
16.7266
 30
0.0
 10
3.1259
 20
16.6419
 30
0.0
 10
3.1259
 20
16.5573
 30
0.0
 10
3.1276
 20
16.4726
 30
0.0
  0
SPLINE
  5
1DD
330
1F
100
AcDbEntity
  8
DEFAULT_1
 62
   250
100
AcDbSpline
210
0.0
220
0.0
230
1.0
 70
     8
 71
     3
 72
     8
 73
     4
 74
     0
 42
0.0000000001
 43
0.0000000001
 40
0.0
 40
0.0
 40
0.0
 40
0.0
 40
1.0
 40
1.0
 40
1.0
 40
1.0
 10
3.5508
 20
16.7266
 30
0.0
 10
3.5526
 20
16.6419
 30
0.0
 10
3.5526
 20
16.5573
 30
0.0
 10
3.5508
 20
16.4726
 30
0.0
  0
SPLINE
  5
1DE
330
1F
100
AcDbEntity
  8
DEFAULT_1
 62
   250
100
AcDbSpline
210
0.0
220
0.0
230
1.0
 70
     8
 71
     3
 72
     8
 73
     4
 74
     0
 42
0.0000000001
 43
0.0000000001
 40
0.0
 40
0.0
 40
0.0
 40
0.0
 40
1.0
 40
1.0
 40
1.0
 40
1.0
 10
3.1276
 20
18.0814
 30
0.0
 10
3.1259
 20
17.9967
 30
0.0
 10
3.1259
 20
17.9121
 30
0.0
 10
3.1276
 20
17.8274
 30
0.0
  0
SPLINE
  5
1DF
330
1F
100
AcDbEntity
  8
DEFAULT_1
 62
   250
100
AcDbSpline
210
0.0
220
0.0
230
1.0
 70
     8
 71
     3
 72
     8
 73
     4
 74
     0
 42
0.0000000001
 43
0.0000000001
 40
0.0
 40
0.0
 40
0.0
 40
0.0
 40
1.0
 40
1.0
 40
1.0
 40
1.0
 10
3.1276
 20
17.15
 30
0.0
 10
3.1259
 20
17.2347
 30
0.0
 10
3.1259
 20
17.3193
 30
0.0
 10
3.1276
 20
17.404
 30
0.0
  0
SPLINE
  5
1E0
330
1F
100
AcDbEntity
  8
DEFAULT_1
 62
   250
100
AcDbSpline
210
0.0
220
0.0
230
1.0
 70
     8
 71
     3
 72
     8
 73
     4
 74
     0
 42
0.0000000001
 43
0.0000000001
 40
0.0
 40
0.0
 40
0.0
 40
0.0
 40
1.0
 40
1.0
 40
1.0
 40
1.0
 10
3.5508
 20
18.0814
 30
0.0
 10
3.5526
 20
17.9967
 30
0.0
 10
3.5526
 20
17.9121
 30
0.0
 10
3.5508
 20
17.8274
 30
0.0
  0
SPLINE
  5
1E1
330
1F
100
AcDbEntity
  8
DEFAULT_1
 62
   250
100
AcDbSpline
210
0.0
220
0.0
230
1.0
 70
     8
 71
     3
 72
     8
 73
     4
 74
     0
 42
0.0000000001
 43
0.0000000001
 40
0.0
 40
0.0
 40
0.0
 40
0.0
 40
1.0
 40
1.0
 40
1.0
 40
1.0
 10
3.5508
 20
19.4361
 30
0.0
 10
3.5526
 20
19.3514
 30
0.0
 10
3.5526
 20
19.2668
 30
0.0
 10
3.5508
 20
19.1821
 30
0.0
  0
SPLINE
  5
1E2
330
1F
100
AcDbEntity
  8
DEFAULT_1
 62
   250
100
AcDbSpline
210
0.0
220
0.0
230
1.0
 70
     8
 71
     3
 72
     8
 73
     4
 74
     0
 42
0.0000000001
 43
0.0000000001
 40
0.0
 40
0.0
 40
0.0
 40
0.0
 40
1.0
 40
1.0
 40
1.0
 40
1.0
 10
3.1276
 20
18.5048
 30
0.0
 10
3.1259
 20
18.5895
 30
0.0
 10
3.1259
 20
18.674
 30
0.0
 10
3.1276
 20
18.7588
 30
0.0
  0
SPLINE
  5
1E3
330
1F
100
AcDbEntity
  8
DEFAULT_1
 62
   250
100
AcDbSpline
210
0.0
220
0.0
230
1.0
 70
     8
 71
     3
 72
     8
 73
     4
 74
     0
 42
0.0000000001
 43
0.0000000001
 40
0.0
 40
0.0
 40
0.0
 40
0.0
 40
1.0
 40
1.0
 40
1.0
 40
1.0
 10
3.1276
 20
19.1821
 30
0.0
 10
3.1259
 20
19.2668
 30
0.0
 10
3.1259
 20
19.3514
 30
0.0
 10
3.1276
 20
19.4361
 30
0.0
  0
SPLINE
  5
1E4
330
1F
100
AcDbEntity
  8
DEFAULT_1
 62
   250
100
AcDbSpline
210
0.0
220
0.0
230
1.0
 70
     8
 71
     3
 72
     8
 73
     4
 74
     0
 42
0.0000000001
 43
0.0000000001
 40
0.0
 40
0.0
 40
0.0
 40
0.0
 40
1.0
 40
1.0
 40
1.0
 40
1.0
 10
3.1276
 20
20.1135
 30
0.0
 10
3.1259
 20
20.0287
 30
0.0
 10
3.1259
 20
19.9442
 30
0.0
 10
3.1276
 20
19.8594
 30
0.0
  0
SPLINE
  5
1E5
330
1F
100
AcDbEntity
  8
DEFAULT_1
 62
   250
100
AcDbSpline
210
0.0
220
0.0
230
1.0
 70
     8
 71
     3
 72
     8
 73
     4
 74
     0
 42
0.0000000001
 43
0.0000000001
 40
0.0
 40
0.0
 40
0.0
 40
0.0
 40
1.0
 40
1.0
 40
1.0
 40
1.0
 10
3.5508
 20
18.5048
 30
0.0
 10
3.5526
 20
18.5895
 30
0.0
 10
3.5526
 20
18.674
 30
0.0
 10
3.5508
 20
18.7588
 30
0.0
  0
SPLINE
  5
1E6
330
1F
100
AcDbEntity
  8
DEFAULT_1
 62
   250
100
AcDbSpline
210
0.0
220
0.0
230
1.0
 70
     8
 71
     3
 72
     8
 73
     4
 74
     0
 42
0.0000000001
 43
0.0000000001
 40
0.0
 40
0.0
 40
0.0
 40
0.0
 40
1.0
 40
1.0
 40
1.0
 40
1.0
 10
3.5508
 20
20.5368
 30
0.0
 10
3.5526
 20
20.6215
 30
0.0
 10
3.5526
 20
20.7061
 30
0.0
 10
3.5508
 20
20.7909
 30
0.0
  0
SPLINE
  5
1E7
330
1F
100
AcDbEntity
  8
DEFAULT_1
 62
   250
100
AcDbSpline
210
0.0
220
0.0
230
1.0
 70
     8
 71
     3
 72
     8
 73
     4
 74
     0
 42
0.0000000001
 43
0.0000000001
 40
0.0
 40
0.0
 40
0.0
 40
0.0
 40
1.0
 40
1.0
 40
1.0
 40
1.0
 10
3.5508
 20
21.2142
 30
0.0
 10
3.5526
 20
21.2989
 30
0.0
 10
3.5526
 20
21.3835
 30
0.0
 10
3.5508
 20
21.4682
 30
0.0
  0
SPLINE
  5
1E8
330
1F
100
AcDbEntity
  8
DEFAULT_1
 62
   250
100
AcDbSpline
210
0.0
220
0.0
230
1.0
 70
     8
 71
     3
 72
     8
 73
     4
 74
     0
 42
0.0000000001
 43
0.0000000001
 40
0.0
 40
0.0
 40
0.0
 40
0.0
 40
1.0
 40
1.0
 40
1.0
 40
1.0
 10
3.1276
 20
22.1456
 30
0.0
 10
3.1259
 20
22.0609
 30
0.0
 10
3.1259
 20
21.9762
 30
0.0
 10
3.1276
 20
21.8916
 30
0.0
  0
SPLINE
  5
1E9
330
1F
100
AcDbEntity
  8
DEFAULT_1
 62
   250
100
AcDbSpline
210
0.0
220
0.0
230
1.0
 70
     8
 71
     3
 72
     8
 73
     4
 74
     0
 42
0.0000000001
 43
0.0000000001
 40
0.0
 40
0.0
 40
0.0
 40
0.0
 40
1.0
 40
1.0
 40
1.0
 40
1.0
 10
3.1276
 20
21.4682
 30
0.0
 10
3.1259
 20
21.3835
 30
0.0
 10
3.1259
 20
21.2989
 30
0.0
 10
3.1276
 20
21.2142
 30
0.0
  0
SPLINE
  5
1EA
330
1F
100
AcDbEntity
  8
DEFAULT_1
 62
   250
100
AcDbSpline
210
0.0
220
0.0
230
1.0
 70
     8
 71
     3
 72
     8
 73
     4
 74
     0
 42
0.0000000001
 43
0.0000000001
 40
0.0
 40
0.0
 40
0.0
 40
0.0
 40
1.0
 40
1.0
 40
1.0
 40
1.0
 10
3.1276
 20
20.7909
 30
0.0
 10
3.1259
 20
20.7061
 30
0.0
 10
3.1259
 20
20.6215
 30
0.0
 10
3.1276
 20
20.5368
 30
0.0
  0
SPLINE
  5
1EB
330
1F
100
AcDbEntity
  8
DEFAULT_1
 62
   250
100
AcDbSpline
210
0.0
220
0.0
230
1.0
 70
     8
 71
     3
 72
     8
 73
     4
 74
     0
 42
0.0000000001
 43
0.0000000001
 40
0.0
 40
0.0
 40
0.0
 40
0.0
 40
1.0
 40
1.0
 40
1.0
 40
1.0
 10
3.5508
 20
19.8594
 30
0.0
 10
3.5526
 20
19.9442
 30
0.0
 10
3.5526
 20
20.0287
 30
0.0
 10
3.5508
 20
20.1135
 30
0.0
  0
SPLINE
  5
1EC
330
1F
100
AcDbEntity
  8
DEFAULT_1
 62
   250
100
AcDbSpline
210
0.0
220
0.0
230
1.0
 70
     8
 71
     3
 72
     8
 73
     4
 74
     0
 42
0.0000000001
 43
0.0000000001
 40
0.0
 40
0.0
 40
0.0
 40
0.0
 40
1.0
 40
1.0
 40
1.0
 40
1.0
 10
3.5508
 20
22.1456
 30
0.0
 10
3.5526
 20
22.0609
 30
0.0
 10
3.5526
 20
21.9762
 30
0.0
 10
3.5508
 20
21.8916
 30
0.0
  0
SPLINE
  5
1ED
330
1F
100
AcDbEntity
  8
DEFAULT_1
 62
   250
100
AcDbSpline
210
0.0
220
0.0
230
1.0
 70
     8
 71
     3
 72
     8
 73
     4
 74
     0
 42
0.0000000001
 43
0.0000000001
 40
0.0
 40
0.0
 40
0.0
 40
0.0
 40
1.0
 40
1.0
 40
1.0
 40
1.0
 10
3.1276
 20
25.5324
 30
0.0
 10
3.1259
 20
25.4477
 30
0.0
 10
3.1259
 20
25.363
 30
0.0
 10
3.1276
 20
25.2783
 30
0.0
  0
SPLINE
  5
1EE
330
1F
100
AcDbEntity
  8
DEFAULT_1
 62
   250
100
AcDbSpline
210
0.0
220
0.0
230
1.0
 70
    24
 71
     3
 72
     8
 73
     4
 74
     0
 42
0.0000000001
 43
0.0000000001
 40
0.0
 40
0.0
 40
0.0
 40
0.0
 40
1.0
 40
1.0
 40
1.0
 40
1.0
 10
-2.8855
 20
27.7995
 30
0.0
 10
-2.8855
 20
27.7995
 30
0.0
 10
-8.0255
 20
28.568
 30
0.0
 10
-8.0255
 20
28.568
 30
0.0
  0
SPLINE
  5
1EF
330
1F
100
AcDbEntity
  8
DEFAULT_1
 62
   250
100
AcDbSpline
210
0.0
220
0.0
230
1.0
 70
    24
 71
     3
 72
     8
 73
     4
 74
     0
 42
0.0000000001
 43
0.0000000001
 40
0.0
 40
0.0
 40
0.0
 40
0.0
 40
1.0
 40
1.0
 40
1.0
 40
1.0
 10
-5.4586
 20
28.1843
 30
0.0
 10
-5.4586
 20
28.1843
 30
0.0
 10
-5.4586
 20
26.0032
 30
0.0
 10
-5.4586
 20
26.0032
 30
0.0
  0
SPLINE
  5
1F0
330
1F
100
AcDbEntity
  8
DEFAULT_1
 62
   250
100
AcDbSpline
210
0.0
220
0.0
230
1.0
 70
    24
 71
     3
 72
     8
 73
     4
 74
     0
 42
0.0000000001
 43
0.0000000001
 40
0.0
 40
0.0
 40
0.0
 40
0.0
 40
1.0
 40
1.0
 40
1.0
 40
1.0
 10
14.6788
 20
28.568
 30
0.0
 10
14.6788
 20
28.568
 30
0.0
 10
9.5388
 20
27.7995
 30
0.0
 10
9.5388
 20
27.7995
 30
0.0
  0
SPLINE
  5
1F1
330
1F
100
AcDbEntity
  8
DEFAULT_1
 62
   250
100
AcDbSpline
210
0.0
220
0.0
230
1.0
 70
    24
 71
     3
 72
     8
 73
     4
 74
     0
 42
0.0000000001
 43
0.0000000001
 40
0.0
 40
0.0
 40
0.0
 40
0.0
 40
1.0
 40
1.0
 40
1.0
 40
1.0
 10
12.1118
 20
28.1843
 30
0.0
 10
12.1118
 20
28.1843
 30
0.0
 10
12.1118
 20
26.0032
 30
0.0
 10
12.1118
 20
26.0032
 30
0.0
  0
SPLINE
  5
1F2
330
1F
100
AcDbEntity
  8
DEFAULT_1
 62
   250
100
AcDbSpline
210
0.0
220
0.0
230
1.0
 70
     8
 71
     3
 72
    12
 73
     8
 74
     0
 42
0.0000000001
 43
0.0000000001
 40
0.0
 40
0.0
 40
0.0
 40
0.0
 40
0.3333333333333333
 40
0.3333333333333333
 40
0.3333333333333333
 40
0.3333333333333333
 40
1.0
 40
1.0
 40
1.0
 40
1.0
 10
9.5388
 20
27.7995
 30
0.0
 10
7.4175
 20
28.1028
 30
0.0
 10
5.2707
 20
28.184
 30
0.0
 10
3.13
 20
28.184
 30
0.0
 10
3.13
 20
28.184
 30
0.0
 10
1.1198
 20
28.1705
 30
0.0
 10
-0.8937
 20
28.0843
 30
0.0
 10
-2.8855
 20
27.7995
 30
0.0
  0
SPLINE
  5
1F3
330
1F
100
AcDbEntity
  8
DEFAULT_1
 62
   250
100
AcDbSpline
210
0.0
220
0.0
230
1.0
 70
     8
 71
     3
 72
     8
 73
     4
 74
     0
 42
0.0000000001
 43
0.0000000001
 40
0.0
 40
0.0
 40
0.0
 40
0.0
 40
1.0
 40
1.0
 40
1.0
 40
1.0
 10
-9.2825
 20
31.7767
 30
0.0
 10
-9.2696
 20
31.7833
 30
0.0
 10
-9.2563
 20
31.7873
 30
0.0
 10
-9.2416
 20
31.7873
 30
0.0
  0
SPLINE
  5
1F4
330
1F
100
AcDbEntity
  8
DEFAULT_1
 62
   250
100
AcDbSpline
210
0.0
220
0.0
230
1.0
 70
    24
 71
     3
 72
    16
 73
    12
 74
     0
 42
0.0000000001
 43
0.0000000001
 40
0.0
 40
0.0
 40
0.0
 40
0.0
 40
0.25
 40
0.25
 40
0.25
 40
0.25
 40
0.5
 40
0.5
 40
0.5
 40
0.5
 40
1.0
 40
1.0
 40
1.0
 40
1.0
 10
-9.2416
 20
31.7873
 30
0.0
 10
-9.2416
 20
31.7873
 30
0.0
 10
-8.9027
 20
31.7873
 30
0.0
 10
-8.9027
 20
31.7873
 30
0.0
 10
-8.9027
 20
31.7873
 30
0.0
 10
-8.9027
 20
31.7873
 30
0.0
 10
15.556
 20
31.7873
 30
0.0
 10
15.556
 20
31.7873
 30
0.0
 10
15.556
 20
31.7873
 30
0.0
 10
15.556
 20
31.7873
 30
0.0
 10
15.8948
 20
31.7873
 30
0.0
 10
15.8948
 20
31.7873
 30
0.0
  0
SPLINE
  5
1F5
330
1F
100
AcDbEntity
  8
DEFAULT_1
 62
   250
100
AcDbSpline
210
0.0
220
0.0
230
1.0
 70
     8
 71
     3
 72
     8
 73
     4
 74
     0
 42
0.0000000001
 43
0.0000000001
 40
0.0
 40
0.0
 40
0.0
 40
0.0
 40
1.0
 40
1.0
 40
1.0
 40
1.0
 10
15.8948
 20
31.7873
 30
0.0
 10
15.935
 20
31.7873
 30
0.0
 10
15.9704
 20
31.758
 30
0.0
 10
15.978
 20
31.7187
 30
0.0
  0
SPLINE
  5
1F6
330
1F
100
AcDbEntity
  8
DEFAULT_1
 62
   250
100
AcDbSpline
210
0.0
220
0.0
230
1.0
 70
     8
 71
     3
 72
    20
 73
    16
 74
     0
 42
0.0000000001
 43
0.0000000001
 40
0.0
 40
0.0
 40
0.0
 40
0.0
 40
0.2
 40
0.2
 40
0.2
 40
0.2
 40
0.4
 40
0.4
 40
0.4
 40
0.4
 40
0.6
 40
0.6
 40
0.6
 40
0.6
 40
1.0
 40
1.0
 40
1.0
 40
1.0
 10
15.978
 20
31.7187
 30
0.0
 10
15.978
 20
31.7187
 30
0.0
 10
15.9795
 20
31.7041
 30
0.0
 10
15.9795
 20
31.7041
 30
0.0
 10
15.9795
 20
31.7041
 30
0.0
 10
15.9795
 20
31.7041
 30
0.0
 10
15.9854
 20
31.3653
 30
0.0
 10
15.9854
 20
31.3653
 30
0.0
 10
15.9854
 20
31.3653
 30
0.0
 10
15.9854
 20
31.3653
 30
0.0
 10
16.0283
 20
28.9068
 30
0.0
 10
16.0283
 20
28.9068
 30
0.0
 10
16.0283
 20
28.9068
 30
0.0
 10
16.0283
 20
28.9068
 30
0.0
 10
16.0343
 20
28.568
 30
0.0
 10
16.0343
 20
28.568
 30
0.0
  0
SPLINE
  5
1F7
330
1F
100
AcDbEntity
  8
DEFAULT_1
 62
   250
100
AcDbSpline
210
0.0
220
0.0
230
1.0
 70
     8
 71
     3
 72
     8
 73
     4
 74
     0
 42
0.0000000001
 43
0.0000000001
 40
0.0
 40
0.0
 40
0.0
 40
0.0
 40
1.0
 40
1.0
 40
1.0
 40
1.0
 10
-9.381
 20
28.568
 30
0.0
 10
-9.2548
 20
28.5561
 30
0.0
 10
-9.0245
 20
28.568
 30
0.0
 10
-8.9575
 20
28.568
 30
0.0
  0
SPLINE
  5
1F8
330
1F
100
AcDbEntity
  8
DEFAULT_1
 62
   250
100
AcDbSpline
210
0.0
220
0.0
230
1.0
 70
    24
 71
     3
 72
    12
 73
     8
 74
     0
 42
0.0000000001
 43
0.0000000001
 40
0.0
 40
0.0
 40
0.0
 40
0.0
 40
0.3333333333333333
 40
0.3333333333333333
 40
0.3333333333333333
 40
0.3333333333333333
 40
1.0
 40
1.0
 40
1.0
 40
1.0
 10
-8.9575
 20
28.568
 30
0.0
 10
-8.9575
 20
28.568
 30
0.0
 10
15.6231
 20
28.568
 30
0.0
 10
15.6231
 20
28.568
 30
0.0
 10
15.6231
 20
28.568
 30
0.0
 10
15.6231
 20
28.568
 30
0.0
 10
15.962
 20
28.568
 30
0.0
 10
15.962
 20
28.568
 30
0.0
  0
SPLINE
  5
1F9
330
1F
100
AcDbEntity
  8
DEFAULT_1
 62
   250
100
AcDbSpline
210
0.0
220
0.0
230
1.0
 70
     8
 71
     3
 72
     8
 73
     4
 74
     0
 42
0.0000000001
 43
0.0000000001
 40
0.0
 40
0.0
 40
0.0
 40
0.0
 40
1.0
 40
1.0
 40
1.0
 40
1.0
 10
15.962
 20
28.568
 30
0.0
 10
15.9856
 20
28.568
 30
0.0
 10
16.01
 20
28.5657
 30
0.0
 10
16.0334
 20
28.568
 30
0.0
  0
SPLINE
  5
1FA
330
1F
100
AcDbEntity
  8
DEFAULT_1
 62
   250
100
AcDbSpline
210
0.0
220
0.0
230
1.0
 70
     8
 71
     3
 72
     8
 73
     4
 74
     0
 42
0.0000000001
 43
0.0000000001
 40
0.0
 40
0.0
 40
0.0
 40
0.0
 40
1.0
 40
1.0
 40
1.0
 40
1.0
 10
-9.2768
 20
31.7796
 30
0.0
 10
-9.3974
 20
31.7141
 30
0.0
 10
-9.332
 20
31.3753
 30
0.0
 10
-9.3321
 20
31.3653
 30
0.0
  0
SPLINE
  5
1FB
330
1F
100
AcDbEntity
  8
DEFAULT_1
 62
   250
100
AcDbSpline
210
0.0
220
0.0
230
1.0
 70
     8
 71
     3
 72
    12
 73
     8
 74
     0
 42
0.0000000001
 43
0.0000000001
 40
0.0
 40
0.0
 40
0.0
 40
0.0
 40
0.3333333333333333
 40
0.3333333333333333
 40
0.3333333333333333
 40
0.3333333333333333
 40
1.0
 40
1.0
 40
1.0
 40
1.0
 10
-9.3321
 20
31.3653
 30
0.0
 10
-9.3321
 20
31.3653
 30
0.0
 10
-9.375
 20
28.9069
 30
0.0
 10
-9.375
 20
28.9069
 30
0.0
 10
-9.375
 20
28.9069
 30
0.0
 10
-9.375
 20
28.9069
 30
0.0
 10
-9.381
 20
28.568
 30
0.0
 10
-9.381
 20
28.568
 30
0.0
  0
SPLINE
  5
1FC
330
1F
100
AcDbEntity
  8
DEFAULT_1
 62
   250
100
AcDbSpline
210
0.0
220
0.0
230
1.0
 70
     8
 71
     3
 72
     8
 73
     4
 74
     0
 42
0.0000000001
 43
0.0000000001
 40
0.0
 40
0.0
 40
0.0
 40
0.0
 40
1.0
 40
1.0
 40
1.0
 40
1.0
 10
15.9795
 20
31.704
 30
0.0
 10
15.9656
 20
31.7057
 30
0.0
 10
15.9509
 20
31.7047
 30
0.0
 10
15.937
 20
31.7047
 30
0.0
  0
SPLINE
  5
1FD
330
1F
100
AcDbEntity
  8
DEFAULT_1
 62
   250
100
AcDbSpline
210
0.0
220
0.0
230
1.0
 70
     8
 71
     3
 72
    24
 73
    20
 74
     0
 42
0.0000000001
 43
0.0000000001
 40
0.0
 40
0.0
 40
0.0
 40
0.0
 40
0.1666666666666667
 40
0.1666666666666667
 40
0.1666666666666667
 40
0.1666666666666667
 40
0.3333333333333333
 40
0.3333333333333333
 40
0.3333333333333333
 40
0.3333333333333333
 40
0.5
 40
0.5
 40
0.5
 40
0.5
 40
0.6666666666666666
 40
0.6666666666666666
 40
0.6666666666666666
 40
0.6666666666666666
 40
1.0
 40
1.0
 40
1.0
 40
1.0
 10
15.937
 20
31.7047
 30
0.0
 10
15.937
 20
31.7047
 30
0.0
 10
15.8963
 20
31.7041
 30
0.0
 10
15.8963
 20
31.7041
 30
0.0
 10
15.8963
 20
31.7041
 30
0.0
 10
15.8963
 20
31.7041
 30
0.0
 10
15.5574
 20
31.7041
 30
0.0
 10
15.5574
 20
31.7041
 30
0.0
 10
15.5574
 20
31.7041
 30
0.0
 10
15.5574
 20
31.7041
 30
0.0
 10
-8.9027
 20
31.7041
 30
0.0
 10
-8.9027
 20
31.7041
 30
0.0
 10
-8.9027
 20
31.7041
 30
0.0
 10
-8.9027
 20
31.7041
 30
0.0
 10
-9.2416
 20
31.7041
 30
0.0
 10
-9.2416
 20
31.7041
 30
0.0
 10
-9.2416
 20
31.7041
 30
0.0
 10
-9.2416
 20
31.7041
 30
0.0
 10
-9.3013
 20
31.7047
 30
0.0
 10
-9.3013
 20
31.7047
 30
0.0
  0
SPLINE
  5
1FE
330
1F
100
AcDbEntity
  8
DEFAULT_1
 62
   250
100
AcDbSpline
210
0.0
220
0.0
230
1.0
 70
     8
 71
     3
 72
     8
 73
     4
 74
     0
 42
0.0000000001
 43
0.0000000001
 40
0.0
 40
0.0
 40
0.0
 40
0.0
 40
1.0
 40
1.0
 40
1.0
 40
1.0
 10
-9.3013
 20
31.7047
 30
0.0
 10
-9.3096
 20
31.7046
 30
0.0
 10
-9.318
 20
31.7049
 30
0.0
 10
-9.3263
 20
31.7041
 30
0.0
  0
SPLINE
  5
1FF
330
1F
100
AcDbEntity
  8
DEFAULT_1
 62
   250
100
AcDbSpline
210
0.0
220
0.0
230
1.0
 70
     8
 71
     3
 72
     8
 73
     4
 74
     0
 42
0.0000000001
 43
0.0000000001
 40
0.0
 40
0.0
 40
0.0
 40
0.0
 40
1.0
 40
1.0
 40
1.0
 40
1.0
 10
-9.2416
 20
31.787
 30
0.0
 10
-9.2416
 20
30.714
 30
0.0
 10
-9.2775
 20
29.641
 30
0.0
 10
-9.2963
 20
28.568
 30
0.0
  0
SPLINE
  5
200
330
1F
100
AcDbEntity
  8
DEFAULT_1
 62
   250
100
AcDbSpline
210
0.0
220
0.0
230
1.0
 70
     8
 71
     3
 72
     8
 73
     4
 74
     0
 42
0.0000000001
 43
0.0000000001
 40
0.0
 40
0.0
 40
0.0
 40
0.0
 40
1.0
 40
1.0
 40
1.0
 40
1.0
 10
15.8951
 20
31.7859
 30
0.0
 10
15.8856
 20
31.6522
 30
0.0
 10
15.8989
 20
31.4681
 30
0.0
 10
15.9008
 20
31.3652
 30
0.0
  0
SPLINE
  5
201
330
1F
100
AcDbEntity
  8
DEFAULT_1
 62
   250
100
AcDbSpline
210
0.0
220
0.0
230
1.0
 70
     8
 71
     3
 72
    12
 73
     8
 74
     0
 42
0.0000000001
 43
0.0000000001
 40
0.0
 40
0.0
 40
0.0
 40
0.0
 40
0.3333333333333333
 40
0.3333333333333333
 40
0.3333333333333333
 40
0.3333333333333333
 40
1.0
 40
1.0
 40
1.0
 40
1.0
 10
15.9008
 20
31.3652
 30
0.0
 10
15.9008
 20
31.3652
 30
0.0
 10
15.9437
 20
28.9069
 30
0.0
 10
15.9437
 20
28.9069
 30
0.0
 10
15.9437
 20
28.9069
 30
0.0
 10
15.9437
 20
28.9069
 30
0.0
 10
15.9495
 20
28.568
 30
0.0
 10
15.9495
 20
28.568
 30
0.0
  0
SPLINE
  5
202
330
1F
100
AcDbEntity
  8
DEFAULT_1
  6
NEW_LINE2
 62
   250
100
AcDbSpline
210
0.0
220
0.0
230
1.0
 70
    24
 71
     3
 72
     8
 73
     4
 74
     0
 42
0.0000000001
 43
0.0000000001
 40
0.0
 40
0.0
 40
0.0
 40
0.0
 40
1.0
 40
1.0
 40
1.0
 40
1.0
 10
3.232
 20
-26.2779
 30
0.0
 10
3.232
 20
-26.2779
 30
0.0
 10
3.232
 20
2.0851
 30
0.0
 10
3.232
 20
2.0851
 30
0.0
  0
SPLINE
  5
204
330
1F
100
AcDbEntity
  8
DEFAULT_1
  6
NEW_LINE3
 62
   250
100
AcDbSpline
210
0.0
220
0.0
230
1.0
 70
    24
 71
     3
 72
     8
 73
     4
 74
     0
 42
0.0000000001
 43
0.0000000001
 40
0.0
 40
0.0
 40
0.0
 40
0.0
 40
1.0
 40
1.0
 40
1.0
 40
1.0
 10
16.75
 20
-11.8978
 30
0.0
 10
16.75
 20
-11.8978
 30
0.0
 10
-10.9415
 20
-11.8978
 30
0.0
 10
-10.9415
 20
-11.8978
 30
0.0
  0
SPLINE
  5
206
330
1F
100
AcDbEntity
  8
DEFAULT_1
 62
   250
100
AcDbSpline
210
0.0
220
0.0
230
1.0
 70
    24
 71
     3
 72
     8
 73
     4
 74
     0
 42
0.0000000001
 43
0.0000000001
 40
0.0
 40
0.0
 40
0.0
 40
0.0
 40
1.0
 40
1.0
 40
1.0
 40
1.0
 10
-6.7468
 20
-2.4193
 30
0.0
 10
-6.7468
 20
-2.4193
 30
0.0
 10
-6.7468
 20
-3.6846
 30
0.0
 10
-6.7468
 20
-3.6846
 30
0.0
  0
SPLINE
  5
207
330
1F
100
AcDbEntity
  8
DEFAULT_1
 62
   250
100
AcDbSpline
210
0.0
220
0.0
230
1.0
 70
    24
 71
     3
 72
     8
 73
     4
 74
     0
 42
0.0000000001
 43
0.0000000001
 40
0.0
 40
0.0
 40
0.0
 40
0.0
 40
1.0
 40
1.0
 40
1.0
 40
1.0
 10
1.8354
 20
-3.6846
 30
0.0
 10
1.8354
 20
-3.6846
 30
0.0
 10
-6.7468
 20
-3.6846
 30
0.0
 10
-6.7468
 20
-3.6846
 30
0.0
  0
SPLINE
  5
208
330
1F
100
AcDbEntity
  8
DEFAULT_1
 62
   250
100
AcDbSpline
210
0.0
220
0.0
230
1.0
 70
    24
 71
     3
 72
     8
 73
     4
 74
     0
 42
0.0000000001
 43
0.0000000001
 40
0.0
 40
0.0
 40
0.0
 40
0.0
 40
1.0
 40
1.0
 40
1.0
 40
1.0
 10
1.8354
 20
-3.6846
 30
0.0
 10
1.8354
 20
-3.6846
 30
0.0
 10
1.8354
 20
-2.4193
 30
0.0
 10
1.8354
 20
-2.4193
 30
0.0
  0
SPLINE
  5
209
330
1F
100
AcDbEntity
  8
DEFAULT_1
 62
   250
100
AcDbSpline
210
0.0
220
0.0
230
1.0
 70
    24
 71
     3
 72
     8
 73
     4
 74
     0
 42
0.0000000001
 43
0.0000000001
 40
0.0
 40
0.0
 40
0.0
 40
0.0
 40
1.0
 40
1.0
 40
1.0
 40
1.0
 10
-6.7468
 20
-2.4193
 30
0.0
 10
-6.7468
 20
-2.4193
 30
0.0
 10
1.8354
 20
-2.4193
 30
0.0
 10
1.8354
 20
-2.4193
 30
0.0
  0
SPLINE
  5
20A
330
1F
100
AcDbEntity
  8
DEFAULT_1
 62
   250
100
AcDbSpline
210
0.0
220
0.0
230
1.0
 70
    24
 71
     3
 72
     8
 73
     4
 74
     0
 42
0.0000000001
 43
0.0000000001
 40
0.0
 40
0.0
 40
0.0
 40
0.0
 40
1.0
 40
1.0
 40
1.0
 40
1.0
 10
-6.7566
 20
-7.3222
 30
0.0
 10
-6.7566
 20
-7.3222
 30
0.0
 10
-6.7566
 20
-8.5876
 30
0.0
 10
-6.7566
 20
-8.5876
 30
0.0
  0
SPLINE
  5
20B
330
1F
100
AcDbEntity
  8
DEFAULT_1
 62
   250
100
AcDbSpline
210
0.0
220
0.0
230
1.0
 70
    24
 71
     3
 72
     8
 73
     4
 74
     0
 42
0.0000000001
 43
0.0000000001
 40
0.0
 40
0.0
 40
0.0
 40
0.0
 40
1.0
 40
1.0
 40
1.0
 40
1.0
 10
1.8256
 20
-8.5876
 30
0.0
 10
1.8256
 20
-8.5876
 30
0.0
 10
-6.7566
 20
-8.5876
 30
0.0
 10
-6.7566
 20
-8.5876
 30
0.0
  0
SPLINE
  5
20C
330
1F
100
AcDbEntity
  8
DEFAULT_1
 62
   250
100
AcDbSpline
210
0.0
220
0.0
230
1.0
 70
    24
 71
     3
 72
     8
 73
     4
 74
     0
 42
0.0000000001
 43
0.0000000001
 40
0.0
 40
0.0
 40
0.0
 40
0.0
 40
1.0
 40
1.0
 40
1.0
 40
1.0
 10
1.8256
 20
-8.5876
 30
0.0
 10
1.8256
 20
-8.5876
 30
0.0
 10
1.8256
 20
-7.3222
 30
0.0
 10
1.8256
 20
-7.3222
 30
0.0
  0
SPLINE
  5
20D
330
1F
100
AcDbEntity
  8
DEFAULT_1
 62
   250
100
AcDbSpline
210
0.0
220
0.0
230
1.0
 70
    24
 71
     3
 72
     8
 73
     4
 74
     0
 42
0.0000000001
 43
0.0000000001
 40
0.0
 40
0.0
 40
0.0
 40
0.0
 40
1.0
 40
1.0
 40
1.0
 40
1.0
 10
-6.7566
 20
-7.3222
 30
0.0
 10
-6.7566
 20
-7.3222
 30
0.0
 10
1.8256
 20
-7.3222
 30
0.0
 10
1.8256
 20
-7.3222
 30
0.0
  0
SPLINE
  5
20E
330
1F
100
AcDbEntity
  8
DEFAULT_1
 62
   250
100
AcDbSpline
210
0.0
220
0.0
230
1.0
 70
    24
 71
     3
 72
     8
 73
     4
 74
     0
 42
0.0000000001
 43
0.0000000001
 40
0.0
 40
0.0
 40
0.0
 40
0.0
 40
1.0
 40
1.0
 40
1.0
 40
1.0
 10
-6.7412
 20
-4.8526
 30
0.0
 10
-6.7412
 20
-4.8526
 30
0.0
 10
-6.7412
 20
-6.118
 30
0.0
 10
-6.7412
 20
-6.118
 30
0.0
  0
SPLINE
  5
20F
330
1F
100
AcDbEntity
  8
DEFAULT_1
 62
   250
100
AcDbSpline
210
0.0
220
0.0
230
1.0
 70
    24
 71
     3
 72
     8
 73
     4
 74
     0
 42
0.0000000001
 43
0.0000000001
 40
0.0
 40
0.0
 40
0.0
 40
0.0
 40
1.0
 40
1.0
 40
1.0
 40
1.0
 10
1.841
 20
-6.118
 30
0.0
 10
1.841
 20
-6.118
 30
0.0
 10
-6.7412
 20
-6.118
 30
0.0
 10
-6.7412
 20
-6.118
 30
0.0
  0
SPLINE
  5
210
330
1F
100
AcDbEntity
  8
DEFAULT_1
 62
   250
100
AcDbSpline
210
0.0
220
0.0
230
1.0
 70
    24
 71
     3
 72
     8
 73
     4
 74
     0
 42
0.0000000001
 43
0.0000000001
 40
0.0
 40
0.0
 40
0.0
 40
0.0
 40
1.0
 40
1.0
 40
1.0
 40
1.0
 10
1.841
 20
-6.118
 30
0.0
 10
1.841
 20
-6.118
 30
0.0
 10
1.841
 20
-4.8526
 30
0.0
 10
1.841
 20
-4.8526
 30
0.0
  0
SPLINE
  5
211
330
1F
100
AcDbEntity
  8
DEFAULT_1
 62
   250
100
AcDbSpline
210
0.0
220
0.0
230
1.0
 70
    24
 71
     3
 72
     8
 73
     4
 74
     0
 42
0.0000000001
 43
0.0000000001
 40
0.0
 40
0.0
 40
0.0
 40
0.0
 40
1.0
 40
1.0
 40
1.0
 40
1.0
 10
-6.7412
 20
-4.8526
 30
0.0
 10
-6.7412
 20
-4.8526
 30
0.0
 10
1.841
 20
-4.8526
 30
0.0
 10
1.841
 20
-4.8526
 30
0.0
  0
SPLINE
  5
212
330
1F
100
AcDbEntity
  8
DEFAULT_1
 62
   250
100
AcDbSpline
210
0.0
220
0.0
230
1.0
 70
    24
 71
     3
 72
     8
 73
     4
 74
     0
 42
0.0000000001
 43
0.0000000001
 40
0.0
 40
0.0
 40
0.0
 40
0.0
 40
1.0
 40
1.0
 40
1.0
 40
1.0
 10
-6.7511
 20
-9.7555
 30
0.0
 10
-6.7511
 20
-9.7555
 30
0.0
 10
-6.7511
 20
-11.0209
 30
0.0
 10
-6.7511
 20
-11.0209
 30
0.0
  0
SPLINE
  5
213
330
1F
100
AcDbEntity
  8
DEFAULT_1
 62
   250
100
AcDbSpline
210
0.0
220
0.0
230
1.0
 70
    24
 71
     3
 72
     8
 73
     4
 74
     0
 42
0.0000000001
 43
0.0000000001
 40
0.0
 40
0.0
 40
0.0
 40
0.0
 40
1.0
 40
1.0
 40
1.0
 40
1.0
 10
1.8311
 20
-11.0209
 30
0.0
 10
1.8311
 20
-11.0209
 30
0.0
 10
-6.7511
 20
-11.0209
 30
0.0
 10
-6.7511
 20
-11.0209
 30
0.0
  0
SPLINE
  5
214
330
1F
100
AcDbEntity
  8
DEFAULT_1
 62
   250
100
AcDbSpline
210
0.0
220
0.0
230
1.0
 70
    24
 71
     3
 72
     8
 73
     4
 74
     0
 42
0.0000000001
 43
0.0000000001
 40
0.0
 40
0.0
 40
0.0
 40
0.0
 40
1.0
 40
1.0
 40
1.0
 40
1.0
 10
1.8311
 20
-11.0209
 30
0.0
 10
1.8311
 20
-11.0209
 30
0.0
 10
1.8311
 20
-9.7555
 30
0.0
 10
1.8311
 20
-9.7555
 30
0.0
  0
SPLINE
  5
215
330
1F
100
AcDbEntity
  8
DEFAULT_1
 62
   250
100
AcDbSpline
210
0.0
220
0.0
230
1.0
 70
    24
 71
     3
 72
     8
 73
     4
 74
     0
 42
0.0000000001
 43
0.0000000001
 40
0.0
 40
0.0
 40
0.0
 40
0.0
 40
1.0
 40
1.0
 40
1.0
 40
1.0
 10
-6.7511
 20
-9.7555
 30
0.0
 10
-6.7511
 20
-9.7555
 30
0.0
 10
1.8311
 20
-9.7555
 30
0.0
 10
1.8311
 20
-9.7555
 30
0.0
  0
SPLINE
  5
216
330
1F
100
AcDbEntity
  8
DEFAULT_1
 62
   250
100
AcDbSpline
210
0.0
220
0.0
230
1.0
 70
    24
 71
     3
 72
     8
 73
     4
 74
     0
 42
0.0000000001
 43
0.0000000001
 40
0.0
 40
0.0
 40
0.0
 40
0.0
 40
1.0
 40
1.0
 40
1.0
 40
1.0
 10
-6.7476
 20
-21.4953
 30
0.0
 10
-6.7476
 20
-21.4953
 30
0.0
 10
-5.4823
 20
-21.4953
 30
0.0
 10
-5.4823
 20
-21.4953
 30
0.0
  0
SPLINE
  5
217
330
1F
100
AcDbEntity
  8
DEFAULT_1
 62
   250
100
AcDbSpline
210
0.0
220
0.0
230
1.0
 70
    24
 71
     3
 72
     8
 73
     4
 74
     0
 42
0.0000000001
 43
0.0000000001
 40
0.0
 40
0.0
 40
0.0
 40
0.0
 40
1.0
 40
1.0
 40
1.0
 40
1.0
 10
-5.4823
 20
-12.9131
 30
0.0
 10
-5.4823
 20
-12.9131
 30
0.0
 10
-5.4823
 20
-21.4953
 30
0.0
 10
-5.4823
 20
-21.4953
 30
0.0
  0
SPLINE
  5
218
330
1F
100
AcDbEntity
  8
DEFAULT_1
 62
   250
100
AcDbSpline
210
0.0
220
0.0
230
1.0
 70
    24
 71
     3
 72
     8
 73
     4
 74
     0
 42
0.0000000001
 43
0.0000000001
 40
0.0
 40
0.0
 40
0.0
 40
0.0
 40
1.0
 40
1.0
 40
1.0
 40
1.0
 10
-5.4823
 20
-12.9131
 30
0.0
 10
-5.4823
 20
-12.9131
 30
0.0
 10
-6.7476
 20
-12.9131
 30
0.0
 10
-6.7476
 20
-12.9131
 30
0.0
  0
SPLINE
  5
219
330
1F
100
AcDbEntity
  8
DEFAULT_1
 62
   250
100
AcDbSpline
210
0.0
220
0.0
230
1.0
 70
    24
 71
     3
 72
     8
 73
     4
 74
     0
 42
0.0000000001
 43
0.0000000001
 40
0.0
 40
0.0
 40
0.0
 40
0.0
 40
1.0
 40
1.0
 40
1.0
 40
1.0
 10
-6.7476
 20
-21.4953
 30
0.0
 10
-6.7476
 20
-21.4953
 30
0.0
 10
-6.7476
 20
-12.9131
 30
0.0
 10
-6.7476
 20
-12.9131
 30
0.0
  0
SPLINE
  5
21A
330
1F
100
AcDbEntity
  8
DEFAULT_1
 62
   250
100
AcDbSpline
210
0.0
220
0.0
230
1.0
 70
    24
 71
     3
 72
     8
 73
     4
 74
     0
 42
0.0000000001
 43
0.0000000001
 40
0.0
 40
0.0
 40
0.0
 40
0.0
 40
1.0
 40
1.0
 40
1.0
 40
1.0
 10
-1.8447
 20
-21.5051
 30
0.0
 10
-1.8447
 20
-21.5051
 30
0.0
 10
-0.5793
 20
-21.5051
 30
0.0
 10
-0.5793
 20
-21.5051
 30
0.0
  0
SPLINE
  5
21B
330
1F
100
AcDbEntity
  8
DEFAULT_1
 62
   250
100
AcDbSpline
210
0.0
220
0.0
230
1.0
 70
    24
 71
     3
 72
     8
 73
     4
 74
     0
 42
0.0000000001
 43
0.0000000001
 40
0.0
 40
0.0
 40
0.0
 40
0.0
 40
1.0
 40
1.0
 40
1.0
 40
1.0
 10
-0.5793
 20
-12.9229
 30
0.0
 10
-0.5793
 20
-12.9229
 30
0.0
 10
-0.5793
 20
-21.5051
 30
0.0
 10
-0.5793
 20
-21.5051
 30
0.0
  0
SPLINE
  5
21C
330
1F
100
AcDbEntity
  8
DEFAULT_1
 62
   250
100
AcDbSpline
210
0.0
220
0.0
230
1.0
 70
    24
 71
     3
 72
     8
 73
     4
 74
     0
 42
0.0000000001
 43
0.0000000001
 40
0.0
 40
0.0
 40
0.0
 40
0.0
 40
1.0
 40
1.0
 40
1.0
 40
1.0
 10
-0.5793
 20
-12.9229
 30
0.0
 10
-0.5793
 20
-12.9229
 30
0.0
 10
-1.8447
 20
-12.9229
 30
0.0
 10
-1.8447
 20
-12.9229
 30
0.0
  0
SPLINE
  5
21D
330
1F
100
AcDbEntity
  8
DEFAULT_1
 62
   250
100
AcDbSpline
210
0.0
220
0.0
230
1.0
 70
    24
 71
     3
 72
     8
 73
     4
 74
     0
 42
0.0000000001
 43
0.0000000001
 40
0.0
 40
0.0
 40
0.0
 40
0.0
 40
1.0
 40
1.0
 40
1.0
 40
1.0
 10
-1.8447
 20
-21.5051
 30
0.0
 10
-1.8447
 20
-21.5051
 30
0.0
 10
-1.8447
 20
-12.9229
 30
0.0
 10
-1.8447
 20
-12.9229
 30
0.0
  0
SPLINE
  5
21E
330
1F
100
AcDbEntity
  8
DEFAULT_1
 62
   250
100
AcDbSpline
210
0.0
220
0.0
230
1.0
 70
    24
 71
     3
 72
     8
 73
     4
 74
     0
 42
0.0000000001
 43
0.0000000001
 40
0.0
 40
0.0
 40
0.0
 40
0.0
 40
1.0
 40
1.0
 40
1.0
 40
1.0
 10
-4.3143
 20
-21.4897
 30
0.0
 10
-4.3143
 20
-21.4897
 30
0.0
 10
-3.0489
 20
-21.4897
 30
0.0
 10
-3.0489
 20
-21.4897
 30
0.0
  0
SPLINE
  5
21F
330
1F
100
AcDbEntity
  8
DEFAULT_1
 62
   250
100
AcDbSpline
210
0.0
220
0.0
230
1.0
 70
    24
 71
     3
 72
     8
 73
     4
 74
     0
 42
0.0000000001
 43
0.0000000001
 40
0.0
 40
0.0
 40
0.0
 40
0.0
 40
1.0
 40
1.0
 40
1.0
 40
1.0
 10
-3.0489
 20
-12.9075
 30
0.0
 10
-3.0489
 20
-12.9075
 30
0.0
 10
-3.0489
 20
-21.4897
 30
0.0
 10
-3.0489
 20
-21.4897
 30
0.0
  0
SPLINE
  5
220
330
1F
100
AcDbEntity
  8
DEFAULT_1
 62
   250
100
AcDbSpline
210
0.0
220
0.0
230
1.0
 70
    24
 71
     3
 72
     8
 73
     4
 74
     0
 42
0.0000000001
 43
0.0000000001
 40
0.0
 40
0.0
 40
0.0
 40
0.0
 40
1.0
 40
1.0
 40
1.0
 40
1.0
 10
-3.0489
 20
-12.9075
 30
0.0
 10
-3.0489
 20
-12.9075
 30
0.0
 10
-4.3143
 20
-12.9075
 30
0.0
 10
-4.3143
 20
-12.9075
 30
0.0
  0
SPLINE
  5
221
330
1F
100
AcDbEntity
  8
DEFAULT_1
 62
   250
100
AcDbSpline
210
0.0
220
0.0
230
1.0
 70
    24
 71
     3
 72
     8
 73
     4
 74
     0
 42
0.0000000001
 43
0.0000000001
 40
0.0
 40
0.0
 40
0.0
 40
0.0
 40
1.0
 40
1.0
 40
1.0
 40
1.0
 10
-4.3143
 20
-21.4897
 30
0.0
 10
-4.3143
 20
-21.4897
 30
0.0
 10
-4.3143
 20
-12.9075
 30
0.0
 10
-4.3143
 20
-12.9075
 30
0.0
  0
SPLINE
  5
222
330
1F
100
AcDbEntity
  8
DEFAULT_1
 62
   250
100
AcDbSpline
210
0.0
220
0.0
230
1.0
 70
    24
 71
     3
 72
     8
 73
     4
 74
     0
 42
0.0000000001
 43
0.0000000001
 40
0.0
 40
0.0
 40
0.0
 40
0.0
 40
1.0
 40
1.0
 40
1.0
 40
1.0
 10
0.5886
 20
-21.4995
 30
0.0
 10
0.5886
 20
-21.4995
 30
0.0
 10
1.854
 20
-21.4995
 30
0.0
 10
1.854
 20
-21.4995
 30
0.0
  0
SPLINE
  5
223
330
1F
100
AcDbEntity
  8
DEFAULT_1
 62
   250
100
AcDbSpline
210
0.0
220
0.0
230
1.0
 70
    24
 71
     3
 72
     8
 73
     4
 74
     0
 42
0.0000000001
 43
0.0000000001
 40
0.0
 40
0.0
 40
0.0
 40
0.0
 40
1.0
 40
1.0
 40
1.0
 40
1.0
 10
1.854
 20
-12.9174
 30
0.0
 10
1.854
 20
-12.9174
 30
0.0
 10
1.854
 20
-21.4995
 30
0.0
 10
1.854
 20
-21.4995
 30
0.0
  0
SPLINE
  5
224
330
1F
100
AcDbEntity
  8
DEFAULT_1
 62
   250
100
AcDbSpline
210
0.0
220
0.0
230
1.0
 70
    24
 71
     3
 72
     8
 73
     4
 74
     0
 42
0.0000000001
 43
0.0000000001
 40
0.0
 40
0.0
 40
0.0
 40
0.0
 40
1.0
 40
1.0
 40
1.0
 40
1.0
 10
1.854
 20
-12.9174
 30
0.0
 10
1.854
 20
-12.9174
 30
0.0
 10
0.5886
 20
-12.9174
 30
0.0
 10
0.5886
 20
-12.9174
 30
0.0
  0
SPLINE
  5
225
330
1F
100
AcDbEntity
  8
DEFAULT_1
 62
   250
100
AcDbSpline
210
0.0
220
0.0
230
1.0
 70
    24
 71
     3
 72
     8
 73
     4
 74
     0
 42
0.0000000001
 43
0.0000000001
 40
0.0
 40
0.0
 40
0.0
 40
0.0
 40
1.0
 40
1.0
 40
1.0
 40
1.0
 10
0.5886
 20
-21.4995
 30
0.0
 10
0.5886
 20
-21.4995
 30
0.0
 10
0.5886
 20
-12.9174
 30
0.0
 10
0.5886
 20
-12.9174
 30
0.0
  0
SPLINE
  5
226
330
1F
100
AcDbEntity
  8
DEFAULT_1
 62
   250
100
AcDbSpline
210
0.0
220
0.0
230
1.0
 70
    24
 71
     3
 72
     8
 73
     4
 74
     0
 42
0.0000000001
 43
0.0000000001
 40
0.0
 40
0.0
 40
0.0
 40
0.0
 40
1.0
 40
1.0
 40
1.0
 40
1.0
 10
3.7199
 20
-12.8749
 30
0.0
 10
3.7199
 20
-12.8749
 30
0.0
 10
3.7199
 20
-14.1403
 30
0.0
 10
3.7199
 20
-14.1403
 30
0.0
  0
SPLINE
  5
227
330
1F
100
AcDbEntity
  8
DEFAULT_1
 62
   250
100
AcDbSpline
210
0.0
220
0.0
230
1.0
 70
    24
 71
     3
 72
     8
 73
     4
 74
     0
 42
0.0000000001
 43
0.0000000001
 40
0.0
 40
0.0
 40
0.0
 40
0.0
 40
1.0
 40
1.0
 40
1.0
 40
1.0
 10
12.3021
 20
-14.1403
 30
0.0
 10
12.3021
 20
-14.1403
 30
0.0
 10
3.7199
 20
-14.1403
 30
0.0
 10
3.7199
 20
-14.1403
 30
0.0
  0
SPLINE
  5
228
330
1F
100
AcDbEntity
  8
DEFAULT_1
 62
   250
100
AcDbSpline
210
0.0
220
0.0
230
1.0
 70
    24
 71
     3
 72
     8
 73
     4
 74
     0
 42
0.0000000001
 43
0.0000000001
 40
0.0
 40
0.0
 40
0.0
 40
0.0
 40
1.0
 40
1.0
 40
1.0
 40
1.0
 10
12.3021
 20
-14.1403
 30
0.0
 10
12.3021
 20
-14.1403
 30
0.0
 10
12.3021
 20
-12.8749
 30
0.0
 10
12.3021
 20
-12.8749
 30
0.0
  0
SPLINE
  5
229
330
1F
100
AcDbEntity
  8
DEFAULT_1
 62
   250
100
AcDbSpline
210
0.0
220
0.0
230
1.0
 70
    24
 71
     3
 72
     8
 73
     4
 74
     0
 42
0.0000000001
 43
0.0000000001
 40
0.0
 40
0.0
 40
0.0
 40
0.0
 40
1.0
 40
1.0
 40
1.0
 40
1.0
 10
3.7199
 20
-12.8749
 30
0.0
 10
3.7199
 20
-12.8749
 30
0.0
 10
12.3021
 20
-12.8749
 30
0.0
 10
12.3021
 20
-12.8749
 30
0.0
  0
SPLINE
  5
22A
330
1F
100
AcDbEntity
  8
DEFAULT_1
 62
   250
100
AcDbSpline
210
0.0
220
0.0
230
1.0
 70
    24
 71
     3
 72
     8
 73
     4
 74
     0
 42
0.0000000001
 43
0.0000000001
 40
0.0
 40
0.0
 40
0.0
 40
0.0
 40
1.0
 40
1.0
 40
1.0
 40
1.0
 10
3.7101
 20
-17.7778
 30
0.0
 10
3.7101
 20
-17.7778
 30
0.0
 10
3.7101
 20
-19.0432
 30
0.0
 10
3.7101
 20
-19.0432
 30
0.0
  0
SPLINE
  5
22B
330
1F
100
AcDbEntity
  8
DEFAULT_1
 62
   250
100
AcDbSpline
210
0.0
220
0.0
230
1.0
 70
    24
 71
     3
 72
     8
 73
     4
 74
     0
 42
0.0000000001
 43
0.0000000001
 40
0.0
 40
0.0
 40
0.0
 40
0.0
 40
1.0
 40
1.0
 40
1.0
 40
1.0
 10
12.2922
 20
-19.0432
 30
0.0
 10
12.2922
 20
-19.0432
 30
0.0
 10
3.7101
 20
-19.0432
 30
0.0
 10
3.7101
 20
-19.0432
 30
0.0
  0
SPLINE
  5
22C
330
1F
100
AcDbEntity
  8
DEFAULT_1
 62
   250
100
AcDbSpline
210
0.0
220
0.0
230
1.0
 70
    24
 71
     3
 72
     8
 73
     4
 74
     0
 42
0.0000000001
 43
0.0000000001
 40
0.0
 40
0.0
 40
0.0
 40
0.0
 40
1.0
 40
1.0
 40
1.0
 40
1.0
 10
12.2922
 20
-19.0432
 30
0.0
 10
12.2922
 20
-19.0432
 30
0.0
 10
12.2922
 20
-17.7778
 30
0.0
 10
12.2922
 20
-17.7778
 30
0.0
  0
SPLINE
  5
22D
330
1F
100
AcDbEntity
  8
DEFAULT_1
 62
   250
100
AcDbSpline
210
0.0
220
0.0
230
1.0
 70
    24
 71
     3
 72
     8
 73
     4
 74
     0
 42
0.0000000001
 43
0.0000000001
 40
0.0
 40
0.0
 40
0.0
 40
0.0
 40
1.0
 40
1.0
 40
1.0
 40
1.0
 10
3.7101
 20
-17.7778
 30
0.0
 10
3.7101
 20
-17.7778
 30
0.0
 10
12.2922
 20
-17.7778
 30
0.0
 10
12.2922
 20
-17.7778
 30
0.0
  0
SPLINE
  5
22E
330
1F
100
AcDbEntity
  8
DEFAULT_1
 62
   250
100
AcDbSpline
210
0.0
220
0.0
230
1.0
 70
    24
 71
     3
 72
     8
 73
     4
 74
     0
 42
0.0000000001
 43
0.0000000001
 40
0.0
 40
0.0
 40
0.0
 40
0.0
 40
1.0
 40
1.0
 40
1.0
 40
1.0
 10
3.7254
 20
-15.3082
 30
0.0
 10
3.7254
 20
-15.3082
 30
0.0
 10
3.7254
 20
-16.5736
 30
0.0
 10
3.7254
 20
-16.5736
 30
0.0
  0
SPLINE
  5
22F
330
1F
100
AcDbEntity
  8
DEFAULT_1
 62
   250
100
AcDbSpline
210
0.0
220
0.0
230
1.0
 70
    24
 71
     3
 72
     8
 73
     4
 74
     0
 42
0.0000000001
 43
0.0000000001
 40
0.0
 40
0.0
 40
0.0
 40
0.0
 40
1.0
 40
1.0
 40
1.0
 40
1.0
 10
12.3076
 20
-16.5736
 30
0.0
 10
12.3076
 20
-16.5736
 30
0.0
 10
3.7254
 20
-16.5736
 30
0.0
 10
3.7254
 20
-16.5736
 30
0.0
  0
SPLINE
  5
230
330
1F
100
AcDbEntity
  8
DEFAULT_1
 62
   250
100
AcDbSpline
210
0.0
220
0.0
230
1.0
 70
    24
 71
     3
 72
     8
 73
     4
 74
     0
 42
0.0000000001
 43
0.0000000001
 40
0.0
 40
0.0
 40
0.0
 40
0.0
 40
1.0
 40
1.0
 40
1.0
 40
1.0
 10
12.3076
 20
-16.5736
 30
0.0
 10
12.3076
 20
-16.5736
 30
0.0
 10
12.3076
 20
-15.3082
 30
0.0
 10
12.3076
 20
-15.3082
 30
0.0
  0
SPLINE
  5
231
330
1F
100
AcDbEntity
  8
DEFAULT_1
 62
   250
100
AcDbSpline
210
0.0
220
0.0
230
1.0
 70
    24
 71
     3
 72
     8
 73
     4
 74
     0
 42
0.0000000001
 43
0.0000000001
 40
0.0
 40
0.0
 40
0.0
 40
0.0
 40
1.0
 40
1.0
 40
1.0
 40
1.0
 10
3.7254
 20
-15.3082
 30
0.0
 10
3.7254
 20
-15.3082
 30
0.0
 10
12.3076
 20
-15.3082
 30
0.0
 10
12.3076
 20
-15.3082
 30
0.0
  0
SPLINE
  5
232
330
1F
100
AcDbEntity
  8
DEFAULT_1
 62
   250
100
AcDbSpline
210
0.0
220
0.0
230
1.0
 70
    24
 71
     3
 72
     8
 73
     4
 74
     0
 42
0.0000000001
 43
0.0000000001
 40
0.0
 40
0.0
 40
0.0
 40
0.0
 40
1.0
 40
1.0
 40
1.0
 40
1.0
 10
3.7156
 20
-20.2112
 30
0.0
 10
3.7156
 20
-20.2112
 30
0.0
 10
3.7156
 20
-21.4765
 30
0.0
 10
3.7156
 20
-21.4765
 30
0.0
  0
SPLINE
  5
233
330
1F
100
AcDbEntity
  8
DEFAULT_1
 62
   250
100
AcDbSpline
210
0.0
220
0.0
230
1.0
 70
    24
 71
     3
 72
     8
 73
     4
 74
     0
 42
0.0000000001
 43
0.0000000001
 40
0.0
 40
0.0
 40
0.0
 40
0.0
 40
1.0
 40
1.0
 40
1.0
 40
1.0
 10
12.2978
 20
-21.4765
 30
0.0
 10
12.2978
 20
-21.4765
 30
0.0
 10
3.7156
 20
-21.4765
 30
0.0
 10
3.7156
 20
-21.4765
 30
0.0
  0
SPLINE
  5
234
330
1F
100
AcDbEntity
  8
DEFAULT_1
 62
   250
100
AcDbSpline
210
0.0
220
0.0
230
1.0
 70
    24
 71
     3
 72
     8
 73
     4
 74
     0
 42
0.0000000001
 43
0.0000000001
 40
0.0
 40
0.0
 40
0.0
 40
0.0
 40
1.0
 40
1.0
 40
1.0
 40
1.0
 10
12.2978
 20
-21.4765
 30
0.0
 10
12.2978
 20
-21.4765
 30
0.0
 10
12.2978
 20
-20.2112
 30
0.0
 10
12.2978
 20
-20.2112
 30
0.0
  0
SPLINE
  5
235
330
1F
100
AcDbEntity
  8
DEFAULT_1
 62
   250
100
AcDbSpline
210
0.0
220
0.0
230
1.0
 70
    24
 71
     3
 72
     8
 73
     4
 74
     0
 42
0.0000000001
 43
0.0000000001
 40
0.0
 40
0.0
 40
0.0
 40
0.0
 40
1.0
 40
1.0
 40
1.0
 40
1.0
 10
3.7156
 20
-20.2112
 30
0.0
 10
3.7156
 20
-20.2112
 30
0.0
 10
12.2978
 20
-20.2112
 30
0.0
 10
12.2978
 20
-20.2112
 30
0.0
  0
SPLINE
  5
236
330
1F
100
AcDbEntity
  8
DEFAULT_1
 62
   250
100
AcDbSpline
210
0.0
220
0.0
230
1.0
 70
    24
 71
     3
 72
     8
 73
     4
 74
     0
 42
0.0000000001
 43
0.0000000001
 40
0.0
 40
0.0
 40
0.0
 40
0.0
 40
1.0
 40
1.0
 40
1.0
 40
1.0
 10
3.708
 20
-11.0286
 30
0.0
 10
3.708
 20
-11.0286
 30
0.0
 10
4.9734
 20
-11.0286
 30
0.0
 10
4.9734
 20
-11.0286
 30
0.0
  0
SPLINE
  5
237
330
1F
100
AcDbEntity
  8
DEFAULT_1
 62
   250
100
AcDbSpline
210
0.0
220
0.0
230
1.0
 70
    24
 71
     3
 72
     8
 73
     4
 74
     0
 42
0.0000000001
 43
0.0000000001
 40
0.0
 40
0.0
 40
0.0
 40
0.0
 40
1.0
 40
1.0
 40
1.0
 40
1.0
 10
4.9734
 20
-2.4464
 30
0.0
 10
4.9734
 20
-2.4464
 30
0.0
 10
4.9734
 20
-11.0286
 30
0.0
 10
4.9734
 20
-11.0286
 30
0.0
  0
SPLINE
  5
238
330
1F
100
AcDbEntity
  8
DEFAULT_1
 62
   250
100
AcDbSpline
210
0.0
220
0.0
230
1.0
 70
    24
 71
     3
 72
     8
 73
     4
 74
     0
 42
0.0000000001
 43
0.0000000001
 40
0.0
 40
0.0
 40
0.0
 40
0.0
 40
1.0
 40
1.0
 40
1.0
 40
1.0
 10
4.9734
 20
-2.4464
 30
0.0
 10
4.9734
 20
-2.4464
 30
0.0
 10
3.708
 20
-2.4464
 30
0.0
 10
3.708
 20
-2.4464
 30
0.0
  0
SPLINE
  5
239
330
1F
100
AcDbEntity
  8
DEFAULT_1
 62
   250
100
AcDbSpline
210
0.0
220
0.0
230
1.0
 70
    24
 71
     3
 72
     8
 73
     4
 74
     0
 42
0.0000000001
 43
0.0000000001
 40
0.0
 40
0.0
 40
0.0
 40
0.0
 40
1.0
 40
1.0
 40
1.0
 40
1.0
 10
3.708
 20
-11.0286
 30
0.0
 10
3.708
 20
-11.0286
 30
0.0
 10
3.708
 20
-2.4464
 30
0.0
 10
3.708
 20
-2.4464
 30
0.0
  0
SPLINE
  5
23A
330
1F
100
AcDbEntity
  8
DEFAULT_1
 62
   250
100
AcDbSpline
210
0.0
220
0.0
230
1.0
 70
    24
 71
     3
 72
     8
 73
     4
 74
     0
 42
0.0000000001
 43
0.0000000001
 40
0.0
 40
0.0
 40
0.0
 40
0.0
 40
1.0
 40
1.0
 40
1.0
 40
1.0
 10
8.6109
 20
-11.0384
 30
0.0
 10
8.6109
 20
-11.0384
 30
0.0
 10
9.8763
 20
-11.0384
 30
0.0
 10
9.8763
 20
-11.0384
 30
0.0
  0
SPLINE
  5
23B
330
1F
100
AcDbEntity
  8
DEFAULT_1
 62
   250
100
AcDbSpline
210
0.0
220
0.0
230
1.0
 70
    24
 71
     3
 72
     8
 73
     4
 74
     0
 42
0.0000000001
 43
0.0000000001
 40
0.0
 40
0.0
 40
0.0
 40
0.0
 40
1.0
 40
1.0
 40
1.0
 40
1.0
 10
9.8763
 20
-2.4563
 30
0.0
 10
9.8763
 20
-2.4563
 30
0.0
 10
9.8763
 20
-11.0384
 30
0.0
 10
9.8763
 20
-11.0384
 30
0.0
  0
SPLINE
  5
23C
330
1F
100
AcDbEntity
  8
DEFAULT_1
 62
   250
100
AcDbSpline
210
0.0
220
0.0
230
1.0
 70
    24
 71
     3
 72
     8
 73
     4
 74
     0
 42
0.0000000001
 43
0.0000000001
 40
0.0
 40
0.0
 40
0.0
 40
0.0
 40
1.0
 40
1.0
 40
1.0
 40
1.0
 10
9.8763
 20
-2.4563
 30
0.0
 10
9.8763
 20
-2.4563
 30
0.0
 10
8.6109
 20
-2.4563
 30
0.0
 10
8.6109
 20
-2.4563
 30
0.0
  0
SPLINE
  5
23D
330
1F
100
AcDbEntity
  8
DEFAULT_1
 62
   250
100
AcDbSpline
210
0.0
220
0.0
230
1.0
 70
    24
 71
     3
 72
     8
 73
     4
 74
     0
 42
0.0000000001
 43
0.0000000001
 40
0.0
 40
0.0
 40
0.0
 40
0.0
 40
1.0
 40
1.0
 40
1.0
 40
1.0
 10
8.6109
 20
-11.0384
 30
0.0
 10
8.6109
 20
-11.0384
 30
0.0
 10
8.6109
 20
-2.4563
 30
0.0
 10
8.6109
 20
-2.4563
 30
0.0
  0
SPLINE
  5
23E
330
1F
100
AcDbEntity
  8
DEFAULT_1
 62
   250
100
AcDbSpline
210
0.0
220
0.0
230
1.0
 70
    24
 71
     3
 72
     8
 73
     4
 74
     0
 42
0.0000000001
 43
0.0000000001
 40
0.0
 40
0.0
 40
0.0
 40
0.0
 40
1.0
 40
1.0
 40
1.0
 40
1.0
 10
6.1413
 20
-11.023
 30
0.0
 10
6.1413
 20
-11.023
 30
0.0
 10
7.4067
 20
-11.023
 30
0.0
 10
7.4067
 20
-11.023
 30
0.0
  0
SPLINE
  5
23F
330
1F
100
AcDbEntity
  8
DEFAULT_1
 62
   250
100
AcDbSpline
210
0.0
220
0.0
230
1.0
 70
    24
 71
     3
 72
     8
 73
     4
 74
     0
 42
0.0000000001
 43
0.0000000001
 40
0.0
 40
0.0
 40
0.0
 40
0.0
 40
1.0
 40
1.0
 40
1.0
 40
1.0
 10
7.4067
 20
-2.4409
 30
0.0
 10
7.4067
 20
-2.4409
 30
0.0
 10
7.4067
 20
-11.023
 30
0.0
 10
7.4067
 20
-11.023
 30
0.0
  0
SPLINE
  5
240
330
1F
100
AcDbEntity
  8
DEFAULT_1
 62
   250
100
AcDbSpline
210
0.0
220
0.0
230
1.0
 70
    24
 71
     3
 72
     8
 73
     4
 74
     0
 42
0.0000000001
 43
0.0000000001
 40
0.0
 40
0.0
 40
0.0
 40
0.0
 40
1.0
 40
1.0
 40
1.0
 40
1.0
 10
7.4067
 20
-2.4409
 30
0.0
 10
7.4067
 20
-2.4409
 30
0.0
 10
6.1413
 20
-2.4409
 30
0.0
 10
6.1413
 20
-2.4409
 30
0.0
  0
SPLINE
  5
241
330
1F
100
AcDbEntity
  8
DEFAULT_1
 62
   250
100
AcDbSpline
210
0.0
220
0.0
230
1.0
 70
    24
 71
     3
 72
     8
 73
     4
 74
     0
 42
0.0000000001
 43
0.0000000001
 40
0.0
 40
0.0
 40
0.0
 40
0.0
 40
1.0
 40
1.0
 40
1.0
 40
1.0
 10
6.1413
 20
-11.023
 30
0.0
 10
6.1413
 20
-11.023
 30
0.0
 10
6.1413
 20
-2.4409
 30
0.0
 10
6.1413
 20
-2.4409
 30
0.0
  0
SPLINE
  5
242
330
1F
100
AcDbEntity
  8
DEFAULT_1
 62
   250
100
AcDbSpline
210
0.0
220
0.0
230
1.0
 70
    24
 71
     3
 72
     8
 73
     4
 74
     0
 42
0.0000000001
 43
0.0000000001
 40
0.0
 40
0.0
 40
0.0
 40
0.0
 40
1.0
 40
1.0
 40
1.0
 40
1.0
 10
11.0443
 20
-11.0329
 30
0.0
 10
11.0443
 20
-11.0329
 30
0.0
 10
12.3096
 20
-11.0329
 30
0.0
 10
12.3096
 20
-11.0329
 30
0.0
  0
SPLINE
  5
243
330
1F
100
AcDbEntity
  8
DEFAULT_1
 62
   250
100
AcDbSpline
210
0.0
220
0.0
230
1.0
 70
    24
 71
     3
 72
     8
 73
     4
 74
     0
 42
0.0000000001
 43
0.0000000001
 40
0.0
 40
0.0
 40
0.0
 40
0.0
 40
1.0
 40
1.0
 40
1.0
 40
1.0
 10
12.3096
 20
-2.4507
 30
0.0
 10
12.3096
 20
-2.4507
 30
0.0
 10
12.3096
 20
-11.0329
 30
0.0
 10
12.3096
 20
-11.0329
 30
0.0
  0
SPLINE
  5
244
330
1F
100
AcDbEntity
  8
DEFAULT_1
 62
   250
100
AcDbSpline
210
0.0
220
0.0
230
1.0
 70
    24
 71
     3
 72
     8
 73
     4
 74
     0
 42
0.0000000001
 43
0.0000000001
 40
0.0
 40
0.0
 40
0.0
 40
0.0
 40
1.0
 40
1.0
 40
1.0
 40
1.0
 10
12.3096
 20
-2.4507
 30
0.0
 10
12.3096
 20
-2.4507
 30
0.0
 10
11.0443
 20
-2.4507
 30
0.0
 10
11.0443
 20
-2.4507
 30
0.0
  0
SPLINE
  5
245
330
1F
100
AcDbEntity
  8
DEFAULT_1
 62
   250
100
AcDbSpline
210
0.0
220
0.0
230
1.0
 70
    24
 71
     3
 72
     8
 73
     4
 74
     0
 42
0.0000000001
 43
0.0000000001
 40
0.0
 40
0.0
 40
0.0
 40
0.0
 40
1.0
 40
1.0
 40
1.0
 40
1.0
 10
11.0443
 20
-11.0329
 30
0.0
 10
11.0443
 20
-11.0329
 30
0.0
 10
11.0443
 20
-2.4507
 30
0.0
 10
11.0443
 20
-2.4507
 30
0.0
  0
SPLINE
  5
246
330
1F
100
AcDbEntity
  8
DEFAULT_1
 62
   250
100
AcDbSpline
210
0.0
220
0.0
230
1.0
 70
    24
 71
     3
 72
     8
 73
     4
 74
     0
 42
0.0000000001
 43
0.0000000001
 40
0.0
 40
0.0
 40
0.0
 40
0.0
 40
1.0
 40
1.0
 40
1.0
 40
1.0
 10
11.4098
 20
-24.3922
 30
0.0
 10
11.4098
 20
-24.3922
 30
0.0
 10
-5.8689
 20
-24.3922
 30
0.0
 10
-5.8689
 20
-24.3922
 30
0.0
  0
SPLINE
  5
247
330
1F
100
AcDbEntity
  8
DEFAULT_1
 62
   250
100
AcDbSpline
210
0.0
220
0.0
230
1.0
 70
    24
 71
     3
 72
     8
 73
     4
 74
     0
 42
0.0000000001
 43
0.0000000001
 40
0.0
 40
0.0
 40
0.0
 40
0.0
 40
1.0
 40
1.0
 40
1.0
 40
1.0
 10
-9.6853
 20
-20.5758
 30
0.0
 10
-9.6853
 20
-20.5758
 30
0.0
 10
-9.6853
 20
-3.2972
 30
0.0
 10
-9.6853
 20
-3.2972
 30
0.0
  0
SPLINE
  5
248
330
1F
100
AcDbEntity
  8
DEFAULT_1
 62
   250
100
AcDbSpline
210
0.0
220
0.0
230
1.0
 70
    24
 71
     3
 72
     8
 73
     4
 74
     0
 42
0.0000000001
 43
0.0000000001
 40
0.0
 40
0.0
 40
0.0
 40
0.0
 40
1.0
 40
1.0
 40
1.0
 40
1.0
 10
11.4098
 20
0.5191
 30
0.0
 10
11.4098
 20
0.5191
 30
0.0
 10
-5.8689
 20
0.5191
 30
0.0
 10
-5.8689
 20
0.5191
 30
0.0
  0
SPLINE
  5
249
330
1F
100
AcDbEntity
  8
DEFAULT_1
 62
   250
100
AcDbSpline
210
0.0
220
0.0
230
1.0
 70
    24
 71
     3
 72
     8
 73
     4
 74
     0
 42
0.0000000001
 43
0.0000000001
 40
0.0
 40
0.0
 40
0.0
 40
0.0
 40
1.0
 40
1.0
 40
1.0
 40
1.0
 10
15.2262
 20
-3.2972
 30
0.0
 10
15.2262
 20
-3.2972
 30
0.0
 10
15.2262
 20
-20.5758
 30
0.0
 10
15.2262
 20
-20.5758
 30
0.0
  0
SPLINE
  5
24A
330
1F
100
AcDbEntity
  8
DEFAULT_1
 62
   250
100
AcDbSpline
210
0.0
220
0.0
230
1.0
 70
     8
 71
     3
 72
     8
 73
     4
 74
     0
 42
0.0000000001
 43
0.0000000001
 40
0.0
 40
0.0
 40
0.0
 40
0.0
 40
1.0
 40
1.0
 40
1.0
 40
1.0
 10
-9.4989
 20
0.507
 30
0.0
 10
-9.7525
 20
0.4959
 30
0.0
 10
-9.6731
 20
0.1253
 30
0.0
 10
-9.6731
 20
-0.0156
 30
0.0
  0
SPLINE
  5
24B
330
1F
100
AcDbEntity
  8
DEFAULT_1
 62
   250
100
AcDbSpline
210
0.0
220
0.0
230
1.0
 70
    24
 71
     3
 72
     8
 73
     4
 74
     0
 42
0.0000000001
 43
0.0000000001
 40
0.0
 40
0.0
 40
0.0
 40
0.0
 40
1.0
 40
1.0
 40
1.0
 40
1.0
 10
-9.6731
 20
-0.0156
 30
0.0
 10
-9.6731
 20
-0.0156
 30
0.0
 10
-9.6731
 20
-23.8574
 30
0.0
 10
-9.6731
 20
-23.8574
 30
0.0
  0
SPLINE
  5
24C
330
1F
100
AcDbEntity
  8
DEFAULT_1
 62
   250
100
AcDbSpline
210
0.0
220
0.0
230
1.0
 70
     8
 71
     3
 72
    12
 73
     8
 74
     0
 42
0.0000000001
 43
0.0000000001
 40
0.0
 40
0.0
 40
0.0
 40
0.0
 40
0.3333333333333333
 40
0.3333333333333333
 40
0.3333333333333333
 40
0.3333333333333333
 40
1.0
 40
1.0
 40
1.0
 40
1.0
 10
-9.6731
 20
-23.8574
 30
0.0
 10
-9.6731
 20
-23.9308
 30
0.0
 10
-9.7283
 20
-24.2228
 30
0.0
 10
-9.6221
 20
-24.3291
 30
0.0
 10
-9.6221
 20
-24.3291
 30
0.0
 10
-9.5159
 20
-24.4351
 30
0.0
 10
-9.2238
 20
-24.38
 30
0.0
 10
-9.1505
 20
-24.38
 30
0.0
  0
SPLINE
  5
24D
330
1F
100
AcDbEntity
  8
DEFAULT_1
 62
   250
100
AcDbSpline
210
0.0
220
0.0
230
1.0
 70
     8
 71
     3
 72
    16
 73
    12
 74
     0
 42
0.0000000001
 43
0.0000000001
 40
0.0
 40
0.0
 40
0.0
 40
0.0
 40
0.25
 40
0.25
 40
0.25
 40
0.25
 40
0.5
 40
0.5
 40
0.5
 40
0.5
 40
1.0
 40
1.0
 40
1.0
 40
1.0
 10
-9.1505
 20
-24.38
 30
0.0
 10
-9.1505
 20
-24.38
 30
0.0
 10
14.6914
 20
-24.38
 30
0.0
 10
14.6914
 20
-24.38
 30
0.0
 10
14.6914
 20
-24.38
 30
0.0
 10
14.6914
 20
-24.38
 30
0.0
 10
15.0398
 20
-24.38
 30
0.0
 10
15.0398
 20
-24.38
 30
0.0
 10
15.0398
 20
-24.38
 30
0.0
 10
15.0398
 20
-24.38
 30
0.0
 10
15.055
 20
-24.3794
 30
0.0
 10
15.055
 20
-24.3794
 30
0.0
  0
SPLINE
  5
24E
330
1F
100
AcDbEntity
  8
DEFAULT_1
 62
   250
100
AcDbSpline
210
0.0
220
0.0
230
1.0
 70
     8
 71
     3
 72
     8
 73
     4
 74
     0
 42
0.0000000001
 43
0.0000000001
 40
0.0
 40
0.0
 40
0.0
 40
0.0
 40
1.0
 40
1.0
 40
1.0
 40
1.0
 10
15.055
 20
-24.3794
 30
0.0
 10
15.2933
 20
-24.3584
 30
0.0
 10
15.214
 20
-23.9782
 30
0.0
 10
15.214
 20
-23.8574
 30
0.0
  0
SPLINE
  5
24F
330
1F
100
AcDbEntity
  8
DEFAULT_1
 62
   250
100
AcDbSpline
210
0.0
220
0.0
230
1.0
 70
    24
 71
     3
 72
     8
 73
     4
 74
     0
 42
0.0000000001
 43
0.0000000001
 40
0.0
 40
0.0
 40
0.0
 40
0.0
 40
1.0
 40
1.0
 40
1.0
 40
1.0
 10
15.214
 20
-23.8574
 30
0.0
 10
15.214
 20
-23.8574
 30
0.0
 10
15.214
 20
-0.0156
 30
0.0
 10
15.214
 20
-0.0156
 30
0.0
  0
SPLINE
  5
250
330
1F
100
AcDbEntity
  8
DEFAULT_1
 62
   250
100
AcDbSpline
210
0.0
220
0.0
230
1.0
 70
     8
 71
     3
 72
    12
 73
     8
 74
     0
 42
0.0000000001
 43
0.0000000001
 40
0.0
 40
0.0
 40
0.0
 40
0.0
 40
0.3333333333333333
 40
0.3333333333333333
 40
0.3333333333333333
 40
0.3333333333333333
 40
1.0
 40
1.0
 40
1.0
 40
1.0
 10
15.214
 20
-0.0156
 30
0.0
 10
15.214
 20
0.0578
 30
0.0
 10
15.2691
 20
0.3498
 30
0.0
 10
15.1629
 20
0.4559
 30
0.0
 10
15.1629
 20
0.4559
 30
0.0
 10
15.0568
 20
0.5622
 30
0.0
 10
14.7648
 20
0.507
 30
0.0
 10
14.6914
 20
0.507
 30
0.0
  0
SPLINE
  5
251
330
1F
100
AcDbEntity
  8
DEFAULT_1
 62
   250
100
AcDbSpline
210
0.0
220
0.0
230
1.0
 70
    24
 71
     3
 72
    12
 73
     8
 74
     0
 42
0.0000000001
 43
0.0000000001
 40
0.0
 40
0.0
 40
0.0
 40
0.0
 40
0.3333333333333333
 40
0.3333333333333333
 40
0.3333333333333333
 40
0.3333333333333333
 40
1.0
 40
1.0
 40
1.0
 40
1.0
 10
14.6914
 20
0.507
 30
0.0
 10
14.6914
 20
0.507
 30
0.0
 10
-9.1505
 20
0.507
 30
0.0
 10
-9.1505
 20
0.507
 30
0.0
 10
-9.1505
 20
0.507
 30
0.0
 10
-9.1505
 20
0.507
 30
0.0
 10
-9.4989
 20
0.507
 30
0.0
 10
-9.4989
 20
0.507
 30
0.0
  0
SPLINE
  5
252
330
1F
100
AcDbEntity
  8
DEFAULT_1
 62
   250
100
AcDbSpline
210
0.0
220
0.0
230
1.0
 70
    24
 71
     3
 72
    12
 73
     8
 74
     0
 42
0.0000000001
 43
0.0000000001
 40
0.0
 40
0.0
 40
0.0
 40
0.0
 40
0.3333333333333333
 40
0.3333333333333333
 40
0.3333333333333333
 40
0.3333333333333333
 40
1.0
 40
1.0
 40
1.0
 40
1.0
 10
15.2262
 20
-20.7178
 30
0.0
 10
15.2262
 20
-20.7178
 30
0.0
 10
15.2262
 20
-21.0662
 30
0.0
 10
15.2262
 20
-21.0662
 30
0.0
 10
15.2262
 20
-21.0662
 30
0.0
 10
15.2262
 20
-21.0662
 30
0.0
 10
15.2262
 20
-23.8696
 30
0.0
 10
15.2262
 20
-23.8696
 30
0.0
  0
SPLINE
  5
253
330
1F
100
AcDbEntity
  8
DEFAULT_1
 62
   250
100
AcDbSpline
210
0.0
220
0.0
230
1.0
 70
     8
 71
     3
 72
     8
 73
     4
 74
     0
 42
0.0000000001
 43
0.0000000001
 40
0.0
 40
0.0
 40
0.0
 40
0.0
 40
1.0
 40
1.0
 40
1.0
 40
1.0
 10
15.2262
 20
-23.8696
 30
0.0
 10
15.2262
 20
-24.0179
 30
0.0
 10
15.3058
 20
-24.3769
 30
0.0
 10
15.0521
 20
-24.3922
 30
0.0
  0
SPLINE
  5
254
330
1F
100
AcDbEntity
  8
DEFAULT_1
 62
   250
100
AcDbSpline
210
0.0
220
0.0
230
1.0
 70
    24
 71
     3
 72
     8
 73
     4
 74
     0
 42
0.0000000001
 43
0.0000000001
 40
0.0
 40
0.0
 40
0.0
 40
0.0
 40
1.0
 40
1.0
 40
1.0
 40
1.0
 10
15.0521
 20
-24.3922
 30
0.0
 10
15.0521
 20
-24.3922
 30
0.0
 10
11.5518
 20
-24.3922
 30
0.0
 10
11.5518
 20
-24.3922
 30
0.0
  0
SPLINE
  5
255
330
1F
100
AcDbEntity
  8
DEFAULT_1
 62
   250
100
AcDbSpline
210
0.0
220
0.0
230
1.0
 70
    24
 71
     3
 72
    16
 73
    12
 74
     0
 42
0.0000000001
 43
0.0000000001
 40
0.0
 40
0.0
 40
0.0
 40
0.0
 40
0.25
 40
0.25
 40
0.25
 40
0.25
 40
0.5
 40
0.5
 40
0.5
 40
0.5
 40
1.0
 40
1.0
 40
1.0
 40
1.0
 10
-6.0109
 20
-24.3922
 30
0.0
 10
-6.0109
 20
-24.3922
 30
0.0
 10
-6.3592
 20
-24.3922
 30
0.0
 10
-6.3592
 20
-24.3922
 30
0.0
 10
-6.3592
 20
-24.3922
 30
0.0
 10
-6.3592
 20
-24.3922
 30
0.0
 10
-9.1627
 20
-24.3922
 30
0.0
 10
-9.1627
 20
-24.3922
 30
0.0
 10
-9.1627
 20
-24.3922
 30
0.0
 10
-9.1627
 20
-24.3922
 30
0.0
 10
-9.5111
 20
-24.3922
 30
0.0
 10
-9.5111
 20
-24.3922
 30
0.0
  0
SPLINE
  5
256
330
1F
100
AcDbEntity
  8
DEFAULT_1
 62
   250
100
AcDbSpline
210
0.0
220
0.0
230
1.0
 70
     8
 71
     3
 72
     8
 73
     4
 74
     0
 42
0.0000000001
 43
0.0000000001
 40
0.0
 40
0.0
 40
0.0
 40
0.0
 40
1.0
 40
1.0
 40
1.0
 40
1.0
 10
-9.5111
 20
-24.3922
 30
0.0
 10
-9.7649
 20
-24.3914
 30
0.0
 10
-9.6853
 20
-23.9906
 30
0.0
 10
-9.6853
 20
-23.8696
 30
0.0
  0
SPLINE
  5
257
330
1F
100
AcDbEntity
  8
DEFAULT_1
 62
   250
100
AcDbSpline
210
0.0
220
0.0
230
1.0
 70
    24
 71
     3
 72
    12
 73
     8
 74
     0
 42
0.0000000001
 43
0.0000000001
 40
0.0
 40
0.0
 40
0.0
 40
0.0
 40
0.3333333333333333
 40
0.3333333333333333
 40
0.3333333333333333
 40
0.3333333333333333
 40
1.0
 40
1.0
 40
1.0
 40
1.0
 10
-9.6853
 20
-23.8696
 30
0.0
 10
-9.6853
 20
-23.8696
 30
0.0
 10
-9.6853
 20
-21.0662
 30
0.0
 10
-9.6853
 20
-21.0662
 30
0.0
 10
-9.6853
 20
-21.0662
 30
0.0
 10
-9.6853
 20
-21.0662
 30
0.0
 10
-9.6853
 20
-20.7178
 30
0.0
 10
-9.6853
 20
-20.7178
 30
0.0
  0
SPLINE
  5
258
330
1F
100
AcDbEntity
  8
DEFAULT_1
 62
   250
100
AcDbSpline
210
0.0
220
0.0
230
1.0
 70
    24
 71
     3
 72
    16
 73
    12
 74
     0
 42
0.0000000001
 43
0.0000000001
 40
0.0
 40
0.0
 40
0.0
 40
0.0
 40
0.25
 40
0.25
 40
0.25
 40
0.25
 40
0.5
 40
0.5
 40
0.5
 40
0.5
 40
1.0
 40
1.0
 40
1.0
 40
1.0
 10
-9.6853
 20
-3.1551
 30
0.0
 10
-9.6853
 20
-3.1551
 30
0.0
 10
-9.6853
 20
-2.8068
 30
0.0
 10
-9.6853
 20
-2.8068
 30
0.0
 10
-9.6853
 20
-2.8068
 30
0.0
 10
-9.6853
 20
-2.8068
 30
0.0
 10
-9.6853
 20
-0.0034
 30
0.0
 10
-9.6853
 20
-0.0034
 30
0.0
 10
-9.6853
 20
-0.0034
 30
0.0
 10
-9.6853
 20
-0.0034
 30
0.0
 10
-9.6853
 20
0.345
 30
0.0
 10
-9.6853
 20
0.345
 30
0.0
  0
SPLINE
  5
259
330
1F
100
AcDbEntity
  8
DEFAULT_1
 62
   250
100
AcDbSpline
210
0.0
220
0.0
230
1.0
 70
     8
 71
     3
 72
     8
 73
     4
 74
     0
 42
0.0000000001
 43
0.0000000001
 40
0.0
 40
0.0
 40
0.0
 40
0.0
 40
1.0
 40
1.0
 40
1.0
 40
1.0
 10
-9.6853
 20
0.345
 30
0.0
 10
-9.6844
 20
0.5989
 30
0.0
 10
-9.2837
 20
0.5191
 30
0.0
 10
-9.1627
 20
0.5191
 30
0.0
  0
SPLINE
  5
25A
330
1F
100
AcDbEntity
  8
DEFAULT_1
 62
   250
100
AcDbSpline
210
0.0
220
0.0
230
1.0
 70
    24
 71
     3
 72
    12
 73
     8
 74
     0
 42
0.0000000001
 43
0.0000000001
 40
0.0
 40
0.0
 40
0.0
 40
0.0
 40
0.3333333333333333
 40
0.3333333333333333
 40
0.3333333333333333
 40
0.3333333333333333
 40
1.0
 40
1.0
 40
1.0
 40
1.0
 10
-9.1627
 20
0.5191
 30
0.0
 10
-9.1627
 20
0.5191
 30
0.0
 10
-6.3592
 20
0.5191
 30
0.0
 10
-6.3592
 20
0.5191
 30
0.0
 10
-6.3592
 20
0.5191
 30
0.0
 10
-6.3592
 20
0.5191
 30
0.0
 10
-6.0109
 20
0.5191
 30
0.0
 10
-6.0109
 20
0.5191
 30
0.0
  0
SPLINE
  5
25B
330
1F
100
AcDbEntity
  8
DEFAULT_1
 62
   250
100
AcDbSpline
210
0.0
220
0.0
230
1.0
 70
    24
 71
     3
 72
    16
 73
    12
 74
     0
 42
0.0000000001
 43
0.0000000001
 40
0.0
 40
0.0
 40
0.0
 40
0.0
 40
0.25
 40
0.25
 40
0.25
 40
0.25
 40
0.5
 40
0.5
 40
0.5
 40
0.5
 40
1.0
 40
1.0
 40
1.0
 40
1.0
 10
15.2262
 20
-3.1551
 30
0.0
 10
15.2262
 20
-3.1551
 30
0.0
 10
15.2262
 20
-2.8068
 30
0.0
 10
15.2262
 20
-2.8068
 30
0.0
 10
15.2262
 20
-2.8068
 30
0.0
 10
15.2262
 20
-2.8068
 30
0.0
 10
15.2262
 20
-0.0034
 30
0.0
 10
15.2262
 20
-0.0034
 30
0.0
 10
15.2262
 20
-0.0034
 30
0.0
 10
15.2262
 20
-0.0034
 30
0.0
 10
15.2262
 20
0.345
 30
0.0
 10
15.2262
 20
0.345
 30
0.0
  0
SPLINE
  5
25C
330
1F
100
AcDbEntity
  8
DEFAULT_1
 62
   250
100
AcDbSpline
210
0.0
220
0.0
230
1.0
 70
     8
 71
     3
 72
     8
 73
     4
 74
     0
 42
0.0000000001
 43
0.0000000001
 40
0.0
 40
0.0
 40
0.0
 40
0.0
 40
1.0
 40
1.0
 40
1.0
 40
1.0
 10
15.2262
 20
0.345
 30
0.0
 10
15.2254
 20
0.5989
 30
0.0
 10
14.8246
 20
0.5191
 30
0.0
 10
14.7036
 20
0.5191
 30
0.0
  0
SPLINE
  5
25D
330
1F
100
AcDbEntity
  8
DEFAULT_1
 62
   250
100
AcDbSpline
210
0.0
220
0.0
230
1.0
 70
    24
 71
     3
 72
     8
 73
     4
 74
     0
 42
0.0000000001
 43
0.0000000001
 40
0.0
 40
0.0
 40
0.0
 40
0.0
 40
1.0
 40
1.0
 40
1.0
 40
1.0
 10
15.7492
 20
-25.0019
 30
0.0
 10
15.7492
 20
-25.0019
 30
0.0
 10
15.6929
 20
-24.9456
 30
0.0
 10
15.6929
 20
-24.9456
 30
0.0
  0
SPLINE
  5
25E
330
1F
100
AcDbEntity
  8
DEFAULT_1
 62
   250
100
AcDbSpline
210
0.0
220
0.0
230
1.0
 70
    24
 71
     3
 72
     8
 73
     4
 74
     0
 42
0.0000000001
 43
0.0000000001
 40
0.0
 40
0.0
 40
0.0
 40
0.0
 40
1.0
 40
1.0
 40
1.0
 40
1.0
 10
15.7797
 20
-24.8586
 30
0.0
 10
15.7797
 20
-24.8586
 30
0.0
 10
15.8359
 20
-24.9149
 30
0.0
 10
15.8359
 20
-24.9149
 30
0.0
  0
SPLINE
  5
25F
330
1F
100
AcDbEntity
  8
DEFAULT_1
 62
   250
100
AcDbSpline
210
0.0
220
0.0
230
1.0
 70
    24
 71
     3
 72
     8
 73
     4
 74
     0
 42
0.0000000001
 43
0.0000000001
 40
0.0
 40
0.0
 40
0.0
 40
0.0
 40
1.0
 40
1.0
 40
1.0
 40
1.0
 10
-10.1519
 20
1.0727
 30
0.0
 10
-10.1519
 20
1.0727
 30
0.0
 10
-10.2082
 20
1.1289
 30
0.0
 10
-10.2082
 20
1.1289
 30
0.0
  0
SPLINE
  5
260
330
1F
100
AcDbEntity
  8
DEFAULT_1
 62
   250
100
AcDbSpline
210
0.0
220
0.0
230
1.0
 70
    24
 71
     3
 72
     8
 73
     4
 74
     0
 42
0.0000000001
 43
0.0000000001
 40
0.0
 40
0.0
 40
0.0
 40
0.0
 40
1.0
 40
1.0
 40
1.0
 40
1.0
 10
-10.2387
 20
0.9856
 30
0.0
 10
-10.2387
 20
0.9856
 30
0.0
 10
-10.295
 20
1.0418
 30
0.0
 10
-10.295
 20
1.0418
 30
0.0
  0
SPLINE
  5
261
330
1F
100
AcDbEntity
  8
DEFAULT_1
 62
   250
100
AcDbSpline
210
0.0
220
0.0
230
1.0
 70
    24
 71
     3
 72
     8
 73
     4
 74
     0
 42
0.0000000001
 43
0.0000000001
 40
0.0
 40
0.0
 40
0.0
 40
0.0
 40
1.0
 40
1.0
 40
1.0
 40
1.0
 10
15.8359
 20
1.0422
 30
0.0
 10
15.8359
 20
1.0422
 30
0.0
 10
15.7797
 20
0.9858
 30
0.0
 10
15.7797
 20
0.9858
 30
0.0
  0
SPLINE
  5
262
330
1F
100
AcDbEntity
  8
DEFAULT_1
 62
   250
100
AcDbSpline
210
0.0
220
0.0
230
1.0
 70
    24
 71
     3
 72
     8
 73
     4
 74
     0
 42
0.0000000001
 43
0.0000000001
 40
0.0
 40
0.0
 40
0.0
 40
0.0
 40
1.0
 40
1.0
 40
1.0
 40
1.0
 10
15.6925
 20
1.0727
 30
0.0
 10
15.6925
 20
1.0727
 30
0.0
 10
15.7488
 20
1.1289
 30
0.0
 10
15.7488
 20
1.1289
 30
0.0
  0
SPLINE
  5
263
330
1F
100
AcDbEntity
  8
DEFAULT_1
 62
   250
100
AcDbSpline
210
0.0
220
0.0
230
1.0
 70
     8
 71
     3
 72
     8
 73
     4
 74
     0
 42
0.0000000001
 43
0.0000000001
 40
0.0
 40
0.0
 40
0.0
 40
0.0
 40
1.0
 40
1.0
 40
1.0
 40
1.0
 10
15.7258
 20
1.066
 30
0.0
 10
15.7146
 20
1.07
 30
0.0
 10
15.7045
 20
1.0726
 30
0.0
 10
15.6925
 20
1.0727
 30
0.0
  0
SPLINE
  5
264
330
1F
100
AcDbEntity
  8
DEFAULT_1
 62
   250
100
AcDbSpline
210
0.0
220
0.0
230
1.0
 70
    24
 71
     3
 72
    16
 73
    12
 74
     0
 42
0.0000000001
 43
0.0000000001
 40
0.0
 40
0.0
 40
0.0
 40
0.0
 40
0.25
 40
0.25
 40
0.25
 40
0.25
 40
0.5
 40
0.5
 40
0.5
 40
0.5
 40
1.0
 40
1.0
 40
1.0
 40
1.0
 10
15.6925
 20
1.0727
 30
0.0
 10
15.6925
 20
1.0727
 30
0.0
 10
15.3442
 20
1.0727
 30
0.0
 10
15.3442
 20
1.0727
 30
0.0
 10
15.3442
 20
1.0727
 30
0.0
 10
15.3442
 20
1.0727
 30
0.0
 10
-9.8036
 20
1.0727
 30
0.0
 10
-9.8036
 20
1.0727
 30
0.0
 10
-9.8036
 20
1.0727
 30
0.0
 10
-9.8036
 20
1.0727
 30
0.0
 10
-10.1519
 20
1.0727
 30
0.0
 10
-10.1519
 20
1.0727
 30
0.0
  0
SPLINE
  5
265
330
1F
100
AcDbEntity
  8
DEFAULT_1
 62
   250
100
AcDbSpline
210
0.0
220
0.0
230
1.0
 70
     8
 71
     3
 72
     8
 73
     4
 74
     0
 42
0.0000000001
 43
0.0000000001
 40
0.0
 40
0.0
 40
0.0
 40
0.0
 40
1.0
 40
1.0
 40
1.0
 40
1.0
 10
-10.1519
 20
1.0727
 30
0.0
 10
-10.1937
 20
1.0707
 30
0.0
 10
-10.2299
 20
1.0429
 30
0.0
 10
-10.2374
 20
1.0006
 30
0.0
  0
SPLINE
  5
266
330
1F
100
AcDbEntity
  8
DEFAULT_1
 62
   250
100
AcDbSpline
210
0.0
220
0.0
230
1.0
 70
     8
 71
     3
 72
    24
 73
    20
 74
     0
 42
0.0000000001
 43
0.0000000001
 40
0.0
 40
0.0
 40
0.0
 40
0.0
 40
0.1666666666666667
 40
0.1666666666666667
 40
0.1666666666666667
 40
0.1666666666666667
 40
0.3333333333333333
 40
0.3333333333333333
 40
0.3333333333333333
 40
0.3333333333333333
 40
0.5
 40
0.5
 40
0.5
 40
0.5
 40
0.6666666666666666
 40
0.6666666666666666
 40
0.6666666666666666
 40
0.6666666666666666
 40
1.0
 40
1.0
 40
1.0
 40
1.0
 10
-10.2374
 20
1.0006
 30
0.0
 10
-10.2374
 20
1.0006
 30
0.0
 10
-10.2387
 20
0.9856
 30
0.0
 10
-10.2387
 20
0.9856
 30
0.0
 10
-10.2387
 20
0.9856
 30
0.0
 10
-10.2387
 20
0.9856
 30
0.0
 10
-10.2387
 20
0.6371
 30
0.0
 10
-10.2387
 20
0.6371
 30
0.0
 10
-10.2387
 20
0.6371
 30
0.0
 10
-10.2387
 20
0.6371
 30
0.0
 10
-10.2387
 20
-24.5118
 30
0.0
 10
-10.2387
 20
-24.5118
 30
0.0
 10
-10.2387
 20
-24.5118
 30
0.0
 10
-10.2387
 20
-24.5118
 30
0.0
 10
-10.2387
 20
-24.8601
 30
0.0
 10
-10.2387
 20
-24.8601
 30
0.0
 10
-10.2387
 20
-24.8601
 30
0.0
 10
-10.2387
 20
-24.8601
 30
0.0
 10
-10.2377
 20
-24.871
 30
0.0
 10
-10.2377
 20
-24.871
 30
0.0
  0
SPLINE
  5
267
330
1F
100
AcDbEntity
  8
DEFAULT_1
 62
   250
100
AcDbSpline
210
0.0
220
0.0
230
1.0
 70
     8
 71
     3
 72
     8
 73
     4
 74
     0
 42
0.0000000001
 43
0.0000000001
 40
0.0
 40
0.0
 40
0.0
 40
0.0
 40
1.0
 40
1.0
 40
1.0
 40
1.0
 10
-10.2377
 20
-24.871
 30
0.0
 10
-10.2318
 20
-24.9133
 30
0.0
 10
-10.1943
 20
-24.9456
 30
0.0
 10
-10.1516
 20
-24.9456
 30
0.0
  0
SPLINE
  5
268
330
1F
100
AcDbEntity
  8
DEFAULT_1
 62
   250
100
AcDbSpline
210
0.0
220
0.0
230
1.0
 70
    24
 71
     3
 72
    16
 73
    12
 74
     0
 42
0.0000000001
 43
0.0000000001
 40
0.0
 40
0.0
 40
0.0
 40
0.0
 40
0.25
 40
0.25
 40
0.25
 40
0.25
 40
0.5
 40
0.5
 40
0.5
 40
0.5
 40
1.0
 40
1.0
 40
1.0
 40
1.0
 10
-10.1516
 20
-24.9456
 30
0.0
 10
-10.1516
 20
-24.9456
 30
0.0
 10
-9.8032
 20
-24.9456
 30
0.0
 10
-9.8032
 20
-24.9456
 30
0.0
 10
-9.8032
 20
-24.9456
 30
0.0
 10
-9.8032
 20
-24.9456
 30
0.0
 10
15.3442
 20
-24.9456
 30
0.0
 10
15.3442
 20
-24.9456
 30
0.0
 10
15.3442
 20
-24.9456
 30
0.0
 10
15.3442
 20
-24.9456
 30
0.0
 10
15.6925
 20
-24.9456
 30
0.0
 10
15.6925
 20
-24.9456
 30
0.0
  0
SPLINE
  5
269
330
1F
100
AcDbEntity
  8
DEFAULT_1
 62
   250
100
AcDbSpline
210
0.0
220
0.0
230
1.0
 70
     8
 71
     3
 72
    12
 73
     8
 74
     0
 42
0.0000000001
 43
0.0000000001
 40
0.0
 40
0.0
 40
0.0
 40
0.0
 40
0.3333333333333333
 40
0.3333333333333333
 40
0.3333333333333333
 40
0.3333333333333333
 40
1.0
 40
1.0
 40
1.0
 40
1.0
 10
15.6925
 20
-24.9456
 30
0.0
 10
15.7131
 20
-24.9456
 30
0.0
 10
15.7342
 20
-24.9381
 30
0.0
 10
15.7497
 20
-24.9244
 30
0.0
 10
15.7497
 20
-24.9244
 30
0.0
 10
15.7685
 20
-24.9075
 30
0.0
 10
15.7795
 20
-24.8839
 30
0.0
 10
15.7797
 20
-24.8586
 30
0.0
  0
SPLINE
  5
26A
330
1F
100
AcDbEntity
  8
DEFAULT_1
 62
   250
100
AcDbSpline
210
0.0
220
0.0
230
1.0
 70
     8
 71
     3
 72
    20
 73
    16
 74
     0
 42
0.0000000001
 43
0.0000000001
 40
0.0
 40
0.0
 40
0.0
 40
0.0
 40
0.2
 40
0.2
 40
0.2
 40
0.2
 40
0.4
 40
0.4
 40
0.4
 40
0.4
 40
0.6
 40
0.6
 40
0.6
 40
0.6
 40
1.0
 40
1.0
 40
1.0
 40
1.0
 10
15.7797
 20
-24.8586
 30
0.0
 10
15.7797
 20
-24.8586
 30
0.0
 10
15.7797
 20
-24.5102
 30
0.0
 10
15.7797
 20
-24.5102
 30
0.0
 10
15.7797
 20
-24.5102
 30
0.0
 10
15.7797
 20
-24.5102
 30
0.0
 10
15.7797
 20
0.6371
 30
0.0
 10
15.7797
 20
0.6371
 30
0.0
 10
15.7797
 20
0.6371
 30
0.0
 10
15.7797
 20
0.6371
 30
0.0
 10
15.7797
 20
0.9856
 30
0.0
 10
15.7797
 20
0.9856
 30
0.0
 10
15.7797
 20
0.9856
 30
0.0
 10
15.7797
 20
0.9856
 30
0.0
 10
15.7788
 20
0.9977
 30
0.0
 10
15.7788
 20
0.9977
 30
0.0
  0
SPLINE
  5
26B
330
1F
100
AcDbEntity
  8
DEFAULT_1
 62
   250
100
AcDbSpline
210
0.0
220
0.0
230
1.0
 70
     8
 71
     3
 72
     8
 73
     4
 74
     0
 42
0.0000000001
 43
0.0000000001
 40
0.0
 40
0.0
 40
0.0
 40
0.0
 40
1.0
 40
1.0
 40
1.0
 40
1.0
 10
15.7788
 20
0.9977
 30
0.0
 10
15.7747
 20
1.0283
 30
0.0
 10
15.7537
 20
1.054
 30
0.0
 10
15.7258
 20
1.066
 30
0.0
  0
SPLINE
  5
26C
330
1F
100
AcDbEntity
  8
DEFAULT_1
 62
   250
100
AcDbSpline
210
0.0
220
0.0
230
1.0
 70
     8
 71
     3
 72
     8
 73
     4
 74
     0
 42
0.0000000001
 43
0.0000000001
 40
0.0
 40
0.0
 40
0.0
 40
0.0
 40
1.0
 40
1.0
 40
1.0
 40
1.0
 10
15.413
 20
-24.4252
 30
0.0
 10
15.399
 20
-24.5087
 30
0.0
 10
15.3423
 20
-24.5651
 30
0.0
 10
15.2592
 20
-24.5791
 30
0.0
  0
SPLINE
  5
26D
330
1F
100
AcDbEntity
  8
DEFAULT_1
 62
   250
100
AcDbSpline
210
0.0
220
0.0
230
1.0
 70
    24
 71
     3
 72
    16
 73
    12
 74
     0
 42
0.0000000001
 43
0.0000000001
 40
0.0
 40
0.0
 40
0.0
 40
0.0
 40
0.25
 40
0.25
 40
0.25
 40
0.25
 40
0.5
 40
0.5
 40
0.5
 40
0.5
 40
1.0
 40
1.0
 40
1.0
 40
1.0
 10
15.2592
 20
-24.5791
 30
0.0
 10
15.2592
 20
-24.5791
 30
0.0
 10
14.9108
 20
-24.5791
 30
0.0
 10
14.9108
 20
-24.5791
 30
0.0
 10
14.9108
 20
-24.5791
 30
0.0
 10
14.9108
 20
-24.5791
 30
0.0
 10
-9.3698
 20
-24.5791
 30
0.0
 10
-9.3698
 20
-24.5791
 30
0.0
 10
-9.3698
 20
-24.5791
 30
0.0
 10
-9.3698
 20
-24.5791
 30
0.0
 10
-9.7182
 20
-24.5791
 30
0.0
 10
-9.7182
 20
-24.5791
 30
0.0
  0
SPLINE
  5
26E
330
1F
100
AcDbEntity
  8
DEFAULT_1
 62
   250
100
AcDbSpline
210
0.0
220
0.0
230
1.0
 70
     8
 71
     3
 72
     8
 73
     4
 74
     0
 42
0.0000000001
 43
0.0000000001
 40
0.0
 40
0.0
 40
0.0
 40
0.0
 40
1.0
 40
1.0
 40
1.0
 40
1.0
 10
-9.7182
 20
-24.5791
 30
0.0
 10
-9.948
 20
-24.5771
 30
0.0
 10
-9.8721
 20
-24.1494
 30
0.0
 10
-9.8721
 20
-24.0768
 30
0.0
  0
SPLINE
  5
26F
330
1F
100
AcDbEntity
  8
DEFAULT_1
 62
   250
100
AcDbSpline
210
0.0
220
0.0
230
1.0
 70
    24
 71
     3
 72
    12
 73
     8
 74
     0
 42
0.0000000001
 43
0.0000000001
 40
0.0
 40
0.0
 40
0.0
 40
0.0
 40
0.3333333333333333
 40
0.3333333333333333
 40
0.3333333333333333
 40
0.3333333333333333
 40
1.0
 40
1.0
 40
1.0
 40
1.0
 10
-9.8721
 20
-24.0768
 30
0.0
 10
-9.8721
 20
-24.0768
 30
0.0
 10
-9.8721
 20
0.2038
 30
0.0
 10
-9.8721
 20
0.2038
 30
0.0
 10
-9.8721
 20
0.2038
 30
0.0
 10
-9.8721
 20
0.2038
 30
0.0
 10
-9.8721
 20
0.5521
 30
0.0
 10
-9.8721
 20
0.5521
 30
0.0
  0
SPLINE
  5
270
330
1F
100
AcDbEntity
  8
DEFAULT_1
 62
   250
100
AcDbSpline
210
0.0
220
0.0
230
1.0
 70
     8
 71
     3
 72
    12
 73
     8
 74
     0
 42
0.0000000001
 43
0.0000000001
 40
0.0
 40
0.0
 40
0.0
 40
0.0
 40
0.3333333333333333
 40
0.3333333333333333
 40
0.3333333333333333
 40
0.3333333333333333
 40
1.0
 40
1.0
 40
1.0
 40
1.0
 10
-9.8721
 20
0.5521
 30
0.0
 10
-9.8719
 20
0.5706
 30
0.0
 10
-9.8638
 20
0.592
 30
0.0
 10
-9.856
 20
0.6083
 30
0.0
 10
-9.856
 20
0.6083
 30
0.0
 10
-9.7753
 20
0.7764
 30
0.0
 10
-9.4845
 20
0.706
 30
0.0
 10
-9.3699
 20
0.706
 30
0.0
  0
SPLINE
  5
271
330
1F
100
AcDbEntity
  8
DEFAULT_1
 62
   250
100
AcDbSpline
210
0.0
220
0.0
230
1.0
 70
    24
 71
     3
 72
     8
 73
     4
 74
     0
 42
0.0000000001
 43
0.0000000001
 40
0.0
 40
0.0
 40
0.0
 40
0.0
 40
1.0
 40
1.0
 40
1.0
 40
1.0
 10
-9.3699
 20
0.706
 30
0.0
 10
-9.3699
 20
0.706
 30
0.0
 10
14.9107
 20
0.706
 30
0.0
 10
14.9107
 20
0.706
 30
0.0
  0
SPLINE
  5
272
330
1F
100
AcDbEntity
  8
DEFAULT_1
 62
   250
100
AcDbSpline
210
0.0
220
0.0
230
1.0
 70
     8
 71
     3
 72
    12
 73
     8
 74
     0
 42
0.0000000001
 43
0.0000000001
 40
0.0
 40
0.0
 40
0.0
 40
0.0
 40
0.3333333333333333
 40
0.3333333333333333
 40
0.3333333333333333
 40
0.3333333333333333
 40
1.0
 40
1.0
 40
1.0
 40
1.0
 10
14.9107
 20
0.706
 30
0.0
 10
14.9924
 20
0.706
 30
0.0
 10
15.2576
 20
0.7615
 30
0.0
 10
15.3631
 20
0.6561
 30
0.0
 10
15.3631
 20
0.6561
 30
0.0
 10
15.4695
 20
0.5499
 30
0.0
 10
15.413
 20
0.2872
 30
0.0
 10
15.413
 20
0.2038
 30
0.0
  0
SPLINE
  5
273
330
1F
100
AcDbEntity
  8
DEFAULT_1
 62
   250
100
AcDbSpline
210
0.0
220
0.0
230
1.0
 70
    24
 71
     3
 72
    12
 73
     8
 74
     0
 42
0.0000000001
 43
0.0000000001
 40
0.0
 40
0.0
 40
0.0
 40
0.0
 40
0.3333333333333333
 40
0.3333333333333333
 40
0.3333333333333333
 40
0.3333333333333333
 40
1.0
 40
1.0
 40
1.0
 40
1.0
 10
15.413
 20
0.2038
 30
0.0
 10
15.413
 20
0.2038
 30
0.0
 10
15.413
 20
-24.0767
 30
0.0
 10
15.413
 20
-24.0767
 30
0.0
 10
15.413
 20
-24.0767
 30
0.0
 10
15.413
 20
-24.0767
 30
0.0
 10
15.413
 20
-24.4252
 30
0.0
 10
15.413
 20
-24.4252
 30
0.0
  0
SPLINE
  5
274
330
1F
100
AcDbEntity
  8
DEFAULT_1
 62
   250
100
AcDbSpline
210
0.0
220
0.0
230
1.0
 70
     8
 71
     3
 72
    20
 73
    16
 74
     0
 42
0.0000000001
 43
0.0000000001
 40
0.0
 40
0.0
 40
0.0
 40
0.0
 40
0.2
 40
0.2
 40
0.2
 40
0.2
 40
0.4
 40
0.4
 40
0.4
 40
0.4
 40
0.6
 40
0.6
 40
0.6
 40
0.6
 40
1.0
 40
1.0
 40
1.0
 40
1.0
 10
-10.295
 20
-24.9152
 30
0.0
 10
-10.295
 20
-24.9152
 30
0.0
 10
-10.2387
 20
-24.8586
 30
0.0
 10
-10.2387
 20
-24.8586
 30
0.0
 10
-10.2387
 20
-24.8586
 30
0.0
 10
-10.2387
 20
-24.8586
 30
0.0
 10
-9.8903
 20
-24.8586
 30
0.0
 10
-9.8903
 20
-24.8586
 30
0.0
 10
-9.8903
 20
-24.8586
 30
0.0
 10
-9.8903
 20
-24.8586
 30
0.0
 10
15.4312
 20
-24.8586
 30
0.0
 10
15.4312
 20
-24.8586
 30
0.0
 10
15.4312
 20
-24.8586
 30
0.0
 10
15.4312
 20
-24.8586
 30
0.0
 10
15.7797
 20
-24.8586
 30
0.0
 10
15.7797
 20
-24.8586
 30
0.0
  0
SPLINE
  5
275
330
1F
100
AcDbEntity
  8
DEFAULT_1
 62
   250
100
AcDbSpline
210
0.0
220
0.0
230
1.0
 70
     8
 71
     3
 72
     8
 73
     4
 74
     0
 42
0.0000000001
 43
0.0000000001
 40
0.0
 40
0.0
 40
0.0
 40
0.0
 40
1.0
 40
1.0
 40
1.0
 40
1.0
 10
-10.1515
 20
1.0688
 30
0.0
 10
-10.1547
 20
0.9327
 30
0.0
 10
-10.1516
 20
0.7907
 30
0.0
 10
-10.1516
 20
0.6586
 30
0.0
  0
SPLINE
  5
276
330
1F
100
AcDbEntity
  8
DEFAULT_1
 62
   250
100
AcDbSpline
210
0.0
220
0.0
230
1.0
 70
     8
 71
     3
 72
    16
 73
    12
 74
     0
 42
0.0000000001
 43
0.0000000001
 40
0.0
 40
0.0
 40
0.0
 40
0.0
 40
0.25
 40
0.25
 40
0.25
 40
0.25
 40
0.5
 40
0.5
 40
0.5
 40
0.5
 40
1.0
 40
1.0
 40
1.0
 40
1.0
 10
-10.1516
 20
0.6586
 30
0.0
 10
-10.1516
 20
0.6586
 30
0.0
 10
-10.1516
 20
-24.5973
 30
0.0
 10
-10.1516
 20
-24.5973
 30
0.0
 10
-10.1516
 20
-24.5973
 30
0.0
 10
-10.1516
 20
-24.5973
 30
0.0
 10
-10.1516
 20
-24.9456
 30
0.0
 10
-10.1516
 20
-24.9456
 30
0.0
 10
-10.1516
 20
-24.9456
 30
0.0
 10
-10.1516
 20
-24.9456
 30
0.0
 10
-10.2079
 20
-25.0019
 30
0.0
 10
-10.2079
 20
-25.0019
 30
0.0
  0
SPLINE
  5
277
330
1F
100
AcDbEntity
  8
DEFAULT_1
 62
   250
100
AcDbSpline
210
0.0
220
0.0
230
1.0
 70
    24
 71
     3
 72
     8
 73
     4
 74
     0
 42
0.0000000001
 43
0.0000000001
 40
0.0
 40
0.0
 40
0.0
 40
0.0
 40
1.0
 40
1.0
 40
1.0
 40
1.0
 10
15.2591
 20
0.706
 30
0.0
 10
15.2591
 20
0.706
 30
0.0
 10
15.2399
 20
0.7071
 30
0.0
 10
15.2399
 20
0.7071
 30
0.0
  0
SPLINE
  5
278
330
1F
100
AcDbEntity
  8
DEFAULT_1
 62
   250
100
AcDbSpline
210
0.0
220
0.0
230
1.0
 70
     8
 71
     3
 72
     8
 73
     4
 74
     0
 42
0.0000000001
 43
0.0000000001
 40
0.0
 40
0.0
 40
0.0
 40
0.0
 40
1.0
 40
1.0
 40
1.0
 40
1.0
 10
15.7488
 20
1.1289
 30
0.0
 10
15.922
 20
1.1169
 30
0.0
 10
15.8359
 20
0.7058
 30
0.0
 10
15.8359
 20
0.6934
 30
0.0
  0
SPLINE
  5
279
330
1F
100
AcDbEntity
  8
DEFAULT_1
 62
   250
100
AcDbSpline
210
0.0
220
0.0
230
1.0
 70
    24
 71
     3
 72
     8
 73
     4
 74
     0
 42
0.0000000001
 43
0.0000000001
 40
0.0
 40
0.0
 40
0.0
 40
0.0
 40
1.0
 40
1.0
 40
1.0
 40
1.0
 10
15.8359
 20
0.6934
 30
0.0
 10
15.8359
 20
0.6934
 30
0.0
 10
15.8359
 20
-24.5665
 30
0.0
 10
15.8359
 20
-24.5665
 30
0.0
  0
SPLINE
  5
27A
330
1F
100
AcDbEntity
  8
DEFAULT_1
 62
   250
100
AcDbSpline
210
0.0
220
0.0
230
1.0
 70
     8
 71
     3
 72
     8
 73
     4
 74
     0
 42
0.0000000001
 43
0.0000000001
 40
0.0
 40
0.0
 40
0.0
 40
0.0
 40
1.0
 40
1.0
 40
1.0
 40
1.0
 10
15.8359
 20
-24.5665
 30
0.0
 10
15.8359
 20
-24.5803
 30
0.0
 10
15.922
 20
-24.9895
 30
0.0
 10
15.7488
 20
-25.0019
 30
0.0
  0
SPLINE
  5
27B
330
1F
100
AcDbEntity
  8
DEFAULT_1
 62
   250
100
AcDbSpline
210
0.0
220
0.0
230
1.0
 70
     8
 71
     3
 72
    20
 73
    16
 74
     0
 42
0.0000000001
 43
0.0000000001
 40
0.0
 40
0.0
 40
0.0
 40
0.0
 40
0.2
 40
0.2
 40
0.2
 40
0.2
 40
0.4
 40
0.4
 40
0.4
 40
0.4
 40
0.6
 40
0.6
 40
0.6
 40
0.6
 40
1.0
 40
1.0
 40
1.0
 40
1.0
 10
15.7488
 20
-25.0019
 30
0.0
 10
15.7488
 20
-25.0019
 30
0.0
 10
15.4005
 20
-25.0019
 30
0.0
 10
15.4005
 20
-25.0019
 30
0.0
 10
15.4005
 20
-25.0019
 30
0.0
 10
15.4005
 20
-25.0019
 30
0.0
 10
-9.8595
 20
-25.0019
 30
0.0
 10
-9.8595
 20
-25.0019
 30
0.0
 10
-9.8595
 20
-25.0019
 30
0.0
 10
-9.8595
 20
-25.0019
 30
0.0
 10
-10.2079
 20
-25.0019
 30
0.0
 10
-10.2079
 20
-25.0019
 30
0.0
 10
-10.2079
 20
-25.0019
 30
0.0
 10
-10.2079
 20
-25.0019
 30
0.0
 10
-10.2304
 20
-24.9991
 30
0.0
 10
-10.2304
 20
-24.9991
 30
0.0
  0
SPLINE
  5
27C
330
1F
100
AcDbEntity
  8
DEFAULT_1
 62
   250
100
AcDbSpline
210
0.0
220
0.0
230
1.0
 70
     8
 71
     3
 72
     8
 73
     4
 74
     0
 42
0.0000000001
 43
0.0000000001
 40
0.0
 40
0.0
 40
0.0
 40
0.0
 40
1.0
 40
1.0
 40
1.0
 40
1.0
 10
-10.2304
 20
-24.9991
 30
0.0
 10
-10.2685
 20
-24.9909
 30
0.0
 10
-10.2949
 20
-24.9526
 30
0.0
 10
-10.295
 20
-24.9149
 30
0.0
  0
SPLINE
  5
27D
330
1F
100
AcDbEntity
  8
DEFAULT_1
 62
   250
100
AcDbSpline
210
0.0
220
0.0
230
1.0
 70
    24
 71
     3
 72
    16
 73
    12
 74
     0
 42
0.0000000001
 43
0.0000000001
 40
0.0
 40
0.0
 40
0.0
 40
0.0
 40
0.25
 40
0.25
 40
0.25
 40
0.25
 40
0.5
 40
0.5
 40
0.5
 40
0.5
 40
1.0
 40
1.0
 40
1.0
 40
1.0
 10
-10.295
 20
-24.9149
 30
0.0
 10
-10.295
 20
-24.9149
 30
0.0
 10
-10.295
 20
-24.5665
 30
0.0
 10
-10.295
 20
-24.5665
 30
0.0
 10
-10.295
 20
-24.5665
 30
0.0
 10
-10.295
 20
-24.5665
 30
0.0
 10
-10.295
 20
0.6934
 30
0.0
 10
-10.295
 20
0.6934
 30
0.0
 10
-10.295
 20
0.6934
 30
0.0
 10
-10.295
 20
0.6934
 30
0.0
 10
-10.295
 20
1.0418
 30
0.0
 10
-10.295
 20
1.0418
 30
0.0
  0
SPLINE
  5
27E
330
1F
100
AcDbEntity
  8
DEFAULT_1
 62
   250
100
AcDbSpline
210
0.0
220
0.0
230
1.0
 70
     8
 71
     3
 72
    12
 73
     8
 74
     0
 42
0.0000000001
 43
0.0000000001
 40
0.0
 40
0.0
 40
0.0
 40
0.0
 40
0.3333333333333333
 40
0.3333333333333333
 40
0.3333333333333333
 40
0.3333333333333333
 40
1.0
 40
1.0
 40
1.0
 40
1.0
 10
-10.295
 20
1.0418
 30
0.0
 10
-10.295
 20
1.0647
 30
0.0
 10
-10.2859
 20
1.087
 30
0.0
 10
-10.2697
 20
1.1033
 30
0.0
 10
-10.2697
 20
1.1033
 30
0.0
 10
-10.2533
 20
1.1197
 30
0.0
 10
-10.2309
 20
1.1289
 30
0.0
 10
-10.2079
 20
1.1289
 30
0.0
  0
SPLINE
  5
27F
330
1F
100
AcDbEntity
  8
DEFAULT_1
 62
   250
100
AcDbSpline
210
0.0
220
0.0
230
1.0
 70
    24
 71
     3
 72
    16
 73
    12
 74
     0
 42
0.0000000001
 43
0.0000000001
 40
0.0
 40
0.0
 40
0.0
 40
0.0
 40
0.25
 40
0.25
 40
0.25
 40
0.25
 40
0.5
 40
0.5
 40
0.5
 40
0.5
 40
1.0
 40
1.0
 40
1.0
 40
1.0
 10
-10.2079
 20
1.1289
 30
0.0
 10
-10.2079
 20
1.1289
 30
0.0
 10
-9.8595
 20
1.1289
 30
0.0
 10
-9.8595
 20
1.1289
 30
0.0
 10
-9.8595
 20
1.1289
 30
0.0
 10
-9.8595
 20
1.1289
 30
0.0
 10
15.4005
 20
1.1289
 30
0.0
 10
15.4005
 20
1.1289
 30
0.0
 10
15.4005
 20
1.1289
 30
0.0
 10
15.4005
 20
1.1289
 30
0.0
 10
15.7488
 20
1.1289
 30
0.0
 10
15.7488
 20
1.1289
 30
0.0
  0
SPLINE
  5
280
330
1F
100
AcDbEntity
  8
DEFAULT_1
 62
   250
100
AcDbSpline
210
0.0
220
0.0
230
1.0
 70
    24
 71
     3
 72
     8
 73
     4
 74
     0
 42
0.0000000001
 43
0.0000000001
 40
0.0
 40
0.0
 40
0.0
 40
0.0
 40
1.0
 40
1.0
 40
1.0
 40
1.0
 10
15.413
 20
0.5521
 30
0.0
 10
15.413
 20
0.5521
 30
0.0
 10
15.414
 20
0.5329
 30
0.0
 10
15.414
 20
0.5329
 30
0.0
  0
SPLINE
  5
281
330
1F
100
AcDbEntity
  8
DEFAULT_1
 62
   250
100
AcDbSpline
210
0.0
220
0.0
230
1.0
 70
    24
 71
     3
 72
     8
 73
     4
 74
     0
 42
0.0000000001
 43
0.0000000001
 40
0.0
 40
0.0
 40
0.0
 40
0.0
 40
1.0
 40
1.0
 40
1.0
 40
1.0
 10
15.414
 20
-24.406
 30
0.0
 10
15.414
 20
-24.406
 30
0.0
 10
15.413
 20
-24.4252
 30
0.0
 10
15.413
 20
-24.4252
 30
0.0
  0
SPLINE
  5
282
330
1F
100
AcDbEntity
  8
DEFAULT_1
 62
   250
100
AcDbSpline
210
0.0
220
0.0
230
1.0
 70
    24
 71
     3
 72
     8
 73
     4
 74
     0
 42
0.0000000001
 43
0.0000000001
 40
0.0
 40
0.0
 40
0.0
 40
0.0
 40
1.0
 40
1.0
 40
1.0
 40
1.0
 10
15.2399
 20
-24.5802
 30
0.0
 10
15.2399
 20
-24.5802
 30
0.0
 10
15.2592
 20
-24.5791
 30
0.0
 10
15.2592
 20
-24.5791
 30
0.0
  0
SPLINE
  5
283
330
1F
100
AcDbEntity
  8
DEFAULT_1
 62
   250
100
AcDbSpline
210
0.0
220
0.0
230
1.0
 70
    24
 71
     3
 72
     8
 73
     4
 74
     0
 42
0.0000000001
 43
0.0000000001
 40
0.0
 40
0.0
 40
0.0
 40
0.0
 40
1.0
 40
1.0
 40
1.0
 40
1.0
 10
-9.6991
 20
-24.5802
 30
0.0
 10
-9.6991
 20
-24.5802
 30
0.0
 10
-9.7182
 20
-24.5791
 30
0.0
 10
-9.7182
 20
-24.5791
 30
0.0
  0
SPLINE
  5
284
330
1F
100
AcDbEntity
  8
DEFAULT_1
 62
   250
100
AcDbSpline
210
0.0
220
0.0
230
1.0
 70
    24
 71
     3
 72
     8
 73
     4
 74
     0
 42
0.0000000001
 43
0.0000000001
 40
0.0
 40
0.0
 40
0.0
 40
0.0
 40
1.0
 40
1.0
 40
1.0
 40
1.0
 10
-9.8732
 20
-24.406
 30
0.0
 10
-9.8732
 20
-24.406
 30
0.0
 10
-9.8721
 20
-24.4252
 30
0.0
 10
-9.8721
 20
-24.4252
 30
0.0
  0
SPLINE
  5
285
330
1F
100
AcDbEntity
  8
DEFAULT_1
 62
   250
100
AcDbSpline
210
0.0
220
0.0
230
1.0
 70
    24
 71
     3
 72
     8
 73
     4
 74
     0
 42
0.0000000001
 43
0.0000000001
 40
0.0
 40
0.0
 40
0.0
 40
0.0
 40
1.0
 40
1.0
 40
1.0
 40
1.0
 10
-9.8721
 20
0.5521
 30
0.0
 10
-9.8721
 20
0.5521
 30
0.0
 10
-9.8732
 20
0.5329
 30
0.0
 10
-9.8732
 20
0.5329
 30
0.0
  0
SPLINE
  5
286
330
1F
100
AcDbEntity
  8
DEFAULT_1
 62
   250
100
AcDbSpline
210
0.0
220
0.0
230
1.0
 70
    24
 71
     3
 72
     8
 73
     4
 74
     0
 42
0.0000000001
 43
0.0000000001
 40
0.0
 40
0.0
 40
0.0
 40
0.0
 40
1.0
 40
1.0
 40
1.0
 40
1.0
 10
-9.7183
 20
0.706
 30
0.0
 10
-9.7183
 20
0.706
 30
0.0
 10
-9.6991
 20
0.7071
 30
0.0
 10
-9.6991
 20
0.7071
 30
0.0
  0
ENDSEC
  0
SECTION
  2
OBJECTS
  0
DICTIONARY
  5
C
330
0
100
AcDbDictionary
  3
ACAD_GROUP
350
D
  3
ACAD_LAYOUT
350
1A
  3
ACAD_MATERIAL
350
3B
  3
ACAD_MLEADERSTYLE
350
2A9
  3
ACAD_MLINESTYLE
350
17
  3
ACAD_PLOTSETTINGS
350
19
  3
ACAD_VISUALSTYLE
350
2A
  3
ACDBHEADERROUNDTRIPXREC
350
287
  3
ACDBVARIABLEDICTIONARY
350
2A7
  0
DICTIONARY
  5
D
102
{ACAD_REACTORS
330
C
102
}
330
C
100
AcDbDictionary
  0
DICTIONARY
  5
1A
102
{ACAD_REACTORS
330
C
102
}
330
C
100
AcDbDictionary
  0
DICTIONARY
  5
3B
102
{ACAD_REACTORS
330
C
102
}
330
C
100
AcDbDictionary
  3
BYBLOCK
350
3D
  3
BYLAYER
350
3C
  3
GLOBAL
350
3E
  0
DICTIONARY
  5
2A9
102
{ACAD_REACTORS
330
C
102
}
330
C
100
AcDbDictionary
  0
DICTIONARY
  5
17
102
{ACAD_REACTORS
330
C
102
}
330
C
100
AcDbDictionary
  3
STANDARD
350
18
  0
DICTIONARY
  5
19
102
{ACAD_REACTORS
330
C
102
}
330
C
100
AcDbDictionary
  0
DICTIONARY
  5
2A
102
{ACAD_REACTORS
330
C
102
}
330
C
100
AcDbDictionary
  3
2DWIREFRAME
350
2F
  3
3D_HIDDEN
350
31
  3
3DWIREFRAME
350
30
  3
BASIC
350
32
  3
BRIGHTEN
350
36
  3
COLORCHANGE
350
3A
  3
CONCEPTUAL
350
34
  3
DIM
350
35
  3
FACEPATTERN
350
39
  3
FLAT
350
2B
  3
FLATWITHEDGES
350
2C
  3
GOURAUD
350
2D
  3
GOURAUDWITHEDGES
350
2E
  3
LINEPATTERN
350
38
  3
REALISTIC
350
33
  3
THICKEN
350
37
  0
DICTIONARY
  5
287
102
{ACAD_REACTORS
330
C
102
}
330
C
100
AcDbDictionary
  3
CEPSNTYPE
350
290
  3
DIMSTYLEDATA
350
2A6
  3
FINGERPRINTGUID
350
291
  3
HYPERLINKBASE
350
28A
  3
INSUNITS
350
28F
  3
LAYOUTDICT
350
28C
  3
LWETCUNION
350
28E
  3
PLOTSETDICT
350
28D
  3
PSVPSCALE
350
293
  3
PUCSBASE
350
296
  3
PUCSORGBACK
350
29C
  3
PUCSORGBOTTOM
350
298
  3
PUCSORGFRONT
350
29B
  3
PUCSORGLEFT
350
299
  3
PUCSORGRIGHT
350
29A
  3
PUCSORGTOP
350
297
  3
PUCSORTHOREF
350
294
  3
PUCSORTHOVIEW
350
295
  3
STYLESHEET
350
28B
  3
TSTACKALIGN
350
288
  3
TSTACKSIZE
350
289
  3
UCSBASE
350
29F
  3
UCSORGBACK
350
2A5
  3
UCSORGBOTTOM
350
2A1
  3
UCSORGFRONT
350
2A4
  3
UCSORGLEFT
350
2A2
  3
UCSORGRIGHT
350
2A3
  3
UCSORGTOP
350
2A0
  3
UCSORTHOREF
350
29D
  3
UCSORTHOVIEW
350
29E
  3
VERSIONGUID
350
292
  0
DICTIONARY
  5
2A7
102
{ACAD_REACTORS
330
C
102
}
330
C
100
AcDbDictionary
  3
DIMASSOC
350
2AA
  3
HIDETEXT
350
2AB
  0
MATERIAL
  5
3D
102
{ACAD_REACTORS
330
3B
102
}
102
{ACAD_XDICTIONARY
360
2AE
102
}
330
3B
100
AcDbMaterial
  1
ByBlock
  0
MATERIAL
  5
3C
102
{ACAD_REACTORS
330
3B
102
}
102
{ACAD_XDICTIONARY
360
2AC
102
}
330
3B
100
AcDbMaterial
  1
ByLayer
  0
MATERIAL
  5
3E
102
{ACAD_REACTORS
330
3B
102
}
102
{ACAD_XDICTIONARY
360
2B0
102
}
330
3B
100
AcDbMaterial
  1
Global
  0
MLINESTYLE
  5
18
102
{ACAD_REACTORS
330
17
102
}
330
17
100
AcDbMlineStyle
  2
Standard
 70
     0
  3

 62
   256
 51
90.0
 52
90.0
 71
     2
 49
0.5
 62
   256
  6
BYLAYER
 49
-0.5
 62
   256
  6
BYLAYER
  0
ACAD_PROXY_OBJECT
  5
2F
102
{ACAD_REACTORS
330
2A
102
}
330
2A
100
AcDbProxyObject
 90
      499
 91
      501
 93
      436
310
42CC9915DA5C99599C985B595049028333333333333E3BF0000000000000FB0107901411070040501600405405064090741402480A0340
1001
ACAD
1000
AcDbSavedByObjectVersion
1070
     0
  0
ACAD_PROXY_OBJECT
  5
31
102
{ACAD_REACTORS
330
2A
102
}
330
2A
100
AcDbProxyObject
 90
      499
 91
      501
 93
      500
310
424CD108121A5919195B90640502408333333333333E3BF0000000000000FB01079024090700405020000000000001110200405405064090740C02480A0340
1001
ACAD
1000
AcDbSavedByObjectVersion
1070
     0
  0
ACAD_PROXY_OBJECT
  5
30
102
{ACAD_REACTORS
330
2A
102
}
330
2A
100
AcDbProxyObject
 90
      499
 91
      501
 93
      436
310
42CCD915DA5C99599C985B595059028333333333333E3BF0000000000000FB0107901411070040501600405405064090741402480A0340
1001
ACAD
1000
AcDbSavedByObjectVersion
1070
     0
  0
ACAD_PROXY_OBJECT
  5
32
102
{ACAD_REACTORS
330
2A
102
}
330
2A
100
AcDbProxyObject
 90
      499
 91
      501
 93
      388
310
4150985CDA58D07406404333333333333E3BF0000000000000FB0107A41107004050150841D405064090741402480A0350
1001
ACAD
1000
AcDbSavedByObjectVersion
1070
     0
  0
ACAD_PROXY_OBJECT
  5
36
102
{ACAD_REACTORS
330
2A
102
}
330
2A
100
AcDbProxyObject
 90
      499
 91
      501
 93
      428
310
42109C9A59DA1D195B90C409028333333333333E3BF0000000000000FB010790141107004050150841D405064090741402480A029950
1001
ACAD
1000
AcDbSavedByObjectVersion
1070
     0
  0
ACAD_PROXY_OBJECT
  5
3A
102
{ACAD_REACTORS
330
2A
102
}
330
2A
100
AcDbProxyObject
 90
      499
 91
      501
 93
      452
310
42D0DBDB1BDC90DA185B99D95104090240C333333333333E3BF0000000000000FB0108901411070040501508421405064090741402480A0350
1001
ACAD
1000
AcDbSavedByObjectVersion
1070
     0
  0
ACAD_PROXY_OBJECT
  5
34
102
{ACAD_REACTORS
330
2A
102
}
330
2A
100
AcDbProxyObject
 90
      499
 91
      501
 93
      500
310
4290DBDB98D95C1D1D585B10940D028333333333333E3BF0000000000000FB0107902409070040501000000000000111010841D405064090740C02480A0340
1001
ACAD
1000
AcDbSavedByObjectVersion
1070
     0
  0
ACAD_PROXY_OBJECT
  5
35
102
{ACAD_REACTORS
330
2A
102
}
330
2A
100
AcDbProxyObject
 90
      499
 91
      501
 93
      412
310
40D11A5B50B409028333333333333E3BF0000000000000FB010790141107004050150841D405064090741402480A02677FFFFFD0
1001
ACAD
1000
AcDbSavedByObjectVersion
1070
     0
  0
ACAD_PROXY_OBJECT
  5
39
102
{ACAD_REACTORS
330
2A
102
}
330
2A
100
AcDbProxyObject
 90
      499
 91
      501
 93
      444
310
42D19858D95C185D1D195C9B90F409028333333333333E3BF0000000000000FB010790141107004050150841D405064090741402480A0350
1001
ACAD
1000
AcDbSavedByObjectVersion
1070
     0
  0
ACAD_PROXY_OBJECT
  5
2B
102
{ACAD_REACTORS
330
2A
102
}
330
2A
100
AcDbProxyObject
 90
      499
 91
      501
 93
      388
310
41119B185D240901404333333333333E3BF0000000000000F9010740A41107004050150841D405064090741402480A1B50
1001
ACAD
1000
AcDbSavedByObjectVersion
1070
     0
  0
ACAD_PROXY_OBJECT
  5
2C
102
{ACAD_REACTORS
330
2A
102
}
330
2A
100
AcDbProxyObject
 90
      499
 91
      501
 93
      476
310
43519B185D15DA5D1A115919D95CD0140901404333333333333E3BF0000000000000F9010740901411070040501600405405064090741402480A1B50
1001
ACAD
1000
AcDbSavedByObjectVersion
1070
     0
  0
ACAD_PROXY_OBJECT
  5
2D
102
{ACAD_REACTORS
330
2A
102
}
330
2A
100
AcDbProxyObject
 90
      499
 91
      501
 93
      412
310
41D1DBDD5C985D5910240902404333333333333E3BF0000000000000F9010740A411070040501641D405064090741402480A1B50
1001
ACAD
1000
AcDbSavedByObjectVersion
1070
     0
  0
ACAD_PROXY_OBJECT
  5
2E
102
{ACAD_REACTORS
330
2A
102
}
330
2A
100
AcDbProxyObject
 90
      499
 91
      501
 93
      500
310
4411DBDD5C985D5915DA5D1A115919D95CD0340902404333333333333E3BF0000000000000F9010740901411070040501600405405064090741402480A1B50
1001
ACAD
1000
AcDbSavedByObjectVersion
1070
     0
  0
ACAD_PROXY_OBJECT
  5
38
102
{ACAD_REACTORS
330
2A
102
}
330
2A
100
AcDbProxyObject
 90
      499
 91
      501
 93
      444
310
42D31A5B995C185D1D195C9B90E409028333333333333E3BF0000000000000FB010790141107004050750841D405064090741402483A0350
1001
ACAD
1000
AcDbSavedByObjectVersion
1070
     0
  0
ACAD_PROXY_OBJECT
  5
33
102
{ACAD_REACTORS
330
2A
102
}
330
2A
100
AcDbProxyObject
 90
      499
 91
      501
 93
      420
310
425499585B1A5CDD1A58D08409028333333333333E3BF0000000000000FB01079019070040501508421405064090741402480A1B40
1001
ACAD
1000
AcDbSavedByObjectVersion
1070
     0
  0
ACAD_PROXY_OBJECT
  5
37
102
{ACAD_REACTORS
330
2A
102
}
330
2A
100
AcDbProxyObject
 90
      499
 91
      501
 93
      412
310
41D51A1A58DAD95B90D409028333333333333E3BF0000000000000FB010790141107004050150C41D405064090741402480A0350
1001
ACAD
1000
AcDbSavedByObjectVersion
1070
     0
  0
XRECORD
  5
290
102
{ACAD_REACTORS
330
287
102
}
330
287
100
AcDbXrecord
 90
        0
  0
XRECORD
  5
2A6
102
{ACAD_REACTORS
330
287
102
}
330
287
100
AcDbXrecord
1000
DSTYLE
1002
{
1070
   340
340
11
1002
}
  0
XRECORD
  5
291
102
{ACAD_REACTORS
330
287
102
}
330
287
100
AcDbXrecord
  1
{44FCAF38-7BFA-4FC5-A25A-59E7898EB18A}
  0
XRECORD
  5
28A
102
{ACAD_REACTORS
330
287
102
}
330
287
100
AcDbXrecord
  1

  0
XRECORD
  5
28F
102
{ACAD_REACTORS
330
287
102
}
330
287
100
AcDbXrecord
 90
        4
  0
XRECORD
  5
28C
102
{ACAD_REACTORS
330
287
102
}
330
287
100
AcDbXrecord
340
1A
  0
XRECORD
  5
28E
102
{ACAD_REACTORS
330
287
102
}
330
287
100
AcDbXrecord
 90
    10781
  0
XRECORD
  5
28D
102
{ACAD_REACTORS
330
287
102
}
330
287
100
AcDbXrecord
340
19
  0
XRECORD
  5
293
102
{ACAD_REACTORS
330
287
102
}
330
287
100
AcDbXrecord
 40
0.0
  0
XRECORD
  5
296
102
{ACAD_REACTORS
330
287
102
}
330
287
100
AcDbXrecord
340
0
  0
XRECORD
  5
29C
102
{ACAD_REACTORS
330
287
102
}
330
287
100
AcDbXrecord
 10
0.0
 20
0.0
 30
0.0
  0
XRECORD
  5
298
102
{ACAD_REACTORS
330
287
102
}
330
287
100
AcDbXrecord
 10
0.0
 20
0.0
 30
0.0
  0
XRECORD
  5
29B
102
{ACAD_REACTORS
330
287
102
}
330
287
100
AcDbXrecord
 10
0.0
 20
0.0
 30
0.0
  0
XRECORD
  5
299
102
{ACAD_REACTORS
330
287
102
}
330
287
100
AcDbXrecord
 10
0.0
 20
0.0
 30
0.0
  0
XRECORD
  5
29A
102
{ACAD_REACTORS
330
287
102
}
330
287
100
AcDbXrecord
 10
0.0
 20
0.0
 30
0.0
  0
XRECORD
  5
297
102
{ACAD_REACTORS
330
287
102
}
330
287
100
AcDbXrecord
 10
0.0
 20
0.0
 30
0.0
  0
XRECORD
  5
294
102
{ACAD_REACTORS
330
287
102
}
330
287
100
AcDbXrecord
340
0
  0
XRECORD
  5
295
102
{ACAD_REACTORS
330
287
102
}
330
287
100
AcDbXrecord
 70
     0
  0
XRECORD
  5
28B
102
{ACAD_REACTORS
330
287
102
}
330
287
100
AcDbXrecord
  1

  0
XRECORD
  5
288
102
{ACAD_REACTORS
330
287
102
}
330
287
100
AcDbXrecord
 90
        1
  0
XRECORD
  5
289
102
{ACAD_REACTORS
330
287
102
}
330
287
100
AcDbXrecord
 90
       70
  0
XRECORD
  5
29F
102
{ACAD_REACTORS
330
287
102
}
330
287
100
AcDbXrecord
340
0
  0
XRECORD
  5
2A5
102
{ACAD_REACTORS
330
287
102
}
330
287
100
AcDbXrecord
 10
0.0
 20
0.0
 30
0.0
  0
XRECORD
  5
2A1
102
{ACAD_REACTORS
330
287
102
}
330
287
100
AcDbXrecord
 10
0.0
 20
0.0
 30
0.0
  0
XRECORD
  5
2A4
102
{ACAD_REACTORS
330
287
102
}
330
287
100
AcDbXrecord
 10
0.0
 20
0.0
 30
0.0
  0
XRECORD
  5
2A2
102
{ACAD_REACTORS
330
287
102
}
330
287
100
AcDbXrecord
 10
0.0
 20
0.0
 30
0.0
  0
XRECORD
  5
2A3
102
{ACAD_REACTORS
330
287
102
}
330
287
100
AcDbXrecord
 10
0.0
 20
0.0
 30
0.0
  0
XRECORD
  5
2A0
102
{ACAD_REACTORS
330
287
102
}
330
287
100
AcDbXrecord
 10
0.0
 20
0.0
 30
0.0
  0
XRECORD
  5
29D
102
{ACAD_REACTORS
330
287
102
}
330
287
100
AcDbXrecord
340
0
  0
XRECORD
  5
29E
102
{ACAD_REACTORS
330
287
102
}
330
287
100
AcDbXrecord
 70
     0
  0
XRECORD
  5
292
102
{ACAD_REACTORS
330
287
102
}
330
287
100
AcDbXrecord
  1
{FAEB1C32-E019-11D5-929B-00C0DF256EC4}
  0
DICTIONARYVAR
  5
2AA
102
{ACAD_REACTORS
330
2A7
102
}
330
2A7
100
DictionaryVariables
280
     0
  1
2
  0
DICTIONARYVAR
  5
2AB
102
{ACAD_REACTORS
330
2A7
102
}
330
2A7
100
DictionaryVariables
280
     0
  1
1
  0
DICTIONARY
  5
2AE
330
3D
100
AcDbDictionary
280
     1
  3
ACAD_XREC_ROUNDTRIP
360
2AF
  0
DICTIONARY
  5
2AC
330
3C
100
AcDbDictionary
280
     1
  3
ACAD_XREC_ROUNDTRIP
360
2AD
  0
DICTIONARY
  5
2B0
330
3E
100
AcDbDictionary
280
     1
  3
ACAD_XREC_ROUNDTRIP
360
2B1
  0
XRECORD
  5
2AF
102
{ACAD_REACTORS
330
2AE
102
}
330
2AE
100
AcDbXrecord
102
MATERIAL
148
0.0
149
0.0
149
0.0
 93
        0
 94
      127
282
     0
 72
     1
 77
     1
171
     1
175
     1
179
     1
273
     0
  0
XRECORD
  5
2AD
102
{ACAD_REACTORS
330
2AC
102
}
330
2AC
100
AcDbXrecord
102
MATERIAL
148
0.0
149
0.0
149
0.0
 93
        0
 94
      127
282
     0
 72
     1
 77
     1
171
     1
175
     1
179
     1
273
     0
  0
XRECORD
  5
2B1
102
{ACAD_REACTORS
330
2B0
102
}
330
2B0
100
AcDbXrecord
102
MATERIAL
148
0.0
149
0.0
149
0.0
 93
        0
 94
      127
282
     0
 72
     1
 77
     1
171
     1
175
     1
179
     1
273
     0
  0
ENDSEC
  0
EOF
