  0
SECTION
  2
HEADER
  9
$ACADVER
  1
AC1014
  9
$ACADMAINTVER
 70
     9
  9
$DWGCODEPAGE
  3
ANSI_1250
  9
$INSBASE
 10
0.0
 20
0.0
 30
0.0
  9
$EXTMIN
 10
-29.8861
 20
-38.009
 30
0.0
  9
$EXTMAX
 10
23.0145
 20
39.1881
 30
0.0
  9
$LIMMIN
 10
0.0
 20
0.0
  9
$LIMMAX
 10
12.0
 20
9.0
  9
$ORTHOMODE
 70
     0
  9
$REGENMODE
 70
     1
  9
$FILLMODE
 70
     1
  9
$QTEXTMODE
 70
     0
  9
$MIRRTEXT
 70
     1
  9
$DRAGMODE
 70
     2
  9
$LTSCALE
 40
1.0
  9
$OSMODE
 70
    37
  9
$ATTMODE
 70
     1
  9
$TEXTSIZE
 40
0.2
  9
$TRACEWID
 40
0.05
  9
$TEXTSTYLE
  7
STANDARD
  9
$CLAYER
  8
0
  9
$CELTYPE
  6
BYLAYER
  9
$CECOLOR
 62
   256
  9
$CELTSCALE
 40
1.0
  9
$DELOBJ
 70
     1
  9
$DISPSILH
 70
     0
  9
$DIMSCALE
 40
1.0
  9
$DIMASZ
 40
0.18
  9
$DIMEXO
 40
0.0625
  9
$DIMDLI
 40
0.38
  9
$DIMRND
 40
0.0
  9
$DIMDLE
 40
0.0
  9
$DIMEXE
 40
0.18
  9
$DIMTP
 40
0.0
  9
$DIMTM
 40
0.0
  9
$DIMTXT
 40
0.18
  9
$DIMCEN
 40
0.09
  9
$DIMTSZ
 40
0.0
  9
$DIMTOL
 70
     0
  9
$DIMLIM
 70
     0
  9
$DIMTIH
 70
     1
  9
$DIMTOH
 70
     1
  9
$DIMSE1
 70
     0
  9
$DIMSE2
 70
     0
  9
$DIMTAD
 70
     0
  9
$DIMZIN
 70
     0
  9
$DIMBLK
  1

  9
$DIMASO
 70
     1
  9
$DIMSHO
 70
     1
  9
$DIMPOST
  1

  9
$DIMAPOST
  1

  9
$DIMALT
 70
     0
  9
$DIMALTD
 70
     2
  9
$DIMALTF
 40
25.4
  9
$DIMLFAC
 40
1.0
  9
$DIMTOFL
 70
     0
  9
$DIMTVP
 40
0.0
  9
$DIMTIX
 70
     0
  9
$DIMSOXD
 70
     0
  9
$DIMSAH
 70
     0
  9
$DIMBLK1
  1

  9
$DIMBLK2
  1

  9
$DIMSTYLE
  2
STANDARD
  9
$DIMCLRD
 70
     0
  9
$DIMCLRE
 70
     0
  9
$DIMCLRT
 70
     0
  9
$DIMTFAC
 40
1.0
  9
$DIMGAP
 40
0.09
  9
$DIMJUST
 70
     0
  9
$DIMSD1
 70
     0
  9
$DIMSD2
 70
     0
  9
$DIMTOLJ
 70
     1
  9
$DIMTZIN
 70
     0
  9
$DIMALTZ
 70
     0
  9
$DIMALTTZ
 70
     0
  9
$DIMFIT
 70
     3
  9
$DIMUPT
 70
     0
  9
$DIMUNIT
 70
     2
  9
$DIMDEC
 70
     4
  9
$DIMTDEC
 70
     4
  9
$DIMALTU
 70
     2
  9
$DIMALTTD
 70
     2
  9
$DIMTXSTY
  7
STANDARD
  9
$DIMAUNIT
 70
     0
  9
$LUNITS
 70
     2
  9
$LUPREC
 70
     4
  9
$SKETCHINC
 40
0.1
  9
$FILLETRAD
 40
0.5
  9
$AUNITS
 70
     0
  9
$AUPREC
 70
     0
  9
$MENU
  1
.
  9
$ELEVATION
 40
0.0
  9
$PELEVATION
 40
0.0
  9
$THICKNESS
 40
0.0
  9
$LIMCHECK
 70
     0
  9
$CHAMFERA
 40
0.5
  9
$CHAMFERB
 40
0.5
  9
$CHAMFERC
 40
1.0
  9
$CHAMFERD
 40
0.0
  9
$SKPOLY
 70
     0
  9
$TDCREATE
 40
2456232.483393252
  9
$TDUPDATE
 40
2456232.483393264
  9
$TDINDWG
 40
0.0000000116
  9
$TDUSRTIMER
 40
0.0000000116
  9
$USRTIMER
 70
     1
  9
$ANGBASE
 50
0.0
  9
$ANGDIR
 70
     0
  9
$PDMODE
 70
     0
  9
$PDSIZE
 40
0.0
  9
$PLINEWID
 40
0.0
  9
$COORDS
 70
     1
  9
$SPLFRAME
 70
     0
  9
$SPLINETYPE
 70
     6
  9
$SPLINESEGS
 70
     8
  9
$ATTDIA
 70
     0
  9
$ATTREQ
 70
     1
  9
$HANDLING
 70
     1
  9
$HANDSEED
  5
F1
  9
$SURFTAB1
 70
     6
  9
$SURFTAB2
 70
     6
  9
$SURFTYPE
 70
     6
  9
$SURFU
 70
     6
  9
$SURFV
 70
     6
  9
$UCSNAME
  2

  9
$UCSORG
 10
0.0
 20
0.0
 30
0.0
  9
$UCSXDIR
 10
1.0
 20
0.0
 30
0.0
  9
$UCSYDIR
 10
0.0
 20
1.0
 30
0.0
  9
$PUCSNAME
  2

  9
$PUCSORG
 10
0.0
 20
0.0
 30
0.0
  9
$PUCSXDIR
 10
1.0
 20
0.0
 30
0.0
  9
$PUCSYDIR
 10
0.0
 20
1.0
 30
0.0
  9
$USERI1
 70
     0
  9
$USERI2
 70
     0
  9
$USERI3
 70
     0
  9
$USERI4
 70
     0
  9
$USERI5
 70
     0
  9
$USERR1
 40
0.0
  9
$USERR2
 40
0.0
  9
$USERR3
 40
0.0
  9
$USERR4
 40
0.0
  9
$USERR5
 40
0.0
  9
$WORLDVIEW
 70
     1
  9
$SHADEDGE
 70
     3
  9
$SHADEDIF
 70
    70
  9
$TILEMODE
 70
     1
  9
$MAXACTVP
 70
    64
  9
$PINSBASE
 10
0.0
 20
0.0
 30
0.0
  9
$PLIMCHECK
 70
     0
  9
$PEXTMIN
 10
1.000000000000000E+20
 20
1.000000000000000E+20
 30
1.000000000000000E+20
  9
$PEXTMAX
 10
-1.000000000000000E+20
 20
-1.000000000000000E+20
 30
-1.000000000000000E+20
  9
$PLIMMIN
 10
0.0
 20
0.0
  9
$PLIMMAX
 10
12.0
 20
9.0
  9
$UNITMODE
 70
     0
  9
$VISRETAIN
 70
     1
  9
$PLINEGEN
 70
     0
  9
$PSLTSCALE
 70
     1
  9
$TREEDEPTH
 70
  3020
  9
$PICKSTYLE
 70
     1
  9
$CMLSTYLE
  2
STANDARD
  9
$CMLJUST
 70
     0
  9
$CMLSCALE
 40
1.0
  9
$PROXYGRAPHICS
 70
     1
  9
$MEASUREMENT
 70
     0
  0
ENDSEC
  0
SECTION
  2
CLASSES
  0
CLASS
  1
ACDBDICTIONARYWDFLT
  2
AcDbDictionaryWithDefault
  3
ObjectDBX Classes
 90
        0
280
     0
281
     0
  0
CLASS
  1
VISUALSTYLE
  2
AcDbVisualStyle
  3
ObjectDBX Classes
 90
     4095
280
     0
281
     0
  0
CLASS
  1
MATERIAL
  2
AcDbMaterial
  3
ObjectDBX Classes
 90
     1153
280
     0
281
     0
  0
CLASS
  1
DICTIONARYVAR
  2
AcDbDictionaryVar
  3
ObjectDBX Classes
 90
        0
280
     0
281
     0
  0
CLASS
  1
XRECORD
  2
AcDbXrecord
  3
AutoCAD 2000
 90
        0
280
     0
281
     0
  0
CLASS
  1
LWPOLYLINE
  2
AcDbPolyline
  3
AutoCAD 2000
 90
        0
280
     0
281
     1
  0
CLASS
  1
HATCH
  2
AcDbHatch
  3
AutoCAD 2000
 90
        0
280
     0
281
     1
  0
CLASS
  1
ACDBPLACEHOLDER
  2
AcDbPlaceHolder
  3
ObjectDBX Classes
 90
        0
280
     0
281
     0
  0
CLASS
  1
LAYOUT
  2
AcDbLayout
  3
ObjectDBX Classes
 90
        0
280
     0
281
     0
  0
ENDSEC
  0
SECTION
  2
TABLES
  0
TABLE
  2
VPORT
  5
8
330
0
100
AcDbSymbolTable
 70
     1
  0
VPORT
  5
29
330
8
100
AcDbSymbolTableRecord
100
AcDbViewportTableRecord
  2
*ACTIVE
 70
     0
 10
0.0
 20
0.0
 11
1.0
 21
1.0
 12
10.42990654205607
 22
4.5
 13
0.0
 23
0.0
 14
0.5
 24
0.5
 15
0.5
 25
0.5
 16
0.0
 26
0.0
 36
1.0
 17
0.0
 27
0.0
 37
0.0
 40
9.0
 41
1.972972972850329
 42
50.0
 43
0.0
 44
0.0
 50
0.0
 51
0.0
 71
     0
 72
   100
 73
     1
 74
     3
 75
     0
 76
     0
 77
     0
 78
     0
  0
ENDTAB
  0
TABLE
  2
LTYPE
  5
5
330
0
100
AcDbSymbolTable
 70
     5
  0
LTYPE
  5
14
330
5
100
AcDbSymbolTableRecord
100
AcDbLinetypeTableRecord
  2
BYBLOCK
 70
     0
  3

 72
    65
 73
     0
 40
0.0
  0
LTYPE
  5
15
330
5
100
AcDbSymbolTableRecord
100
AcDbLinetypeTableRecord
  2
BYLAYER
 70
     0
  3

 72
    65
 73
     0
 40
0.0
  0
LTYPE
  5
16
330
5
100
AcDbSymbolTableRecord
100
AcDbLinetypeTableRecord
  2
CONTINUOUS
 70
     0
  3
Solid line
 72
    65
 73
     0
 40
0.0
  0
LTYPE
  5
BF
330
5
100
AcDbSymbolTableRecord
100
AcDbLinetypeTableRecord
  2
NEW_LINE1
 70
     0
  3

 72
    65
 73
     4
 40
1.2
 49
0.5
 74
     4
 75
     0
340
0
 46
1.0
 50
0.0
 44
0.0
 45
0.0
 49
-0.3
 74
     4
 75
     0
340
0
 46
1.0
 50
0.0
 44
0.0
 45
0.0
 49
0.1
 74
     4
 75
     0
340
0
 46
1.0
 50
0.0
 44
0.0
 45
0.0
 49
-0.3
 74
     4
 75
     0
340
0
 46
1.0
 50
0.0
 44
0.0
 45
0.0
  0
LTYPE
  5
C1
330
5
100
AcDbSymbolTableRecord
100
AcDbLinetypeTableRecord
  2
NEW_LINE2
 70
     0
  3

 72
    65
 73
     4
 40
1.2
 49
0.5
 74
     4
 75
     0
340
0
 46
1.0
 50
0.0
 44
0.0
 45
0.0
 49
-0.3
 74
     4
 75
     0
340
0
 46
1.0
 50
0.0
 44
0.0
 45
0.0
 49
0.1
 74
     4
 75
     0
340
0
 46
1.0
 50
0.0
 44
0.0
 45
0.0
 49
-0.3
 74
     4
 75
     0
340
0
 46
1.0
 50
0.0
 44
0.0
 45
0.0
  0
LTYPE
  5
C3
330
5
100
AcDbSymbolTableRecord
100
AcDbLinetypeTableRecord
  2
NEW_LINE3
 70
     0
  3

 72
    65
 73
     4
 40
1.2
 49
0.5
 74
     4
 75
     0
340
0
 46
1.0
 50
0.0
 44
0.0
 45
0.0
 49
-0.3
 74
     4
 75
     0
340
0
 46
1.0
 50
0.0
 44
0.0
 45
0.0
 49
0.1
 74
     4
 75
     0
340
0
 46
1.0
 50
0.0
 44
0.0
 45
0.0
 49
-0.3
 74
     4
 75
     0
340
0
 46
1.0
 50
0.0
 44
0.0
 45
0.0
  0
LTYPE
  5
C5
330
5
100
AcDbSymbolTableRecord
100
AcDbLinetypeTableRecord
  2
NEW_LINE4
 70
     0
  3

 72
    65
 73
     4
 40
1.2
 49
0.5
 74
     4
 75
     0
340
0
 46
1.0
 50
0.0
 44
0.0
 45
0.0
 49
-0.3
 74
     4
 75
     0
340
0
 46
1.0
 50
0.0
 44
0.0
 45
0.0
 49
0.1
 74
     4
 75
     0
340
0
 46
1.0
 50
0.0
 44
0.0
 45
0.0
 49
-0.3
 74
     4
 75
     0
340
0
 46
1.0
 50
0.0
 44
0.0
 45
0.0
  0
ENDTAB
  0
TABLE
  2
LAYER
  5
2
330
0
100
AcDbSymbolTable
 70
     2
  0
LAYER
  5
10
330
2
100
AcDbSymbolTableRecord
100
AcDbLayerTableRecord
  2
0
 70
     0
 62
     7
  6
CONTINUOUS
  0
LAYER
  5
40
330
2
100
AcDbSymbolTableRecord
100
AcDbLayerTableRecord
  2
AXIS
 70
     0
 62
     7
  6
CONTINUOUS
  0
ENDTAB
  0
TABLE
  2
STYLE
  5
3
330
0
100
AcDbSymbolTable
 70
     1
  0
STYLE
  5
11
330
3
100
AcDbSymbolTableRecord
100
AcDbTextStyleTableRecord
  2
STANDARD
 70
     0
 40
0.0
 41
1.0
 50
0.0
 71
     0
 42
0.2
  3
txt
  4

  0
ENDTAB
  0
TABLE
  2
VIEW
  5
6
330
0
100
AcDbSymbolTable
 70
     0
  0
ENDTAB
  0
TABLE
  2
UCS
  5
7
330
0
100
AcDbSymbolTable
 70
     0
  0
ENDTAB
  0
TABLE
  2
APPID
  5
9
330
0
100
AcDbSymbolTable
 70
     2
  0
APPID
  5
12
330
9
100
AcDbSymbolTableRecord
100
AcDbRegAppTableRecord
  2
ACAD
 70
     0
  0
APPID
  5
3F
330
9
100
AcDbSymbolTableRecord
100
AcDbRegAppTableRecord
  2
ODA
 70
     0
  0
ENDTAB
  0
TABLE
  2
DIMSTYLE
  5
A
330
0
100
AcDbSymbolTable
 70
     1
  0
DIMSTYLE
105
27
330
A
100
AcDbSymbolTableRecord
100
AcDbDimStyleTableRecord
  2
STANDARD
 70
     0
  3

  4

  5

  6

  7

 40
1.0
 41
0.18
 42
0.0625
 43
0.38
 44
0.18
 45
0.0
 46
0.0
 47
0.0
 48
0.0
140
0.18
141
0.09
142
0.0
143
25.4
144
1.0
145
0.0
146
1.0
147
0.09
 71
     0
 72
     0
 73
     1
 74
     1
 75
     0
 76
     0
 77
     0
 78
     0
170
     0
171
     2
172
     0
173
     0
174
     0
175
     0
176
     0
177
     0
178
     0
270
     2
271
     4
272
     4
273
     2
274
     2
340
11
275
     0
280
     0
281
     0
282
     0
283
     1
284
     0
285
     0
286
     0
287
     3
288
     0
  0
ENDTAB
  0
TABLE
  2
BLOCK_RECORD
  5
1
330
0
100
AcDbSymbolTable
 70
     1
  0
BLOCK_RECORD
  5
1F
330
1
100
AcDbSymbolTableRecord
100
AcDbBlockTableRecord
  2
*MODEL_SPACE
  0
BLOCK_RECORD
  5
1B
330
1
100
AcDbSymbolTableRecord
100
AcDbBlockTableRecord
  2
*PAPER_SPACE
  0
ENDTAB
  0
ENDSEC
  0
SECTION
  2
BLOCKS
  0
BLOCK
  5
20
330
1F
100
AcDbEntity
  8
0
100
AcDbBlockBegin
  2
*MODEL_SPACE
 70
     0
 10
0.0
 20
0.0
 30
0.0
  3
*MODEL_SPACE
  1

  0
ENDBLK
  5
21
330
1F
100
AcDbEntity
  8
0
100
AcDbBlockEnd
  0
BLOCK
  5
1C
330
1B
100
AcDbEntity
 67
     1
  8
0
100
AcDbBlockBegin
  2
*PAPER_SPACE
 70
     0
 10
0.0
 20
0.0
 30
0.0
  3
*PAPER_SPACE
  1

  0
ENDBLK
  5
1D
330
1B
100
AcDbEntity
 67
     1
  8
0
100
AcDbBlockEnd
  0
ENDSEC
  0
SECTION
  2
ENTITIES
  0
SPLINE
  5
41
330
1F
100
AcDbEntity
  8
AXIS
 62
   250
100
AcDbSpline
210
0.0
220
0.0
230
1.0
 70
    11
 71
     3
 72
    40
 73
    36
 74
     0
 42
0.0000000001
 43
0.0000000001
 40
0.0
 40
0.0
 40
0.0
 40
0.0
 40
0.1
 40
0.1
 40
0.1
 40
0.1
 40
0.2
 40
0.2
 40
0.2
 40
0.2
 40
0.3
 40
0.3
 40
0.3
 40
0.3
 40
0.4
 40
0.4
 40
0.4
 40
0.4
 40
0.5
 40
0.5
 40
0.5
 40
0.5
 40
0.6
 40
0.6
 40
0.6
 40
0.6
 40
0.7
 40
0.7
 40
0.7
 40
0.7
 40
0.8
 40
0.8
 40
0.8
 40
0.8
 40
1.0
 40
1.0
 40
1.0
 40
1.0
 10
-4.9578
 20
3.9039
 30
0.0
 10
-4.9578
 20
3.9039
 30
0.0
 10
-5.2057
 20
3.9039
 30
0.0
 10
-5.2057
 20
3.9039
 30
0.0
 10
-5.2057
 20
3.9039
 30
0.0
 10
-5.2057
 20
3.9039
 30
0.0
 10
-5.2057
 20
5.4843
 30
0.0
 10
-5.2057
 20
5.4843
 30
0.0
 10
-5.2057
 20
5.4843
 30
0.0
 10
-5.2655
 20
5.4274
 30
0.0
 10
-5.3435
 20
5.3705
 30
0.0
 10
-5.4404
 20
5.3136
 30
0.0
 10
-5.4404
 20
5.3136
 30
0.0
 10
-5.5378
 20
5.2567
 30
0.0
 10
-5.6248
 20
5.2139
 30
0.0
 10
-5.702
 20
5.1856
 30
0.0
 10
-5.702
 20
5.1856
 30
0.0
 10
-5.702
 20
5.1856
 30
0.0
 10
-5.702
 20
5.4251
 30
0.0
 10
-5.702
 20
5.4251
 30
0.0
 10
-5.702
 20
5.4251
 30
0.0
 10
-5.5632
 20
5.4904
 30
0.0
 10
-5.4418
 20
5.5695
 30
0.0
 10
-5.3379
 20
5.6621
 30
0.0
 10
-5.3379
 20
5.6621
 30
0.0
 10
-5.2344
 20
5.7553
 30
0.0
 10
-5.1606
 20
5.8451
 30
0.0
 10
-5.1173
 20
5.9326
 30
0.0
 10
-5.1173
 20
5.9326
 30
0.0
 10
-5.1173
 20
5.9326
 30
0.0
 10
-4.9578
 20
5.9326
 30
0.0
 10
-4.9578
 20
5.9326
 30
0.0
 10
-4.9578
 20
5.9326
 30
0.0
 10
-4.9578
 20
5.9326
 30
0.0
 10
-4.9578
 20
3.9039
 30
0.0
 10
-4.9578
 20
3.9039
 30
0.0
  0
SPLINE
  5
42
330
1F
100
AcDbEntity
  8
AXIS
 62
   250
100
AcDbSpline
210
0.0
220
0.0
230
1.0
 70
    11
 71
     3
 72
    92
 73
    88
 74
     0
 42
0.0000000001
 43
0.0000000001
 40
0.0
 40
0.0
 40
0.0
 40
0.0
 40
0.0434782608695652
 40
0.0434782608695652
 40
0.0434782608695652
 40
0.0434782608695652
 40
0.0869565217391304
 40
0.0869565217391304
 40
0.0869565217391304
 40
0.0869565217391304
 40
0.1304347826086956
 40
0.1304347826086956
 40
0.1304347826086956
 40
0.1304347826086956
 40
0.1739130434782609
 40
0.1739130434782609
 40
0.1739130434782609
 40
0.1739130434782609
 40
0.2173913043478261
 40
0.2173913043478261
 40
0.2173913043478261
 40
0.2173913043478261
 40
0.2608695652173913
 40
0.2608695652173913
 40
0.2608695652173913
 40
0.2608695652173913
 40
0.3043478260869565
 40
0.3043478260869565
 40
0.3043478260869565
 40
0.3043478260869565
 40
0.3478260869565217
 40
0.3478260869565217
 40
0.3478260869565217
 40
0.3478260869565217
 40
0.391304347826087
 40
0.391304347826087
 40
0.391304347826087
 40
0.391304347826087
 40
0.4347826086956522
 40
0.4347826086956522
 40
0.4347826086956522
 40
0.4347826086956522
 40
0.4782608695652174
 40
0.4782608695652174
 40
0.4782608695652174
 40
0.4782608695652174
 40
0.5217391304347826
 40
0.5217391304347826
 40
0.5217391304347826
 40
0.5217391304347826
 40
0.5652173913043478
 40
0.5652173913043478
 40
0.5652173913043478
 40
0.5652173913043478
 40
0.6086956521739131
 40
0.6086956521739131
 40
0.6086956521739131
 40
0.6086956521739131
 40
0.6521739130434783
 40
0.6521739130434783
 40
0.6521739130434783
 40
0.6521739130434783
 40
0.6956521739130435
 40
0.6956521739130435
 40
0.6956521739130435
 40
0.6956521739130435
 40
0.7391304347826086
 40
0.7391304347826086
 40
0.7391304347826086
 40
0.7391304347826086
 40
0.782608695652174
 40
0.782608695652174
 40
0.782608695652174
 40
0.782608695652174
 40
0.8260869565217391
 40
0.8260869565217391
 40
0.8260869565217391
 40
0.8260869565217391
 40
0.8695652173913043
 40
0.8695652173913043
 40
0.8695652173913043
 40
0.8695652173913043
 40
0.9130434782608695
 40
0.9130434782608695
 40
0.9130434782608695
 40
0.9130434782608695
 40
1.0
 40
1.0
 40
1.0
 40
1.0
 10
-4.3224
 20
4.4331
 30
0.0
 10
-4.3224
 20
4.4331
 30
0.0
 10
-4.0618
 20
4.4552
 30
0.0
 10
-4.0618
 20
4.4552
 30
0.0
 10
-4.0618
 20
4.4552
 30
0.0
 10
-4.0425
 20
4.3282
 30
0.0
 10
-3.9978
 20
4.2332
 30
0.0
 10
-3.9277
 20
4.1692
 30
0.0
 10
-3.9277
 20
4.1692
 30
0.0
 10
-3.8572
 20
4.1052
 30
0.0
 10
-3.7725
 20
4.0732
 30
0.0
 10
-3.6733
 20
4.0732
 30
0.0
 10
-3.6733
 20
4.0732
 30
0.0
 10
-3.5538
 20
4.0732
 30
0.0
 10
-3.4527
 20
4.1184
 30
0.0
 10
-3.3704
 20
4.2082
 30
0.0
 10
-3.3704
 20
4.2082
 30
0.0
 10
-3.2876
 20
4.2985
 30
0.0
 10
-3.2462
 20
4.418
 30
0.0
 10
-3.2462
 20
4.5666
 30
0.0
 10
-3.2462
 20
4.5666
 30
0.0
 10
-3.2462
 20
4.7082
 30
0.0
 10
-3.2857
 20
4.8197
 30
0.0
 10
-3.3652
 20
4.9015
 30
0.0
 10
-3.3652
 20
4.9015
 30
0.0
 10
-3.4447
 20
4.9834
 30
0.0
 10
-3.5486
 20
5.0243
 30
0.0
 10
-3.6775
 20
5.0243
 30
0.0
 10
-3.6775
 20
5.0243
 30
0.0
 10
-3.7575
 20
5.0243
 30
0.0
 10
-3.8294
 20
5.006
 30
0.0
 10
-3.8939
 20
4.9698
 30
0.0
 10
-3.8939
 20
4.9698
 30
0.0
 10
-3.9583
 20
4.9335
 30
0.0
 10
-4.0086
 20
4.8865
 30
0.0
 10
-4.0453
 20
4.8286
 30
0.0
 10
-4.0453
 20
4.8286
 30
0.0
 10
-4.0453
 20
4.8286
 30
0.0
 10
-4.2782
 20
4.8587
 30
0.0
 10
-4.2782
 20
4.8587
 30
0.0
 10
-4.2782
 20
4.8587
 30
0.0
 10
-4.2782
 20
4.8587
 30
0.0
 10
-4.0825
 20
5.8964
 30
0.0
 10
-4.0825
 20
5.8964
 30
0.0
 10
-4.0825
 20
5.8964
 30
0.0
 10
-4.0825
 20
5.8964
 30
0.0
 10
-3.0778
 20
5.8964
 30
0.0
 10
-3.0778
 20
5.8964
 30
0.0
 10
-3.0778
 20
5.8964
 30
0.0
 10
-3.0778
 20
5.8964
 30
0.0
 10
-3.0778
 20
5.6593
 30
0.0
 10
-3.0778
 20
5.6593
 30
0.0
 10
-3.0778
 20
5.6593
 30
0.0
 10
-3.0778
 20
5.6593
 30
0.0
 10
-3.884
 20
5.6593
 30
0.0
 10
-3.884
 20
5.6593
 30
0.0
 10
-3.884
 20
5.6593
 30
0.0
 10
-3.884
 20
5.6593
 30
0.0
 10
-3.9931
 20
5.1165
 30
0.0
 10
-3.9931
 20
5.1165
 30
0.0
 10
-3.9931
 20
5.1165
 30
0.0
 10
-3.8718
 20
5.2012
 30
0.0
 10
-3.7443
 20
5.2435
 30
0.0
 10
-3.6112
 20
5.2435
 30
0.0
 10
-3.6112
 20
5.2435
 30
0.0
 10
-3.4348
 20
5.2435
 30
0.0
 10
-3.2862
 20
5.1824
 30
0.0
 10
-3.1648
 20
5.0601
 30
0.0
 10
-3.1648
 20
5.0601
 30
0.0
 10
-3.0435
 20
4.9378
 30
0.0
 10
-2.9828
 20
4.7807
 30
0.0
 10
-2.9828
 20
4.5888
 30
0.0
 10
-2.9828
 20
4.5888
 30
0.0
 10
-2.9828
 20
4.4058
 30
0.0
 10
-3.0364
 20
4.2477
 30
0.0
 10
-3.1427
 20
4.1146
 30
0.0
 10
-3.1427
 20
4.1146
 30
0.0
 10
-3.2725
 20
3.9514
 30
0.0
 10
-3.4494
 20
3.8696
 30
0.0
 10
-3.6733
 20
3.8696
 30
0.0
 10
-3.6733
 20
3.8696
 30
0.0
 10
-3.8572
 20
3.8696
 30
0.0
 10
-4.0072
 20
3.9208
 30
0.0
 10
-4.1234
 20
4.0238
 30
0.0
 10
-4.1234
 20
4.0238
 30
0.0
 10
-4.2396
 20
4.1269
 30
0.0
 10
-4.3059
 20
4.2633
 30
0.0
 10
-4.3224
 20
4.4331
 30
0.0
  0
SPLINE
  5
43
330
1F
100
AcDbEntity
  8
AXIS
 62
   250
100
AcDbSpline
210
0.0
220
0.0
230
1.0
 70
    11
 71
     3
 72
    52
 73
    48
 74
     0
 42
0.0000000001
 43
0.0000000001
 40
0.0
 40
0.0
 40
0.0
 40
0.0
 40
0.0769230769230769
 40
0.0769230769230769
 40
0.0769230769230769
 40
0.0769230769230769
 40
0.1538461538461539
 40
0.1538461538461539
 40
0.1538461538461539
 40
0.1538461538461539
 40
0.2307692307692308
 40
0.2307692307692308
 40
0.2307692307692308
 40
0.2307692307692308
 40
0.3076923076923077
 40
0.3076923076923077
 40
0.3076923076923077
 40
0.3076923076923077
 40
0.3846153846153846
 40
0.3846153846153846
 40
0.3846153846153846
 40
0.3846153846153846
 40
0.4615384615384616
 40
0.4615384615384616
 40
0.4615384615384616
 40
0.4615384615384616
 40
0.5384615384615384
 40
0.5384615384615384
 40
0.5384615384615384
 40
0.5384615384615384
 40
0.6153846153846154
 40
0.6153846153846154
 40
0.6153846153846154
 40
0.6153846153846154
 40
0.6923076923076923
 40
0.6923076923076923
 40
0.6923076923076923
 40
0.6923076923076923
 40
0.7692307692307693
 40
0.7692307692307693
 40
0.7692307692307693
 40
0.7692307692307693
 40
0.8461538461538461
 40
0.8461538461538461
 40
0.8461538461538461
 40
0.8461538461538461
 40
1.0
 40
1.0
 40
1.0
 40
1.0
 10
-2.7528
 20
4.9001
 30
0.0
 10
-2.7528
 20
5.1391
 30
0.0
 10
-2.7283
 20
5.3315
 30
0.0
 10
-2.6789
 20
5.4768
 30
0.0
 10
-2.6789
 20
5.4768
 30
0.0
 10
-2.63
 20
5.6226
 30
0.0
 10
-2.5566
 20
5.735
 30
0.0
 10
-2.4597
 20
5.8141
 30
0.0
 10
-2.4597
 20
5.8141
 30
0.0
 10
-2.3628
 20
5.8931
 30
0.0
 10
-2.241
 20
5.9326
 30
0.0
 10
-2.0943
 20
5.9326
 30
0.0
 10
-2.0943
 20
5.9326
 30
0.0
 10
-1.9856
 20
5.9326
 30
0.0
 10
-1.8906
 20
5.9105
 30
0.0
 10
-1.8088
 20
5.8667
 30
0.0
 10
-1.8088
 20
5.8667
 30
0.0
 10
-1.7269
 20
5.8235
 30
0.0
 10
-1.6596
 20
5.7604
 30
0.0
 10
-1.606
 20
5.6781
 30
0.0
 10
-1.606
 20
5.6781
 30
0.0
 10
-1.5529
 20
5.5958
 30
0.0
 10
-1.511
 20
5.4956
 30
0.0
 10
-1.4809
 20
5.3776
 30
0.0
 10
-1.4809
 20
5.3776
 30
0.0
 10
-1.4503
 20
5.2595
 30
0.0
 10
-1.4353
 20
5.1005
 30
0.0
 10
-1.4353
 20
4.9001
 30
0.0
 10
-1.4353
 20
4.9001
 30
0.0
 10
-1.4353
 20
4.6631
 30
0.0
 10
-1.4597
 20
4.4721
 30
0.0
 10
-1.5082
 20
4.3263
 30
0.0
 10
-1.5082
 20
4.3263
 30
0.0
 10
-1.5571
 20
4.1805
 30
0.0
 10
-1.63
 20
4.0681
 30
0.0
 10
-1.7269
 20
3.9886
 30
0.0
 10
-1.7269
 20
3.9886
 30
0.0
 10
-1.8238
 20
3.9091
 30
0.0
 10
-1.9461
 20
3.8696
 30
0.0
 10
-2.0943
 20
3.8696
 30
0.0
 10
-2.0943
 20
3.8696
 30
0.0
 10
-2.289
 20
3.8696
 30
0.0
 10
-2.4419
 20
3.9392
 30
0.0
 10
-2.5529
 20
4.0789
 30
0.0
 10
-2.5529
 20
4.0789
 30
0.0
 10
-2.686
 20
4.2468
 30
0.0
 10
-2.7528
 20
4.521
 30
0.0
 10
-2.7528
 20
4.9001
 30
0.0
  0
SPLINE
  5
44
330
1F
100
AcDbEntity
  8
AXIS
 62
   250
100
AcDbSpline
210
0.0
220
0.0
230
1.0
 70
    11
 71
     3
 72
    36
 73
    32
 74
     0
 42
0.0000000001
 43
0.0000000001
 40
0.0
 40
0.0
 40
0.0
 40
0.0
 40
0.1111111111111111
 40
0.1111111111111111
 40
0.1111111111111111
 40
0.1111111111111111
 40
0.2222222222222222
 40
0.2222222222222222
 40
0.2222222222222222
 40
0.2222222222222222
 40
0.3333333333333333
 40
0.3333333333333333
 40
0.3333333333333333
 40
0.3333333333333333
 40
0.4444444444444444
 40
0.4444444444444444
 40
0.4444444444444444
 40
0.4444444444444444
 40
0.5555555555555556
 40
0.5555555555555556
 40
0.5555555555555556
 40
0.5555555555555556
 40
0.6666666666666666
 40
0.6666666666666666
 40
0.6666666666666666
 40
0.6666666666666666
 40
0.7777777777777778
 40
0.7777777777777778
 40
0.7777777777777778
 40
0.7777777777777778
 40
1.0
 40
1.0
 40
1.0
 40
1.0
 10
-2.4978
 20
4.9001
 30
0.0
 10
-2.4978
 20
4.5685
 30
0.0
 10
-2.4588
 20
4.3479
 30
0.0
 10
-2.3812
 20
4.2379
 30
0.0
 10
-2.3812
 20
4.2379
 30
0.0
 10
-2.3036
 20
4.1283
 30
0.0
 10
-2.2081
 20
4.0732
 30
0.0
 10
-2.0943
 20
4.0732
 30
0.0
 10
-2.0943
 20
4.0732
 30
0.0
 10
-1.98
 20
4.0732
 30
0.0
 10
-1.8845
 20
4.1287
 30
0.0
 10
-1.8069
 20
4.2388
 30
0.0
 10
-1.8069
 20
4.2388
 30
0.0
 10
-1.7293
 20
4.3489
 30
0.0
 10
-1.6902
 20
4.5695
 30
0.0
 10
-1.6902
 20
4.9001
 30
0.0
 10
-1.6902
 20
4.9001
 30
0.0
 10
-1.6902
 20
5.2327
 30
0.0
 10
-1.7293
 20
5.4538
 30
0.0
 10
-1.8069
 20
5.5629
 30
0.0
 10
-1.8069
 20
5.5629
 30
0.0
 10
-1.8845
 20
5.6725
 30
0.0
 10
-1.9809
 20
5.727
 30
0.0
 10
-2.0966
 20
5.727
 30
0.0
 10
-2.0966
 20
5.727
 30
0.0
 10
-2.2109
 20
5.727
 30
0.0
 10
-2.3017
 20
5.6786
 30
0.0
 10
-2.3699
 20
5.5822
 30
0.0
 10
-2.3699
 20
5.5822
 30
0.0
 10
-2.455
 20
5.4594
 30
0.0
 10
-2.4978
 20
5.2317
 30
0.0
 10
-2.4978
 20
4.9001
 30
0.0
  0
SPLINE
  5
45
330
1F
100
AcDbEntity
  8
AXIS
 62
   250
100
AcDbSpline
210
0.0
220
0.0
230
1.0
 70
    24
 71
     3
 72
     8
 73
     4
 74
     0
 42
0.0000000001
 43
0.0000000001
 40
0.0
 40
0.0
 40
0.0
 40
0.0
 40
1.0
 40
1.0
 40
1.0
 40
1.0
 10
-22.2868
 20
-0.4505
 30
0.0
 10
-22.2868
 20
-0.4505
 30
0.0
 10
-22.2868
 20
3.6805
 30
0.0
 10
-22.2868
 20
3.6805
 30
0.0
  0
SPLINE
  5
46
330
1F
100
AcDbEntity
  8
AXIS
 62
   250
100
AcDbSpline
210
0.0
220
0.0
230
1.0
 70
    24
 71
     3
 72
     8
 73
     4
 74
     0
 42
0.0000000001
 43
0.0000000001
 40
0.0
 40
0.0
 40
0.0
 40
0.0
 40
1.0
 40
1.0
 40
1.0
 40
1.0
 10
14.7618
 20
-0.3597
 30
0.0
 10
14.7618
 20
-0.3597
 30
0.0
 10
14.7618
 20
3.6805
 30
0.0
 10
14.7618
 20
3.6805
 30
0.0
  0
SPLINE
  5
47
330
1F
100
AcDbEntity
  8
AXIS
 62
   250
100
AcDbSpline
210
0.0
220
0.0
230
1.0
 70
    24
 71
     3
 72
     8
 73
     4
 74
     0
 42
0.0000000001
 43
0.0000000001
 40
0.0
 40
0.0
 40
0.0
 40
0.0
 40
1.0
 40
1.0
 40
1.0
 40
1.0
 10
13.3758
 20
3.4302
 30
0.0
 10
13.3758
 20
3.4302
 30
0.0
 10
-21.2351
 20
3.4302
 30
0.0
 10
-21.2351
 20
3.4302
 30
0.0
  0
SPLINE
  5
48
330
1F
100
AcDbEntity
  8
AXIS
 62
   250
100
AcDbSpline
210
0.0
220
0.0
230
1.0
 70
    11
 71
     3
 72
    68
 73
    64
 74
     0
 42
0.0000000001
 43
0.0000000001
 40
0.0
 40
0.0
 40
0.0
 40
0.0
 40
0.0588235294117647
 40
0.0588235294117647
 40
0.0588235294117647
 40
0.0588235294117647
 40
0.1176470588235294
 40
0.1176470588235294
 40
0.1176470588235294
 40
0.1176470588235294
 40
0.1764705882352941
 40
0.1764705882352941
 40
0.1764705882352941
 40
0.1764705882352941
 40
0.2352941176470588
 40
0.2352941176470588
 40
0.2352941176470588
 40
0.2352941176470588
 40
0.2941176470588235
 40
0.2941176470588235
 40
0.2941176470588235
 40
0.2941176470588235
 40
0.3529411764705883
 40
0.3529411764705883
 40
0.3529411764705883
 40
0.3529411764705883
 40
0.4117647058823529
 40
0.4117647058823529
 40
0.4117647058823529
 40
0.4117647058823529
 40
0.4705882352941176
 40
0.4705882352941176
 40
0.4705882352941176
 40
0.4705882352941176
 40
0.5294117647058824
 40
0.5294117647058824
 40
0.5294117647058824
 40
0.5294117647058824
 40
0.5882352941176471
 40
0.5882352941176471
 40
0.5882352941176471
 40
0.5882352941176471
 40
0.6470588235294118
 40
0.6470588235294118
 40
0.6470588235294118
 40
0.6470588235294118
 40
0.7058823529411765
 40
0.7058823529411765
 40
0.7058823529411765
 40
0.7058823529411765
 40
0.7647058823529411
 40
0.7647058823529411
 40
0.7647058823529411
 40
0.7647058823529411
 40
0.8235294117647058
 40
0.8235294117647058
 40
0.8235294117647058
 40
0.8235294117647058
 40
0.8823529411764706
 40
0.8823529411764706
 40
0.8823529411764706
 40
0.8823529411764706
 40
1.0
 40
1.0
 40
1.0
 40
1.0
 10
-26.7932
 20
19.6313
 30
0.0
 10
-26.8308
 20
19.5282
 30
0.0
 10
-26.8844
 20
19.452
 30
0.0
 10
-26.9545
 20
19.4022
 30
0.0
 10
-26.9545
 20
19.4022
 30
0.0
 10
-27.0241
 20
19.3528
 30
0.0
 10
-27.1079
 20
19.3279
 30
0.0
 10
-27.2052
 20
19.3279
 30
0.0
 10
-27.2052
 20
19.3279
 30
0.0
 10
-27.3524
 20
19.3279
 30
0.0
 10
-27.4757
 20
19.3806
 30
0.0
 10
-27.5759
 20
19.4864
 30
0.0
 10
-27.5759
 20
19.4864
 30
0.0
 10
-27.6761
 20
19.5922
 30
0.0
 10
-27.7264
 20
19.7324
 30
0.0
 10
-27.7264
 20
19.9078
 30
0.0
 10
-27.7264
 20
19.9078
 30
0.0
 10
-27.7264
 20
20.0842
 30
0.0
 10
-27.6751
 20
20.2263
 30
0.0
 10
-27.5726
 20
20.334
 30
0.0
 10
-27.5726
 20
20.334
 30
0.0
 10
-27.47
 20
20.4412
 30
0.0
 10
-27.3454
 20
20.4949
 30
0.0
 10
-27.1982
 20
20.4949
 30
0.0
 10
-27.1982
 20
20.4949
 30
0.0
 10
-27.1046
 20
20.4949
 30
0.0
 10
-27.0232
 20
20.4704
 30
0.0
 10
-26.9536
 20
20.4215
 30
0.0
 10
-26.9536
 20
20.4215
 30
0.0
 10
-26.8844
 20
20.3721
 30
0.0
 10
-26.8308
 20
20.2978
 30
0.0
 10
-26.7932
 20
20.1976
 30
0.0
 10
-26.7932
 20
20.1976
 30
0.0
 10
-26.7527
 20
20.3213
 30
0.0
 10
-26.6878
 20
20.4158
 30
0.0
 10
-26.5975
 20
20.4807
 30
0.0
 10
-26.5975
 20
20.4807
 30
0.0
 10
-26.5077
 20
20.5452
 30
0.0
 10
-26.4
 20
20.5776
 30
0.0
 10
-26.2753
 20
20.5776
 30
0.0
 10
-26.2753
 20
20.5776
 30
0.0
 10
-26.1022
 20
20.5776
 30
0.0
 10
-25.9573
 20
20.5165
 30
0.0
 10
-25.8398
 20
20.3947
 30
0.0
 10
-25.8398
 20
20.3947
 30
0.0
 10
-25.7222
 20
20.2724
 30
0.0
 10
-25.6634
 20
20.1115
 30
0.0
 10
-25.6634
 20
19.9121
 30
0.0
 10
-25.6634
 20
19.9121
 30
0.0
 10
-25.6634
 20
19.7126
 30
0.0
 10
-25.7222
 20
19.5522
 30
0.0
 10
-25.8402
 20
19.4299
 30
0.0
 10
-25.8402
 20
19.4299
 30
0.0
 10
-25.9583
 20
19.3076
 30
0.0
 10
-26.1055
 20
19.2465
 30
0.0
 10
-26.2819
 20
19.2465
 30
0.0
 10
-26.2819
 20
19.2465
 30
0.0
 10
-26.4131
 20
19.2465
 30
0.0
 10
-26.5232
 20
19.2799
 30
0.0
 10
-26.6121
 20
19.3467
 30
0.0
 10
-26.6121
 20
19.3467
 30
0.0
 10
-26.7005
 20
19.413
 30
0.0
 10
-26.7612
 20
19.508
 30
0.0
 10
-26.7932
 20
19.6313
 30
0.0
  0
SPLINE
  5
49
330
1F
100
AcDbEntity
  8
AXIS
 62
   250
100
AcDbSpline
210
0.0
220
0.0
230
1.0
 70
    11
 71
     3
 72
    36
 73
    32
 74
     0
 42
0.0000000001
 43
0.0000000001
 40
0.0
 40
0.0
 40
0.0
 40
0.0
 40
0.1111111111111111
 40
0.1111111111111111
 40
0.1111111111111111
 40
0.1111111111111111
 40
0.2222222222222222
 40
0.2222222222222222
 40
0.2222222222222222
 40
0.2222222222222222
 40
0.3333333333333333
 40
0.3333333333333333
 40
0.3333333333333333
 40
0.3333333333333333
 40
0.4444444444444444
 40
0.4444444444444444
 40
0.4444444444444444
 40
0.4444444444444444
 40
0.5555555555555556
 40
0.5555555555555556
 40
0.5555555555555556
 40
0.5555555555555556
 40
0.6666666666666666
 40
0.6666666666666666
 40
0.6666666666666666
 40
0.6666666666666666
 40
0.7777777777777778
 40
0.7777777777777778
 40
0.7777777777777778
 40
0.7777777777777778
 40
1.0
 40
1.0
 40
1.0
 40
1.0
 10
-27.2137
 20
19.5814
 30
0.0
 10
-27.1182
 20
19.5814
 30
0.0
 10
-27.0401
 20
19.6124
 30
0.0
 10
-26.9794
 20
19.6736
 30
0.0
 10
-26.9794
 20
19.6736
 30
0.0
 10
-26.9188
 20
19.7352
 30
0.0
 10
-26.8882
 20
19.8152
 30
0.0
 10
-26.8882
 20
19.9135
 30
0.0
 10
-26.8882
 20
19.9135
 30
0.0
 10
-26.8882
 20
20.009
 30
0.0
 10
-26.9183
 20
20.0875
 30
0.0
 10
-26.9785
 20
20.1487
 30
0.0
 10
-26.9785
 20
20.1487
 30
0.0
 10
-27.0387
 20
20.2098
 30
0.0
 10
-27.1126
 20
20.2399
 30
0.0
 10
-27.1996
 20
20.2399
 30
0.0
 10
-27.1996
 20
20.2399
 30
0.0
 10
-27.2908
 20
20.2399
 30
0.0
 10
-27.367
 20
20.2089
 30
0.0
 10
-27.4291
 20
20.1458
 30
0.0
 10
-27.4291
 20
20.1458
 30
0.0
 10
-27.4912
 20
20.0828
 30
0.0
 10
-27.5223
 20
20.0047
 30
0.0
 10
-27.5223
 20
19.9107
 30
0.0
 10
-27.5223
 20
19.9107
 30
0.0
 10
-27.5223
 20
19.8161
 30
0.0
 10
-27.4917
 20
19.7376
 30
0.0
 10
-27.4315
 20
19.675
 30
0.0
 10
-27.4315
 20
19.675
 30
0.0
 10
-27.3708
 20
19.6124
 30
0.0
 10
-27.2979
 20
19.5814
 30
0.0
 10
-27.2137
 20
19.5814
 30
0.0
  0
SPLINE
  5
4A
330
1F
100
AcDbEntity
  8
AXIS
 62
   250
100
AcDbSpline
210
0.0
220
0.0
230
1.0
 70
    11
 71
     3
 72
    40
 73
    36
 74
     0
 42
0.0000000001
 43
0.0000000001
 40
0.0
 40
0.0
 40
0.0
 40
0.0
 40
0.1
 40
0.1
 40
0.1
 40
0.1
 40
0.2
 40
0.2
 40
0.2
 40
0.2
 40
0.3
 40
0.3
 40
0.3
 40
0.3
 40
0.4
 40
0.4
 40
0.4
 40
0.4
 40
0.5
 40
0.5
 40
0.5
 40
0.5
 40
0.6
 40
0.6
 40
0.6
 40
0.6
 40
0.7
 40
0.7
 40
0.7
 40
0.7
 40
0.8
 40
0.8
 40
0.8
 40
0.8
 40
1.0
 40
1.0
 40
1.0
 40
1.0
 10
-26.2805
 20
19.5014
 30
0.0
 10
-26.2099
 20
19.5014
 30
0.0
 10
-26.1413
 20
19.5184
 30
0.0
 10
-26.0754
 20
19.5518
 30
0.0
 10
-26.0754
 20
19.5518
 30
0.0
 10
-26.0091
 20
19.5852
 30
0.0
 10
-25.9578
 20
19.635
 30
0.0
 10
-25.9216
 20
19.7013
 30
0.0
 10
-25.9216
 20
19.7013
 30
0.0
 10
-25.8854
 20
19.7677
 30
0.0
 10
-25.867
 20
19.8387
 30
0.0
 10
-25.867
 20
19.9149
 30
0.0
 10
-25.867
 20
19.9149
 30
0.0
 10
-25.867
 20
20.0334
 30
0.0
 10
-25.9051
 20
20.1313
 30
0.0
 10
-25.9818
 20
20.2084
 30
0.0
 10
-25.9818
 20
20.2084
 30
0.0
 10
-26.058
 20
20.2855
 30
0.0
 10
-26.1549
 20
20.3241
 30
0.0
 10
-26.2725
 20
20.3241
 30
0.0
 10
-26.2725
 20
20.3241
 30
0.0
 10
-26.392
 20
20.3241
 30
0.0
 10
-26.4907
 20
20.2846
 30
0.0
 10
-26.5688
 20
20.2051
 30
0.0
 10
-26.5688
 20
20.2051
 30
0.0
 10
-26.6469
 20
20.1256
 30
0.0
 10
-26.6859
 20
20.0259
 30
0.0
 10
-26.6859
 20
19.9064
 30
0.0
 10
-26.6859
 20
19.9064
 30
0.0
 10
-26.6859
 20
19.7898
 30
0.0
 10
-26.6474
 20
19.6933
 30
0.0
 10
-26.5702
 20
19.6167
 30
0.0
 10
-26.5702
 20
19.6167
 30
0.0
 10
-26.4926
 20
19.54
 30
0.0
 10
-26.3962
 20
19.5014
 30
0.0
 10
-26.2805
 20
19.5014
 30
0.0
  0
SPLINE
  5
4B
330
1F
100
AcDbEntity
  8
AXIS
 62
   250
100
AcDbSpline
210
0.0
220
0.0
230
1.0
 70
    11
 71
     3
 72
    68
 73
    64
 74
     0
 42
0.0000000001
 43
0.0000000001
 40
0.0
 40
0.0
 40
0.0
 40
0.0
 40
0.0588235294117647
 40
0.0588235294117647
 40
0.0588235294117647
 40
0.0588235294117647
 40
0.1176470588235294
 40
0.1176470588235294
 40
0.1176470588235294
 40
0.1176470588235294
 40
0.1764705882352941
 40
0.1764705882352941
 40
0.1764705882352941
 40
0.1764705882352941
 40
0.2352941176470588
 40
0.2352941176470588
 40
0.2352941176470588
 40
0.2352941176470588
 40
0.2941176470588235
 40
0.2941176470588235
 40
0.2941176470588235
 40
0.2941176470588235
 40
0.3529411764705883
 40
0.3529411764705883
 40
0.3529411764705883
 40
0.3529411764705883
 40
0.4117647058823529
 40
0.4117647058823529
 40
0.4117647058823529
 40
0.4117647058823529
 40
0.4705882352941176
 40
0.4705882352941176
 40
0.4705882352941176
 40
0.4705882352941176
 40
0.5294117647058824
 40
0.5294117647058824
 40
0.5294117647058824
 40
0.5294117647058824
 40
0.5882352941176471
 40
0.5882352941176471
 40
0.5882352941176471
 40
0.5882352941176471
 40
0.6470588235294118
 40
0.6470588235294118
 40
0.6470588235294118
 40
0.6470588235294118
 40
0.7058823529411765
 40
0.7058823529411765
 40
0.7058823529411765
 40
0.7058823529411765
 40
0.7647058823529411
 40
0.7647058823529411
 40
0.7647058823529411
 40
0.7647058823529411
 40
0.8235294117647058
 40
0.8235294117647058
 40
0.8235294117647058
 40
0.8235294117647058
 40
0.8823529411764706
 40
0.8823529411764706
 40
0.8823529411764706
 40
0.8823529411764706
 40
1.0
 40
1.0
 40
1.0
 40
1.0
 10
-26.7932
 20
21.2009
 30
0.0
 10
-26.8308
 20
21.0978
 30
0.0
 10
-26.8844
 20
21.0216
 30
0.0
 10
-26.9545
 20
20.9718
 30
0.0
 10
-26.9545
 20
20.9718
 30
0.0
 10
-27.0241
 20
20.9224
 30
0.0
 10
-27.1079
 20
20.8975
 30
0.0
 10
-27.2052
 20
20.8975
 30
0.0
 10
-27.2052
 20
20.8975
 30
0.0
 10
-27.3524
 20
20.8975
 30
0.0
 10
-27.4757
 20
20.9502
 30
0.0
 10
-27.5759
 20
21.056
 30
0.0
 10
-27.5759
 20
21.056
 30
0.0
 10
-27.6761
 20
21.1618
 30
0.0
 10
-27.7264
 20
21.302
 30
0.0
 10
-27.7264
 20
21.4774
 30
0.0
 10
-27.7264
 20
21.4774
 30
0.0
 10
-27.7264
 20
21.6538
 30
0.0
 10
-27.6751
 20
21.7959
 30
0.0
 10
-27.5726
 20
21.9036
 30
0.0
 10
-27.5726
 20
21.9036
 30
0.0
 10
-27.47
 20
22.0108
 30
0.0
 10
-27.3454
 20
22.0645
 30
0.0
 10
-27.1982
 20
22.0645
 30
0.0
 10
-27.1982
 20
22.0645
 30
0.0
 10
-27.1046
 20
22.0645
 30
0.0
 10
-27.0232
 20
22.04
 30
0.0
 10
-26.9536
 20
21.9911
 30
0.0
 10
-26.9536
 20
21.9911
 30
0.0
 10
-26.8844
 20
21.9417
 30
0.0
 10
-26.8308
 20
21.8674
 30
0.0
 10
-26.7932
 20
21.7672
 30
0.0
 10
-26.7932
 20
21.7672
 30
0.0
 10
-26.7527
 20
21.8909
 30
0.0
 10
-26.6878
 20
21.9854
 30
0.0
 10
-26.5975
 20
22.0503
 30
0.0
 10
-26.5975
 20
22.0503
 30
0.0
 10
-26.5077
 20
22.1148
 30
0.0
 10
-26.4
 20
22.1472
 30
0.0
 10
-26.2753
 20
22.1472
 30
0.0
 10
-26.2753
 20
22.1472
 30
0.0
 10
-26.1022
 20
22.1472
 30
0.0
 10
-25.9573
 20
22.0861
 30
0.0
 10
-25.8398
 20
21.9643
 30
0.0
 10
-25.8398
 20
21.9643
 30
0.0
 10
-25.7222
 20
21.842
 30
0.0
 10
-25.6634
 20
21.6811
 30
0.0
 10
-25.6634
 20
21.4817
 30
0.0
 10
-25.6634
 20
21.4817
 30
0.0
 10
-25.6634
 20
21.2822
 30
0.0
 10
-25.7222
 20
21.1218
 30
0.0
 10
-25.8402
 20
20.9995
 30
0.0
 10
-25.8402
 20
20.9995
 30
0.0
 10
-25.9583
 20
20.8772
 30
0.0
 10
-26.1055
 20
20.8161
 30
0.0
 10
-26.2819
 20
20.8161
 30
0.0
 10
-26.2819
 20
20.8161
 30
0.0
 10
-26.4131
 20
20.8161
 30
0.0
 10
-26.5232
 20
20.8495
 30
0.0
 10
-26.6121
 20
20.9163
 30
0.0
 10
-26.6121
 20
20.9163
 30
0.0
 10
-26.7005
 20
20.9826
 30
0.0
 10
-26.7612
 20
21.0776
 30
0.0
 10
-26.7932
 20
21.2009
 30
0.0
  0
SPLINE
  5
4C
330
1F
100
AcDbEntity
  8
AXIS
 62
   250
100
AcDbSpline
210
0.0
220
0.0
230
1.0
 70
    11
 71
     3
 72
    36
 73
    32
 74
     0
 42
0.0000000001
 43
0.0000000001
 40
0.0
 40
0.0
 40
0.0
 40
0.0
 40
0.1111111111111111
 40
0.1111111111111111
 40
0.1111111111111111
 40
0.1111111111111111
 40
0.2222222222222222
 40
0.2222222222222222
 40
0.2222222222222222
 40
0.2222222222222222
 40
0.3333333333333333
 40
0.3333333333333333
 40
0.3333333333333333
 40
0.3333333333333333
 40
0.4444444444444444
 40
0.4444444444444444
 40
0.4444444444444444
 40
0.4444444444444444
 40
0.5555555555555556
 40
0.5555555555555556
 40
0.5555555555555556
 40
0.5555555555555556
 40
0.6666666666666666
 40
0.6666666666666666
 40
0.6666666666666666
 40
0.6666666666666666
 40
0.7777777777777778
 40
0.7777777777777778
 40
0.7777777777777778
 40
0.7777777777777778
 40
1.0
 40
1.0
 40
1.0
 40
1.0
 10
-27.2137
 20
21.151
 30
0.0
 10
-27.1182
 20
21.151
 30
0.0
 10
-27.0401
 20
21.182
 30
0.0
 10
-26.9794
 20
21.2432
 30
0.0
 10
-26.9794
 20
21.2432
 30
0.0
 10
-26.9188
 20
21.3048
 30
0.0
 10
-26.8882
 20
21.3848
 30
0.0
 10
-26.8882
 20
21.4831
 30
0.0
 10
-26.8882
 20
21.4831
 30
0.0
 10
-26.8882
 20
21.5786
 30
0.0
 10
-26.9183
 20
21.6571
 30
0.0
 10
-26.9785
 20
21.7183
 30
0.0
 10
-26.9785
 20
21.7183
 30
0.0
 10
-27.0387
 20
21.7794
 30
0.0
 10
-27.1126
 20
21.8095
 30
0.0
 10
-27.1996
 20
21.8095
 30
0.0
 10
-27.1996
 20
21.8095
 30
0.0
 10
-27.2908
 20
21.8095
 30
0.0
 10
-27.367
 20
21.7785
 30
0.0
 10
-27.4291
 20
21.7154
 30
0.0
 10
-27.4291
 20
21.7154
 30
0.0
 10
-27.4912
 20
21.6524
 30
0.0
 10
-27.5223
 20
21.5743
 30
0.0
 10
-27.5223
 20
21.4803
 30
0.0
 10
-27.5223
 20
21.4803
 30
0.0
 10
-27.5223
 20
21.3857
 30
0.0
 10
-27.4917
 20
21.3072
 30
0.0
 10
-27.4315
 20
21.2446
 30
0.0
 10
-27.4315
 20
21.2446
 30
0.0
 10
-27.3708
 20
21.182
 30
0.0
 10
-27.2979
 20
21.151
 30
0.0
 10
-27.2137
 20
21.151
 30
0.0
  0
SPLINE
  5
4D
330
1F
100
AcDbEntity
  8
AXIS
 62
   250
100
AcDbSpline
210
0.0
220
0.0
230
1.0
 70
    11
 71
     3
 72
    40
 73
    36
 74
     0
 42
0.0000000001
 43
0.0000000001
 40
0.0
 40
0.0
 40
0.0
 40
0.0
 40
0.1
 40
0.1
 40
0.1
 40
0.1
 40
0.2
 40
0.2
 40
0.2
 40
0.2
 40
0.3
 40
0.3
 40
0.3
 40
0.3
 40
0.4
 40
0.4
 40
0.4
 40
0.4
 40
0.5
 40
0.5
 40
0.5
 40
0.5
 40
0.6
 40
0.6
 40
0.6
 40
0.6
 40
0.7
 40
0.7
 40
0.7
 40
0.7
 40
0.8
 40
0.8
 40
0.8
 40
0.8
 40
1.0
 40
1.0
 40
1.0
 40
1.0
 10
-26.2805
 20
21.071
 30
0.0
 10
-26.2099
 20
21.071
 30
0.0
 10
-26.1413
 20
21.088
 30
0.0
 10
-26.0754
 20
21.1214
 30
0.0
 10
-26.0754
 20
21.1214
 30
0.0
 10
-26.0091
 20
21.1548
 30
0.0
 10
-25.9578
 20
21.2046
 30
0.0
 10
-25.9216
 20
21.2709
 30
0.0
 10
-25.9216
 20
21.2709
 30
0.0
 10
-25.8854
 20
21.3373
 30
0.0
 10
-25.867
 20
21.4083
 30
0.0
 10
-25.867
 20
21.4845
 30
0.0
 10
-25.867
 20
21.4845
 30
0.0
 10
-25.867
 20
21.603
 30
0.0
 10
-25.9051
 20
21.7009
 30
0.0
 10
-25.9818
 20
21.778
 30
0.0
 10
-25.9818
 20
21.778
 30
0.0
 10
-26.058
 20
21.8551
 30
0.0
 10
-26.1549
 20
21.8937
 30
0.0
 10
-26.2725
 20
21.8937
 30
0.0
 10
-26.2725
 20
21.8937
 30
0.0
 10
-26.392
 20
21.8937
 30
0.0
 10
-26.4907
 20
21.8542
 30
0.0
 10
-26.5688
 20
21.7747
 30
0.0
 10
-26.5688
 20
21.7747
 30
0.0
 10
-26.6469
 20
21.6952
 30
0.0
 10
-26.6859
 20
21.5955
 30
0.0
 10
-26.6859
 20
21.476
 30
0.0
 10
-26.6859
 20
21.476
 30
0.0
 10
-26.6859
 20
21.3594
 30
0.0
 10
-26.6474
 20
21.2629
 30
0.0
 10
-26.5702
 20
21.1863
 30
0.0
 10
-26.5702
 20
21.1863
 30
0.0
 10
-26.4926
 20
21.1096
 30
0.0
 10
-26.3962
 20
21.071
 30
0.0
 10
-26.2805
 20
21.071
 30
0.0
  0
SPLINE
  5
4E
330
1F
100
AcDbEntity
  8
AXIS
 62
   250
100
AcDbSpline
210
0.0
220
0.0
230
1.0
 70
    24
 71
     3
 72
     8
 73
     4
 74
     0
 42
0.0000000001
 43
0.0000000001
 40
0.0
 40
0.0
 40
0.0
 40
0.0
 40
1.0
 40
1.0
 40
1.0
 40
1.0
 10
-6.7876
 20
7.3589
 30
0.0
 10
-6.7876
 20
7.3589
 30
0.0
 10
-25.7164
 20
7.3589
 30
0.0
 10
-25.7164
 20
7.3589
 30
0.0
  0
SPLINE
  5
4F
330
1F
100
AcDbEntity
  8
AXIS
 62
   250
100
AcDbSpline
210
0.0
220
0.0
230
1.0
 70
    24
 71
     3
 72
     8
 73
     4
 74
     0
 42
0.0000000001
 43
0.0000000001
 40
0.0
 40
0.0
 40
0.0
 40
0.0
 40
1.0
 40
1.0
 40
1.0
 40
1.0
 10
-22.944
 20
31.7656
 30
0.0
 10
-22.944
 20
31.7656
 30
0.0
 10
-25.9076
 20
31.7656
 30
0.0
 10
-25.9076
 20
31.7656
 30
0.0
  0
SPLINE
  5
50
330
1F
100
AcDbEntity
  8
AXIS
 62
   250
100
AcDbSpline
210
0.0
220
0.0
230
1.0
 70
    24
 71
     3
 72
     8
 73
     4
 74
     0
 42
0.0000000001
 43
0.0000000001
 40
0.0
 40
0.0
 40
0.0
 40
0.0
 40
1.0
 40
1.0
 40
1.0
 40
1.0
 10
-25.1886
 20
30.7855
 30
0.0
 10
-25.1886
 20
30.7855
 30
0.0
 10
-25.1886
 20
9.114
 30
0.0
 10
-25.1886
 20
9.114
 30
0.0
  0
SPLINE
  5
51
330
1F
100
AcDbEntity
  8
AXIS
 62
   250
100
AcDbSpline
210
0.0
220
0.0
230
1.0
 70
    11
 71
     3
 72
    84
 73
    80
 74
     0
 42
0.0000000001
 43
0.0000000001
 40
0.0
 40
0.0
 40
0.0
 40
0.0
 40
0.0476190476190476
 40
0.0476190476190476
 40
0.0476190476190476
 40
0.0476190476190476
 40
0.0952380952380952
 40
0.0952380952380952
 40
0.0952380952380952
 40
0.0952380952380952
 40
0.1428571428571428
 40
0.1428571428571428
 40
0.1428571428571428
 40
0.1428571428571428
 40
0.1904761904761905
 40
0.1904761904761905
 40
0.1904761904761905
 40
0.1904761904761905
 40
0.2380952380952381
 40
0.2380952380952381
 40
0.2380952380952381
 40
0.2380952380952381
 40
0.2857142857142857
 40
0.2857142857142857
 40
0.2857142857142857
 40
0.2857142857142857
 40
0.3333333333333333
 40
0.3333333333333333
 40
0.3333333333333333
 40
0.3333333333333333
 40
0.3809523809523809
 40
0.3809523809523809
 40
0.3809523809523809
 40
0.3809523809523809
 40
0.4285714285714285
 40
0.4285714285714285
 40
0.4285714285714285
 40
0.4285714285714285
 40
0.4761904761904762
 40
0.4761904761904762
 40
0.4761904761904762
 40
0.4761904761904762
 40
0.5238095238095238
 40
0.5238095238095238
 40
0.5238095238095238
 40
0.5238095238095238
 40
0.5714285714285714
 40
0.5714285714285714
 40
0.5714285714285714
 40
0.5714285714285714
 40
0.6190476190476191
 40
0.6190476190476191
 40
0.6190476190476191
 40
0.6190476190476191
 40
0.6666666666666666
 40
0.6666666666666666
 40
0.6666666666666666
 40
0.6666666666666666
 40
0.7142857142857143
 40
0.7142857142857143
 40
0.7142857142857143
 40
0.7142857142857143
 40
0.7619047619047619
 40
0.7619047619047619
 40
0.7619047619047619
 40
0.7619047619047619
 40
0.8095238095238095
 40
0.8095238095238095
 40
0.8095238095238095
 40
0.8095238095238095
 40
0.8571428571428571
 40
0.8571428571428571
 40
0.8571428571428571
 40
0.8571428571428571
 40
0.9047619047619048
 40
0.9047619047619048
 40
0.9047619047619048
 40
0.9047619047619048
 40
1.0
 40
1.0
 40
1.0
 40
1.0
 10
19.6097
 20
13.2364
 30
0.0
 10
19.6097
 20
13.2364
 30
0.0
 10
19.3506
 20
13.4678
 30
0.0
 10
19.3506
 20
13.4678
 30
0.0
 10
19.3506
 20
13.4678
 30
0.0
 10
19.3506
 20
13.4678
 30
0.0
 10
19.4663
 20
13.6042
 30
0.0
 10
19.4663
 20
13.6042
 30
0.0
 10
19.4663
 20
13.6042
 30
0.0
 10
19.4663
 20
13.6042
 30
0.0
 10
19.7391
 20
13.362
 30
0.0
 10
19.7391
 20
13.362
 30
0.0
 10
19.7391
 20
13.362
 30
0.0
 10
19.8567
 20
13.441
 30
0.0
 10
19.9597
 20
13.4941
 30
0.0
 10
20.0476
 20
13.5219
 30
0.0
 10
20.0476
 20
13.5219
 30
0.0
 10
20.1634
 20
13.5586
 30
0.0
 10
20.2932
 20
13.5769
 30
0.0
 10
20.4362
 20
13.5769
 30
0.0
 10
20.4362
 20
13.5769
 30
0.0
 10
20.6431
 20
13.5769
 30
0.0
 10
20.8275
 20
13.5351
 30
0.0
 10
20.9888
 20
13.4513
 30
0.0
 10
20.9888
 20
13.4513
 30
0.0
 10
21.1507
 20
13.3676
 30
0.0
 10
21.2729
 20
13.2505
 30
0.0
 10
21.3557
 20
13.0995
 30
0.0
 10
21.3557
 20
13.0995
 30
0.0
 10
21.438
 20
12.948
 30
0.0
 10
21.4794
 20
12.7877
 30
0.0
 10
21.4794
 20
12.6179
 30
0.0
 10
21.4794
 20
12.6179
 30
0.0
 10
21.4794
 20
12.4909
 30
0.0
 10
21.4616
 20
12.3761
 30
0.0
 10
21.4258
 20
12.2731
 30
0.0
 10
21.4258
 20
12.2731
 30
0.0
 10
21.3981
 20
12.1941
 30
0.0
 10
21.3454
 20
12.1019
 30
0.0
 10
21.2673
 20
11.996
 30
0.0
 10
21.2673
 20
11.996
 30
0.0
 10
21.2673
 20
11.996
 30
0.0
 10
21.5265
 20
11.7646
 30
0.0
 10
21.5265
 20
11.7646
 30
0.0
 10
21.5265
 20
11.7646
 30
0.0
 10
21.5265
 20
11.7646
 30
0.0
 10
21.4108
 20
11.6282
 30
0.0
 10
21.4108
 20
11.6282
 30
0.0
 10
21.4108
 20
11.6282
 30
0.0
 10
21.4108
 20
11.6282
 30
0.0
 10
21.1394
 20
11.8709
 30
0.0
 10
21.1394
 20
11.8709
 30
0.0
 10
21.1394
 20
11.8709
 30
0.0
 10
21.0025
 20
11.7806
 30
0.0
 10
20.8854
 20
11.7204
 30
0.0
 10
20.7885
 20
11.6903
 30
0.0
 10
20.7885
 20
11.6903
 30
0.0
 10
20.6916
 20
11.6602
 30
0.0
 10
20.5749
 20
11.6447
 30
0.0
 10
20.439
 20
11.6447
 30
0.0
 10
20.439
 20
11.6447
 30
0.0
 10
20.2316
 20
11.6447
 30
0.0
 10
20.0467
 20
11.6861
 30
0.0
 10
19.8844
 20
11.7688
 30
0.0
 10
19.8844
 20
11.7688
 30
0.0
 10
19.7221
 20
11.8516
 30
0.0
 10
19.5994
 20
11.9673
 30
0.0
 10
19.5157
 20
12.1169
 30
0.0
 10
19.5157
 20
12.1169
 30
0.0
 10
19.4324
 20
12.266
 30
0.0
 10
19.3905
 20
12.4321
 30
0.0
 10
19.3905
 20
12.615
 30
0.0
 10
19.3905
 20
12.615
 30
0.0
 10
19.3905
 20
12.7383
 30
0.0
 10
19.4065
 20
12.846
 30
0.0
 10
19.4395
 20
12.9382
 30
0.0
 10
19.4395
 20
12.9382
 30
0.0
 10
19.4719
 20
13.0304
 30
0.0
 10
19.5288
 20
13.1301
 30
0.0
 10
19.6097
 20
13.2364
 30
0.0
  0
SPLINE
  5
52
330
1F
100
AcDbEntity
  8
AXIS
 62
   250
100
AcDbSpline
210
0.0
220
0.0
230
1.0
 70
    11
 71
     3
 72
    32
 73
    28
 74
     0
 42
0.0000000001
 43
0.0000000001
 40
0.0
 40
0.0
 40
0.0
 40
0.0
 40
0.125
 40
0.125
 40
0.125
 40
0.125
 40
0.25
 40
0.25
 40
0.25
 40
0.25
 40
0.375
 40
0.375
 40
0.375
 40
0.375
 40
0.5
 40
0.5
 40
0.5
 40
0.5
 40
0.625
 40
0.625
 40
0.625
 40
0.625
 40
0.75
 40
0.75
 40
0.75
 40
0.75
 40
1.0
 40
1.0
 40
1.0
 40
1.0
 10
19.7955
 20
13.0713
 30
0.0
 10
19.7278
 20
12.9847
 30
0.0
 10
19.6812
 20
12.909
 30
0.0
 10
19.6563
 20
12.8446
 30
0.0
 10
19.6563
 20
12.8446
 30
0.0
 10
19.6318
 20
12.7797
 30
0.0
 10
19.6191
 20
12.7035
 30
0.0
 10
19.6191
 20
12.6164
 30
0.0
 10
19.6191
 20
12.6164
 30
0.0
 10
19.6191
 20
12.4151
 30
0.0
 10
19.6873
 20
12.2491
 30
0.0
 10
19.8237
 20
12.1174
 30
0.0
 10
19.8237
 20
12.1174
 30
0.0
 10
19.9602
 20
11.9861
 30
0.0
 10
20.1638
 20
11.9203
 30
0.0
 10
20.4352
 20
11.9203
 30
0.0
 10
20.4352
 20
11.9203
 30
0.0
 10
20.5415
 20
11.9203
 30
0.0
 10
20.6361
 20
11.9306
 30
0.0
 10
20.7189
 20
11.9509
 30
0.0
 10
20.7189
 20
11.9509
 30
0.0
 10
20.7805
 20
11.9655
 30
0.0
 10
20.8562
 20
11.996
 30
0.0
 10
20.946
 20
12.0431
 30
0.0
 10
20.946
 20
12.0431
 30
0.0
 10
20.946
 20
12.0431
 30
0.0
 10
19.7955
 20
13.0713
 30
0.0
 10
19.7955
 20
13.0713
 30
0.0
  0
SPLINE
  5
53
330
1F
100
AcDbEntity
  8
AXIS
 62
   250
100
AcDbSpline
210
0.0
220
0.0
230
1.0
 70
    11
 71
     3
 72
    28
 73
    24
 74
     0
 42
0.0000000001
 43
0.0000000001
 40
0.0
 40
0.0
 40
0.0
 40
0.0
 40
0.1428571428571428
 40
0.1428571428571428
 40
0.1428571428571428
 40
0.1428571428571428
 40
0.2857142857142857
 40
0.2857142857142857
 40
0.2857142857142857
 40
0.2857142857142857
 40
0.4285714285714285
 40
0.4285714285714285
 40
0.4285714285714285
 40
0.4285714285714285
 40
0.5714285714285714
 40
0.5714285714285714
 40
0.5714285714285714
 40
0.5714285714285714
 40
0.7142857142857143
 40
0.7142857142857143
 40
0.7142857142857143
 40
0.7142857142857143
 40
1.0
 40
1.0
 40
1.0
 40
1.0
 10
19.9376
 20
13.1842
 30
0.0
 10
19.9376
 20
13.1842
 30
0.0
 10
21.0839
 20
12.1602
 30
0.0
 10
21.0839
 20
12.1602
 30
0.0
 10
21.0839
 20
12.1602
 30
0.0
 10
21.1417
 20
12.2307
 30
0.0
 10
21.1822
 20
12.2961
 30
0.0
 10
21.2052
 20
12.3559
 30
0.0
 10
21.2052
 20
12.3559
 30
0.0
 10
21.2358
 20
12.4339
 30
0.0
 10
21.2508
 20
12.5186
 30
0.0
 10
21.2508
 20
12.6094
 30
0.0
 10
21.2508
 20
12.6094
 30
0.0
 10
21.2508
 20
12.8098
 30
0.0
 10
21.1803
 20
12.9749
 30
0.0
 10
21.0387
 20
13.1056
 30
0.0
 10
21.0387
 20
13.1056
 30
0.0
 10
20.8971
 20
13.2359
 30
0.0
 10
20.6986
 20
13.3013
 30
0.0
 10
20.4432
 20
13.3013
 30
0.0
 10
20.4432
 20
13.3013
 30
0.0
 10
20.2523
 20
13.3013
 30
0.0
 10
20.0834
 20
13.2623
 30
0.0
 10
19.9376
 20
13.1842
 30
0.0
  0
SPLINE
  5
54
330
1F
100
AcDbEntity
  8
AXIS
 62
   250
100
AcDbSpline
210
0.0
220
0.0
230
1.0
 70
    11
 71
     3
 72
    92
 73
    88
 74
     0
 42
0.0000000001
 43
0.0000000001
 40
0.0
 40
0.0
 40
0.0
 40
0.0
 40
0.0434782608695652
 40
0.0434782608695652
 40
0.0434782608695652
 40
0.0434782608695652
 40
0.0869565217391304
 40
0.0869565217391304
 40
0.0869565217391304
 40
0.0869565217391304
 40
0.1304347826086956
 40
0.1304347826086956
 40
0.1304347826086956
 40
0.1304347826086956
 40
0.1739130434782609
 40
0.1739130434782609
 40
0.1739130434782609
 40
0.1739130434782609
 40
0.2173913043478261
 40
0.2173913043478261
 40
0.2173913043478261
 40
0.2173913043478261
 40
0.2608695652173913
 40
0.2608695652173913
 40
0.2608695652173913
 40
0.2608695652173913
 40
0.3043478260869565
 40
0.3043478260869565
 40
0.3043478260869565
 40
0.3043478260869565
 40
0.3478260869565217
 40
0.3478260869565217
 40
0.3478260869565217
 40
0.3478260869565217
 40
0.391304347826087
 40
0.391304347826087
 40
0.391304347826087
 40
0.391304347826087
 40
0.4347826086956522
 40
0.4347826086956522
 40
0.4347826086956522
 40
0.4347826086956522
 40
0.4782608695652174
 40
0.4782608695652174
 40
0.4782608695652174
 40
0.4782608695652174
 40
0.5217391304347826
 40
0.5217391304347826
 40
0.5217391304347826
 40
0.5217391304347826
 40
0.5652173913043478
 40
0.5652173913043478
 40
0.5652173913043478
 40
0.5652173913043478
 40
0.6086956521739131
 40
0.6086956521739131
 40
0.6086956521739131
 40
0.6086956521739131
 40
0.6521739130434783
 40
0.6521739130434783
 40
0.6521739130434783
 40
0.6521739130434783
 40
0.6956521739130435
 40
0.6956521739130435
 40
0.6956521739130435
 40
0.6956521739130435
 40
0.7391304347826086
 40
0.7391304347826086
 40
0.7391304347826086
 40
0.7391304347826086
 40
0.782608695652174
 40
0.782608695652174
 40
0.782608695652174
 40
0.782608695652174
 40
0.8260869565217391
 40
0.8260869565217391
 40
0.8260869565217391
 40
0.8260869565217391
 40
0.8695652173913043
 40
0.8695652173913043
 40
0.8695652173913043
 40
0.8695652173913043
 40
0.9130434782608695
 40
0.9130434782608695
 40
0.9130434782608695
 40
0.9130434782608695
 40
1.0
 40
1.0
 40
1.0
 40
1.0
 10
20.9159
 20
13.8262
 30
0.0
 10
20.9159
 20
13.8262
 30
0.0
 10
20.8938
 20
14.0868
 30
0.0
 10
20.8938
 20
14.0868
 30
0.0
 10
20.8938
 20
14.0868
 30
0.0
 10
21.0208
 20
14.1061
 30
0.0
 10
21.1158
 20
14.1508
 30
0.0
 10
21.1798
 20
14.2209
 30
0.0
 10
21.1798
 20
14.2209
 30
0.0
 10
21.2438
 20
14.2914
 30
0.0
 10
21.2758
 20
14.3761
 30
0.0
 10
21.2758
 20
14.4753
 30
0.0
 10
21.2758
 20
14.4753
 30
0.0
 10
21.2758
 20
14.5948
 30
0.0
 10
21.2306
 20
14.6959
 30
0.0
 10
21.1408
 20
14.7782
 30
0.0
 10
21.1408
 20
14.7782
 30
0.0
 10
21.0505
 20
14.861
 30
0.0
 10
20.931
 20
14.9024
 30
0.0
 10
20.7824
 20
14.9024
 30
0.0
 10
20.7824
 20
14.9024
 30
0.0
 10
20.6408
 20
14.9024
 30
0.0
 10
20.5293
 20
14.8629
 30
0.0
 10
20.4475
 20
14.7834
 30
0.0
 10
20.4475
 20
14.7834
 30
0.0
 10
20.3656
 20
14.7039
 30
0.0
 10
20.3247
 20
14.6
 30
0.0
 10
20.3247
 20
14.4711
 30
0.0
 10
20.3247
 20
14.4711
 30
0.0
 10
20.3247
 20
14.3911
 30
0.0
 10
20.343
 20
14.3192
 30
0.0
 10
20.3792
 20
14.2547
 30
0.0
 10
20.3792
 20
14.2547
 30
0.0
 10
20.4155
 20
14.1903
 30
0.0
 10
20.4625
 20
14.14
 30
0.0
 10
20.5204
 20
14.1033
 30
0.0
 10
20.5204
 20
14.1033
 30
0.0
 10
20.5204
 20
14.1033
 30
0.0
 10
20.4903
 20
13.8704
 30
0.0
 10
20.4903
 20
13.8704
 30
0.0
 10
20.4903
 20
13.8704
 30
0.0
 10
20.4903
 20
13.8704
 30
0.0
 10
19.4526
 20
14.0661
 30
0.0
 10
19.4526
 20
14.0661
 30
0.0
 10
19.4526
 20
14.0661
 30
0.0
 10
19.4526
 20
14.0661
 30
0.0
 10
19.4526
 20
15.0708
 30
0.0
 10
19.4526
 20
15.0708
 30
0.0
 10
19.4526
 20
15.0708
 30
0.0
 10
19.4526
 20
15.0708
 30
0.0
 10
19.6897
 20
15.0708
 30
0.0
 10
19.6897
 20
15.0708
 30
0.0
 10
19.6897
 20
15.0708
 30
0.0
 10
19.6897
 20
15.0708
 30
0.0
 10
19.6897
 20
14.2646
 30
0.0
 10
19.6897
 20
14.2646
 30
0.0
 10
19.6897
 20
14.2646
 30
0.0
 10
19.6897
 20
14.2646
 30
0.0
 10
20.2325
 20
14.1555
 30
0.0
 10
20.2325
 20
14.1555
 30
0.0
 10
20.2325
 20
14.1555
 30
0.0
 10
20.1478
 20
14.2768
 30
0.0
 10
20.1055
 20
14.4043
 30
0.0
 10
20.1055
 20
14.5374
 30
0.0
 10
20.1055
 20
14.5374
 30
0.0
 10
20.1055
 20
14.7138
 30
0.0
 10
20.1666
 20
14.8624
 30
0.0
 10
20.2889
 20
14.9838
 30
0.0
 10
20.2889
 20
14.9838
 30
0.0
 10
20.4112
 20
15.1051
 30
0.0
 10
20.5683
 20
15.1658
 30
0.0
 10
20.7602
 20
15.1658
 30
0.0
 10
20.7602
 20
15.1658
 30
0.0
 10
20.9432
 20
15.1658
 30
0.0
 10
21.1013
 20
15.1122
 30
0.0
 10
21.2344
 20
15.0059
 30
0.0
 10
21.2344
 20
15.0059
 30
0.0
 10
21.3976
 20
14.8761
 30
0.0
 10
21.4794
 20
14.6992
 30
0.0
 10
21.4794
 20
14.4753
 30
0.0
 10
21.4794
 20
14.4753
 30
0.0
 10
21.4794
 20
14.2914
 30
0.0
 10
21.4282
 20
14.1414
 30
0.0
 10
21.3252
 20
14.0252
 30
0.0
 10
21.3252
 20
14.0252
 30
0.0
 10
21.2221
 20
13.909
 30
0.0
 10
21.0857
 20
13.8427
 30
0.0
 10
20.9159
 20
13.8262
 30
0.0
  0
SPLINE
  5
55
330
1F
100
AcDbEntity
  8
AXIS
 62
   250
100
AcDbSpline
210
0.0
220
0.0
230
1.0
 70
    11
 71
     3
 72
    52
 73
    48
 74
     0
 42
0.0000000001
 43
0.0000000001
 40
0.0
 40
0.0
 40
0.0
 40
0.0
 40
0.0769230769230769
 40
0.0769230769230769
 40
0.0769230769230769
 40
0.0769230769230769
 40
0.1538461538461539
 40
0.1538461538461539
 40
0.1538461538461539
 40
0.1538461538461539
 40
0.2307692307692308
 40
0.2307692307692308
 40
0.2307692307692308
 40
0.2307692307692308
 40
0.3076923076923077
 40
0.3076923076923077
 40
0.3076923076923077
 40
0.3076923076923077
 40
0.3846153846153846
 40
0.3846153846153846
 40
0.3846153846153846
 40
0.3846153846153846
 40
0.4615384615384616
 40
0.4615384615384616
 40
0.4615384615384616
 40
0.4615384615384616
 40
0.5384615384615384
 40
0.5384615384615384
 40
0.5384615384615384
 40
0.5384615384615384
 40
0.6153846153846154
 40
0.6153846153846154
 40
0.6153846153846154
 40
0.6153846153846154
 40
0.6923076923076923
 40
0.6923076923076923
 40
0.6923076923076923
 40
0.6923076923076923
 40
0.7692307692307693
 40
0.7692307692307693
 40
0.7692307692307693
 40
0.7692307692307693
 40
0.8461538461538461
 40
0.8461538461538461
 40
0.8461538461538461
 40
0.8461538461538461
 40
1.0
 40
1.0
 40
1.0
 40
1.0
 10
20.4489
 20
15.3958
 30
0.0
 10
20.2099
 20
15.3958
 30
0.0
 10
20.0175
 20
15.4203
 30
0.0
 10
19.8722
 20
15.4697
 30
0.0
 10
19.8722
 20
15.4697
 30
0.0
 10
19.7264
 20
15.5186
 30
0.0
 10
19.614
 20
15.592
 30
0.0
 10
19.5349
 20
15.6889
 30
0.0
 10
19.5349
 20
15.6889
 30
0.0
 10
19.4559
 20
15.7858
 30
0.0
 10
19.4164
 20
15.9076
 30
0.0
 10
19.4164
 20
16.0543
 30
0.0
 10
19.4164
 20
16.0543
 30
0.0
 10
19.4164
 20
16.163
 30
0.0
 10
19.4385
 20
16.258
 30
0.0
 10
19.4823
 20
16.3398
 30
0.0
 10
19.4823
 20
16.3398
 30
0.0
 10
19.5255
 20
16.4217
 30
0.0
 10
19.5886
 20
16.489
 30
0.0
 10
19.6709
 20
16.5426
 30
0.0
 10
19.6709
 20
16.5426
 30
0.0
 10
19.7532
 20
16.5957
 30
0.0
 10
19.8534
 20
16.6376
 30
0.0
 10
19.9714
 20
16.6677
 30
0.0
 10
19.9714
 20
16.6677
 30
0.0
 10
20.0895
 20
16.6983
 30
0.0
 10
20.2485
 20
16.7133
 30
0.0
 10
20.4489
 20
16.7133
 30
0.0
 10
20.4489
 20
16.7133
 30
0.0
 10
20.6859
 20
16.7133
 30
0.0
 10
20.8769
 20
16.6889
 30
0.0
 10
21.0227
 20
16.6404
 30
0.0
 10
21.0227
 20
16.6404
 30
0.0
 10
21.1685
 20
16.5915
 30
0.0
 10
21.2809
 20
16.5186
 30
0.0
 10
21.3604
 20
16.4217
 30
0.0
 10
21.3604
 20
16.4217
 30
0.0
 10
21.4399
 20
16.3248
 30
0.0
 10
21.4794
 20
16.2025
 30
0.0
 10
21.4794
 20
16.0543
 30
0.0
 10
21.4794
 20
16.0543
 30
0.0
 10
21.4794
 20
15.8596
 30
0.0
 10
21.4098
 20
15.7067
 30
0.0
 10
21.2701
 20
15.5957
 30
0.0
 10
21.2701
 20
15.5957
 30
0.0
 10
21.1022
 20
15.4626
 30
0.0
 10
20.828
 20
15.3958
 30
0.0
 10
20.4489
 20
15.3958
 30
0.0
  0
SPLINE
  5
56
330
1F
100
AcDbEntity
  8
AXIS
 62
   250
100
AcDbSpline
210
0.0
220
0.0
230
1.0
 70
    11
 71
     3
 72
    36
 73
    32
 74
     0
 42
0.0000000001
 43
0.0000000001
 40
0.0
 40
0.0
 40
0.0
 40
0.0
 40
0.1111111111111111
 40
0.1111111111111111
 40
0.1111111111111111
 40
0.1111111111111111
 40
0.2222222222222222
 40
0.2222222222222222
 40
0.2222222222222222
 40
0.2222222222222222
 40
0.3333333333333333
 40
0.3333333333333333
 40
0.3333333333333333
 40
0.3333333333333333
 40
0.4444444444444444
 40
0.4444444444444444
 40
0.4444444444444444
 40
0.4444444444444444
 40
0.5555555555555556
 40
0.5555555555555556
 40
0.5555555555555556
 40
0.5555555555555556
 40
0.6666666666666666
 40
0.6666666666666666
 40
0.6666666666666666
 40
0.6666666666666666
 40
0.7777777777777778
 40
0.7777777777777778
 40
0.7777777777777778
 40
0.7777777777777778
 40
1.0
 40
1.0
 40
1.0
 40
1.0
 10
20.4489
 20
15.6508
 30
0.0
 10
20.7805
 20
15.6508
 30
0.0
 10
21.0011
 20
15.6898
 30
0.0
 10
21.1111
 20
15.7674
 30
0.0
 10
21.1111
 20
15.7674
 30
0.0
 10
21.2207
 20
15.845
 30
0.0
 10
21.2758
 20
15.9405
 30
0.0
 10
21.2758
 20
16.0543
 30
0.0
 10
21.2758
 20
16.0543
 30
0.0
 10
21.2758
 20
16.1686
 30
0.0
 10
21.2203
 20
16.2641
 30
0.0
 10
21.1102
 20
16.3417
 30
0.0
 10
21.1102
 20
16.3417
 30
0.0
 10
21.0001
 20
16.4193
 30
0.0
 10
20.7795
 20
16.4584
 30
0.0
 10
20.4489
 20
16.4584
 30
0.0
 10
20.4489
 20
16.4584
 30
0.0
 10
20.1163
 20
16.4584
 30
0.0
 10
19.8952
 20
16.4193
 30
0.0
 10
19.7861
 20
16.3417
 30
0.0
 10
19.7861
 20
16.3417
 30
0.0
 10
19.6765
 20
16.2641
 30
0.0
 10
19.622
 20
16.1677
 30
0.0
 10
19.622
 20
16.052
 30
0.0
 10
19.622
 20
16.052
 30
0.0
 10
19.622
 20
15.9377
 30
0.0
 10
19.6704
 20
15.8469
 30
0.0
 10
19.7668
 20
15.7787
 30
0.0
 10
19.7668
 20
15.7787
 30
0.0
 10
19.8896
 20
15.6936
 30
0.0
 10
20.1173
 20
15.6508
 30
0.0
 10
20.4489
 20
15.6508
 30
0.0
  0
SPLINE
  5
57
330
1F
100
AcDbEntity
  8
AXIS
 62
   250
100
AcDbSpline
210
0.0
220
0.0
230
1.0
 70
    24
 71
     3
 72
     8
 73
     4
 74
     0
 42
0.0000000001
 43
0.0000000001
 40
0.0
 40
0.0
 40
0.0
 40
0.0
 40
1.0
 40
1.0
 40
1.0
 40
1.0
 10
16.2699
 20
7.3589
 30
0.0
 10
16.2699
 20
7.3589
 30
0.0
 10
23.0145
 20
7.3589
 30
0.0
 10
23.0145
 20
7.3589
 30
0.0
  0
SPLINE
  5
58
330
1F
100
AcDbEntity
  8
AXIS
 62
   250
100
AcDbSpline
210
0.0
220
0.0
230
1.0
 70
    24
 71
     3
 72
     8
 73
     4
 74
     0
 42
0.0000000001
 43
0.0000000001
 40
0.0
 40
0.0
 40
0.0
 40
0.0
 40
1.0
 40
1.0
 40
1.0
 40
1.0
 10
16.2699
 20
19.8753
 30
0.0
 10
16.2699
 20
19.8753
 30
0.0
 10
22.9755
 20
19.8753
 30
0.0
 10
22.9755
 20
19.8753
 30
0.0
  0
SPLINE
  5
59
330
1F
100
AcDbEntity
  8
AXIS
 62
   250
100
AcDbSpline
210
0.0
220
0.0
230
1.0
 70
    24
 71
     3
 72
     8
 73
     4
 74
     0
 42
0.0000000001
 43
0.0000000001
 40
0.0
 40
0.0
 40
0.0
 40
0.0
 40
1.0
 40
1.0
 40
1.0
 40
1.0
 10
22.4317
 20
8.0305
 30
0.0
 10
22.4317
 20
8.0305
 30
0.0
 10
22.4317
 20
19.4067
 30
0.0
 10
22.4317
 20
19.4067
 30
0.0
  0
SPLINE
  5
5A
330
1F
100
AcDbEntity
  8
AXIS
 62
   250
100
AcDbSpline
210
0.0
220
0.0
230
1.0
 70
    11
 71
     3
 72
    84
 73
    80
 74
     0
 42
0.0000000001
 43
0.0000000001
 40
0.0
 40
0.0
 40
0.0
 40
0.0
 40
0.0476190476190476
 40
0.0476190476190476
 40
0.0476190476190476
 40
0.0476190476190476
 40
0.0952380952380952
 40
0.0952380952380952
 40
0.0952380952380952
 40
0.0952380952380952
 40
0.1428571428571428
 40
0.1428571428571428
 40
0.1428571428571428
 40
0.1428571428571428
 40
0.1904761904761905
 40
0.1904761904761905
 40
0.1904761904761905
 40
0.1904761904761905
 40
0.2380952380952381
 40
0.2380952380952381
 40
0.2380952380952381
 40
0.2380952380952381
 40
0.2857142857142857
 40
0.2857142857142857
 40
0.2857142857142857
 40
0.2857142857142857
 40
0.3333333333333333
 40
0.3333333333333333
 40
0.3333333333333333
 40
0.3333333333333333
 40
0.3809523809523809
 40
0.3809523809523809
 40
0.3809523809523809
 40
0.3809523809523809
 40
0.4285714285714285
 40
0.4285714285714285
 40
0.4285714285714285
 40
0.4285714285714285
 40
0.4761904761904762
 40
0.4761904761904762
 40
0.4761904761904762
 40
0.4761904761904762
 40
0.5238095238095238
 40
0.5238095238095238
 40
0.5238095238095238
 40
0.5238095238095238
 40
0.5714285714285714
 40
0.5714285714285714
 40
0.5714285714285714
 40
0.5714285714285714
 40
0.6190476190476191
 40
0.6190476190476191
 40
0.6190476190476191
 40
0.6190476190476191
 40
0.6666666666666666
 40
0.6666666666666666
 40
0.6666666666666666
 40
0.6666666666666666
 40
0.7142857142857143
 40
0.7142857142857143
 40
0.7142857142857143
 40
0.7142857142857143
 40
0.7619047619047619
 40
0.7619047619047619
 40
0.7619047619047619
 40
0.7619047619047619
 40
0.8095238095238095
 40
0.8095238095238095
 40
0.8095238095238095
 40
0.8095238095238095
 40
0.8571428571428571
 40
0.8571428571428571
 40
0.8571428571428571
 40
0.8571428571428571
 40
0.9047619047619048
 40
0.9047619047619048
 40
0.9047619047619048
 40
0.9047619047619048
 40
1.0
 40
1.0
 40
1.0
 40
1.0
 10
-4.5828
 20
38.929
 30
0.0
 10
-4.5828
 20
38.929
 30
0.0
 10
-4.3514
 20
39.1881
 30
0.0
 10
-4.3514
 20
39.1881
 30
0.0
 10
-4.3514
 20
39.1881
 30
0.0
 10
-4.3514
 20
39.1881
 30
0.0
 10
-4.215
 20
39.0724
 30
0.0
 10
-4.215
 20
39.0724
 30
0.0
 10
-4.215
 20
39.0724
 30
0.0
 10
-4.215
 20
39.0724
 30
0.0
 10
-4.4572
 20
38.7996
 30
0.0
 10
-4.4572
 20
38.7996
 30
0.0
 10
-4.4572
 20
38.7996
 30
0.0
 10
-4.3782
 20
38.682
 30
0.0
 10
-4.3251
 20
38.579
 30
0.0
 10
-4.2973
 20
38.4911
 30
0.0
 10
-4.2973
 20
38.4911
 30
0.0
 10
-4.2606
 20
38.3753
 30
0.0
 10
-4.2423
 20
38.2455
 30
0.0
 10
-4.2423
 20
38.1025
 30
0.0
 10
-4.2423
 20
38.1025
 30
0.0
 10
-4.2423
 20
37.8956
 30
0.0
 10
-4.2841
 20
37.7112
 30
0.0
 10
-4.3679
 20
37.5499
 30
0.0
 10
-4.3679
 20
37.5499
 30
0.0
 10
-4.4516
 20
37.388
 30
0.0
 10
-4.5687
 20
37.2658
 30
0.0
 10
-4.7197
 20
37.183
 30
0.0
 10
-4.7197
 20
37.183
 30
0.0
 10
-4.8712
 20
37.1007
 30
0.0
 10
-5.0315
 20
37.0593
 30
0.0
 10
-5.2013
 20
37.0593
 30
0.0
 10
-5.2013
 20
37.0593
 30
0.0
 10
-5.3283
 20
37.0593
 30
0.0
 10
-5.4431
 20
37.0771
 30
0.0
 10
-5.5461
 20
37.1129
 30
0.0
 10
-5.5461
 20
37.1129
 30
0.0
 10
-5.6251
 20
37.1406
 30
0.0
 10
-5.7173
 20
37.1933
 30
0.0
 10
-5.8232
 20
37.2714
 30
0.0
 10
-5.8232
 20
37.2714
 30
0.0
 10
-5.8232
 20
37.2714
 30
0.0
 10
-6.0546
 20
37.0122
 30
0.0
 10
-6.0546
 20
37.0122
 30
0.0
 10
-6.0546
 20
37.0122
 30
0.0
 10
-6.0546
 20
37.0122
 30
0.0
 10
-6.191
 20
37.1279
 30
0.0
 10
-6.191
 20
37.1279
 30
0.0
 10
-6.191
 20
37.1279
 30
0.0
 10
-6.191
 20
37.1279
 30
0.0
 10
-5.9483
 20
37.3993
 30
0.0
 10
-5.9483
 20
37.3993
 30
0.0
 10
-5.9483
 20
37.3993
 30
0.0
 10
-6.0386
 20
37.5362
 30
0.0
 10
-6.0988
 20
37.6533
 30
0.0
 10
-6.1289
 20
37.7502
 30
0.0
 10
-6.1289
 20
37.7502
 30
0.0
 10
-6.159
 20
37.8471
 30
0.0
 10
-6.1745
 20
37.9638
 30
0.0
 10
-6.1745
 20
38.0997
 30
0.0
 10
-6.1745
 20
38.0997
 30
0.0
 10
-6.1745
 20
38.3071
 30
0.0
 10
-6.1331
 20
38.492
 30
0.0
 10
-6.0504
 20
38.6543
 30
0.0
 10
-6.0504
 20
38.6543
 30
0.0
 10
-5.9676
 20
38.8166
 30
0.0
 10
-5.8519
 20
38.9393
 30
0.0
 10
-5.7023
 20
39.023
 30
0.0
 10
-5.7023
 20
39.023
 30
0.0
 10
-5.5532
 20
39.1063
 30
0.0
 10
-5.3871
 20
39.1482
 30
0.0
 10
-5.2042
 20
39.1482
 30
0.0
 10
-5.2042
 20
39.1482
 30
0.0
 10
-5.0809
 20
39.1482
 30
0.0
 10
-4.9732
 20
39.1322
 30
0.0
 10
-4.881
 20
39.0992
 30
0.0
 10
-4.881
 20
39.0992
 30
0.0
 10
-4.7888
 20
39.0668
 30
0.0
 10
-4.6891
 20
39.0099
 30
0.0
 10
-4.5828
 20
38.929
 30
0.0
  0
SPLINE
  5
5B
330
1F
100
AcDbEntity
  8
AXIS
 62
   250
100
AcDbSpline
210
0.0
220
0.0
230
1.0
 70
    11
 71
     3
 72
    32
 73
    28
 74
     0
 42
0.0000000001
 43
0.0000000001
 40
0.0
 40
0.0
 40
0.0
 40
0.0
 40
0.125
 40
0.125
 40
0.125
 40
0.125
 40
0.25
 40
0.25
 40
0.25
 40
0.25
 40
0.375
 40
0.375
 40
0.375
 40
0.375
 40
0.5
 40
0.5
 40
0.5
 40
0.5
 40
0.625
 40
0.625
 40
0.625
 40
0.625
 40
0.75
 40
0.75
 40
0.75
 40
0.75
 40
1.0
 40
1.0
 40
1.0
 40
1.0
 10
-4.7479
 20
38.7432
 30
0.0
 10
-4.8345
 20
38.8109
 30
0.0
 10
-4.9102
 20
38.8575
 30
0.0
 10
-4.9746
 20
38.8824
 30
0.0
 10
-4.9746
 20
38.8824
 30
0.0
 10
-5.0395
 20
38.9069
 30
0.0
 10
-5.1157
 20
38.9196
 30
0.0
 10
-5.2028
 20
38.9196
 30
0.0
 10
-5.2028
 20
38.9196
 30
0.0
 10
-5.4041
 20
38.9196
 30
0.0
 10
-5.5701
 20
38.8514
 30
0.0
 10
-5.7018
 20
38.715
 30
0.0
 10
-5.7018
 20
38.715
 30
0.0
 10
-5.8331
 20
38.5785
 30
0.0
 10
-5.8989
 20
38.3749
 30
0.0
 10
-5.8989
 20
38.1035
 30
0.0
 10
-5.8989
 20
38.1035
 30
0.0
 10
-5.8989
 20
37.9972
 30
0.0
 10
-5.8886
 20
37.9026
 30
0.0
 10
-5.8683
 20
37.8198
 30
0.0
 10
-5.8683
 20
37.8198
 30
0.0
 10
-5.8537
 20
37.7582
 30
0.0
 10
-5.8232
 20
37.6825
 30
0.0
 10
-5.7761
 20
37.5927
 30
0.0
 10
-5.7761
 20
37.5927
 30
0.0
 10
-5.7761
 20
37.5927
 30
0.0
 10
-4.7479
 20
38.7432
 30
0.0
 10
-4.7479
 20
38.7432
 30
0.0
  0
SPLINE
  5
5C
330
1F
100
AcDbEntity
  8
AXIS
 62
   250
100
AcDbSpline
210
0.0
220
0.0
230
1.0
 70
    11
 71
     3
 72
    28
 73
    24
 74
     0
 42
0.0000000001
 43
0.0000000001
 40
0.0
 40
0.0
 40
0.0
 40
0.0
 40
0.1428571428571428
 40
0.1428571428571428
 40
0.1428571428571428
 40
0.1428571428571428
 40
0.2857142857142857
 40
0.2857142857142857
 40
0.2857142857142857
 40
0.2857142857142857
 40
0.4285714285714285
 40
0.4285714285714285
 40
0.4285714285714285
 40
0.4285714285714285
 40
0.5714285714285714
 40
0.5714285714285714
 40
0.5714285714285714
 40
0.5714285714285714
 40
0.7142857142857143
 40
0.7142857142857143
 40
0.7142857142857143
 40
0.7142857142857143
 40
1.0
 40
1.0
 40
1.0
 40
1.0
 10
-4.635
 20
38.6011
 30
0.0
 10
-4.635
 20
38.6011
 30
0.0
 10
-5.659
 20
37.4548
 30
0.0
 10
-5.659
 20
37.4548
 30
0.0
 10
-5.659
 20
37.4548
 30
0.0
 10
-5.5885
 20
37.397
 30
0.0
 10
-5.5231
 20
37.3565
 30
0.0
 10
-5.4633
 20
37.3335
 30
0.0
 10
-5.4633
 20
37.3335
 30
0.0
 10
-5.3853
 20
37.3029
 30
0.0
 10
-5.3006
 20
37.2879
 30
0.0
 10
-5.2098
 20
37.2879
 30
0.0
 10
-5.2098
 20
37.2879
 30
0.0
 10
-5.0094
 20
37.2879
 30
0.0
 10
-4.8443
 20
37.3584
 30
0.0
 10
-4.7136
 20
37.5
 30
0.0
 10
-4.7136
 20
37.5
 30
0.0
 10
-4.5833
 20
37.6416
 30
0.0
 10
-4.5179
 20
37.8401
 30
0.0
 10
-4.5179
 20
38.0955
 30
0.0
 10
-4.5179
 20
38.0955
 30
0.0
 10
-4.5179
 20
38.2864
 30
0.0
 10
-4.5569
 20
38.4553
 30
0.0
 10
-4.635
 20
38.6011
 30
0.0
  0
SPLINE
  5
5D
330
1F
100
AcDbEntity
  8
AXIS
 62
   250
100
AcDbSpline
210
0.0
220
0.0
230
1.0
 70
    11
 71
     3
 72
    40
 73
    36
 74
     0
 42
0.0000000001
 43
0.0000000001
 40
0.0
 40
0.0
 40
0.0
 40
0.0
 40
0.1
 40
0.1
 40
0.1
 40
0.1
 40
0.2
 40
0.2
 40
0.2
 40
0.2
 40
0.3
 40
0.3
 40
0.3
 40
0.3
 40
0.4
 40
0.4
 40
0.4
 40
0.4
 40
0.5
 40
0.5
 40
0.5
 40
0.5
 40
0.6
 40
0.6
 40
0.6
 40
0.6
 40
0.7
 40
0.7
 40
0.7
 40
0.7
 40
0.8
 40
0.8
 40
0.8
 40
0.8
 40
1.0
 40
1.0
 40
1.0
 40
1.0
 10
-3.0588
 20
37.0936
 30
0.0
 10
-3.0588
 20
37.0936
 30
0.0
 10
-3.3067
 20
37.0936
 30
0.0
 10
-3.3067
 20
37.0936
 30
0.0
 10
-3.3067
 20
37.0936
 30
0.0
 10
-3.3067
 20
37.0936
 30
0.0
 10
-3.3067
 20
38.674
 30
0.0
 10
-3.3067
 20
38.674
 30
0.0
 10
-3.3067
 20
38.674
 30
0.0
 10
-3.3665
 20
38.6171
 30
0.0
 10
-3.4445
 20
38.5602
 30
0.0
 10
-3.5414
 20
38.5033
 30
0.0
 10
-3.5414
 20
38.5033
 30
0.0
 10
-3.6388
 20
38.4464
 30
0.0
 10
-3.7258
 20
38.4036
 30
0.0
 10
-3.803
 20
38.3753
 30
0.0
 10
-3.803
 20
38.3753
 30
0.0
 10
-3.803
 20
38.3753
 30
0.0
 10
-3.803
 20
38.6148
 30
0.0
 10
-3.803
 20
38.6148
 30
0.0
 10
-3.803
 20
38.6148
 30
0.0
 10
-3.6642
 20
38.6801
 30
0.0
 10
-3.5428
 20
38.7592
 30
0.0
 10
-3.4389
 20
38.8518
 30
0.0
 10
-3.4389
 20
38.8518
 30
0.0
 10
-3.3354
 20
38.945
 30
0.0
 10
-3.2616
 20
39.0348
 30
0.0
 10
-3.2183
 20
39.1223
 30
0.0
 10
-3.2183
 20
39.1223
 30
0.0
 10
-3.2183
 20
39.1223
 30
0.0
 10
-3.0588
 20
39.1223
 30
0.0
 10
-3.0588
 20
39.1223
 30
0.0
 10
-3.0588
 20
39.1223
 30
0.0
 10
-3.0588
 20
39.1223
 30
0.0
 10
-3.0588
 20
37.0936
 30
0.0
 10
-3.0588
 20
37.0936
 30
0.0
  0
SPLINE
  5
5E
330
1F
100
AcDbEntity
  8
AXIS
 62
   250
100
AcDbSpline
210
0.0
220
0.0
230
1.0
 70
    11
 71
     3
 72
   124
 73
   120
 74
     0
 42
0.0000000001
 43
0.0000000001
 40
0.0
 40
0.0
 40
0.0
 40
0.0
 40
0.032258064516129
 40
0.032258064516129
 40
0.032258064516129
 40
0.032258064516129
 40
0.0645161290322581
 40
0.0645161290322581
 40
0.0645161290322581
 40
0.0645161290322581
 40
0.0967741935483871
 40
0.0967741935483871
 40
0.0967741935483871
 40
0.0967741935483871
 40
0.1290322580645161
 40
0.1290322580645161
 40
0.1290322580645161
 40
0.1290322580645161
 40
0.1612903225806452
 40
0.1612903225806452
 40
0.1612903225806452
 40
0.1612903225806452
 40
0.1935483870967742
 40
0.1935483870967742
 40
0.1935483870967742
 40
0.1935483870967742
 40
0.2258064516129032
 40
0.2258064516129032
 40
0.2258064516129032
 40
0.2258064516129032
 40
0.2580645161290323
 40
0.2580645161290323
 40
0.2580645161290323
 40
0.2580645161290323
 40
0.2903225806451613
 40
0.2903225806451613
 40
0.2903225806451613
 40
0.2903225806451613
 40
0.3225806451612903
 40
0.3225806451612903
 40
0.3225806451612903
 40
0.3225806451612903
 40
0.3548387096774194
 40
0.3548387096774194
 40
0.3548387096774194
 40
0.3548387096774194
 40
0.3870967741935484
 40
0.3870967741935484
 40
0.3870967741935484
 40
0.3870967741935484
 40
0.4193548387096774
 40
0.4193548387096774
 40
0.4193548387096774
 40
0.4193548387096774
 40
0.4516129032258064
 40
0.4516129032258064
 40
0.4516129032258064
 40
0.4516129032258064
 40
0.4838709677419355
 40
0.4838709677419355
 40
0.4838709677419355
 40
0.4838709677419355
 40
0.5161290322580645
 40
0.5161290322580645
 40
0.5161290322580645
 40
0.5161290322580645
 40
0.5483870967741935
 40
0.5483870967741935
 40
0.5483870967741935
 40
0.5483870967741935
 40
0.5806451612903226
 40
0.5806451612903226
 40
0.5806451612903226
 40
0.5806451612903226
 40
0.6129032258064516
 40
0.6129032258064516
 40
0.6129032258064516
 40
0.6129032258064516
 40
0.6451612903225806
 40
0.6451612903225806
 40
0.6451612903225806
 40
0.6451612903225806
 40
0.6774193548387096
 40
0.6774193548387096
 40
0.6774193548387096
 40
0.6774193548387096
 40
0.7096774193548387
 40
0.7096774193548387
 40
0.7096774193548387
 40
0.7096774193548387
 40
0.7419354838709677
 40
0.7419354838709677
 40
0.7419354838709677
 40
0.7419354838709677
 40
0.7741935483870968
 40
0.7741935483870968
 40
0.7741935483870968
 40
0.7741935483870968
 40
0.8064516129032258
 40
0.8064516129032258
 40
0.8064516129032258
 40
0.8064516129032258
 40
0.8387096774193549
 40
0.8387096774193549
 40
0.8387096774193549
 40
0.8387096774193549
 40
0.8709677419354839
 40
0.8709677419354839
 40
0.8709677419354839
 40
0.8709677419354839
 40
0.9032258064516129
 40
0.9032258064516129
 40
0.9032258064516129
 40
0.9032258064516129
 40
0.9354838709677419
 40
0.9354838709677419
 40
0.9354838709677419
 40
0.9354838709677419
 40
1.0
 40
1.0
 40
1.0
 40
1.0
 10
-2.422
 20
37.627
 30
0.0
 10
-2.422
 20
37.627
 30
0.0
 10
-2.1741
 20
37.6599
 30
0.0
 10
-2.1741
 20
37.6599
 30
0.0
 10
-2.1741
 20
37.6599
 30
0.0
 10
-2.1454
 20
37.5193
 30
0.0
 10
-2.0969
 20
37.4182
 30
0.0
 10
-2.0287
 20
37.3561
 30
0.0
 10
-2.0287
 20
37.3561
 30
0.0
 10
-1.9601
 20
37.294
 30
0.0
 10
-1.8768
 20
37.2629
 30
0.0
 10
-1.7785
 20
37.2629
 30
0.0
 10
-1.7785
 20
37.2629
 30
0.0
 10
-1.6619
 20
37.2629
 30
0.0
 10
-1.5631
 20
37.3034
 30
0.0
 10
-1.4826
 20
37.3843
 30
0.0
 10
-1.4826
 20
37.3843
 30
0.0
 10
-1.4027
 20
37.4652
 30
0.0
 10
-1.3622
 20
37.5654
 30
0.0
 10
-1.3622
 20
37.6849
 30
0.0
 10
-1.3622
 20
37.6849
 30
0.0
 10
-1.3622
 20
37.7987
 30
0.0
 10
-1.3994
 20
37.8928
 30
0.0
 10
-1.4737
 20
37.9666
 30
0.0
 10
-1.4737
 20
37.9666
 30
0.0
 10
-1.5485
 20
38.0404
 30
0.0
 10
-1.643
 20
38.0776
 30
0.0
 10
-1.7578
 20
38.0776
 30
0.0
 10
-1.7578
 20
38.0776
 30
0.0
 10
-1.8048
 20
38.0776
 30
0.0
 10
-1.8632
 20
38.0682
 30
0.0
 10
-1.9328
 20
38.0499
 30
0.0
 10
-1.9328
 20
38.0499
 30
0.0
 10
-1.9328
 20
38.0499
 30
0.0
 10
-1.905
 20
38.2676
 30
0.0
 10
-1.905
 20
38.2676
 30
0.0
 10
-1.905
 20
38.2676
 30
0.0
 10
-1.8886
 20
38.2658
 30
0.0
 10
-1.8754
 20
38.2648
 30
0.0
 10
-1.8651
 20
38.2648
 30
0.0
 10
-1.8651
 20
38.2648
 30
0.0
 10
-1.7597
 20
38.2648
 30
0.0
 10
-1.6647
 20
38.2926
 30
0.0
 10
-1.58
 20
38.3476
 30
0.0
 10
-1.58
 20
38.3476
 30
0.0
 10
-1.4953
 20
38.4026
 30
0.0
 10
-1.453
 20
38.4878
 30
0.0
 10
-1.453
 20
38.6025
 30
0.0
 10
-1.453
 20
38.6025
 30
0.0
 10
-1.453
 20
38.6933
 30
0.0
 10
-1.4841
 20
38.769
 30
0.0
 10
-1.5457
 20
38.8283
 30
0.0
 10
-1.5457
 20
38.8283
 30
0.0
 10
-1.6073
 20
38.888
 30
0.0
 10
-1.6868
 20
38.9182
 30
0.0
 10
-1.7842
 20
38.9182
 30
0.0
 10
-1.7842
 20
38.9182
 30
0.0
 10
-1.8806
 20
38.9182
 30
0.0
 10
-1.961
 20
38.8876
 30
0.0
 10
-2.025
 20
38.8274
 30
0.0
 10
-2.025
 20
38.8274
 30
0.0
 10
-2.0894
 20
38.7667
 30
0.0
 10
-2.1308
 20
38.6754
 30
0.0
 10
-2.1492
 20
38.5541
 30
0.0
 10
-2.1492
 20
38.5541
 30
0.0
 10
-2.1492
 20
38.5541
 30
0.0
 10
-2.397
 20
38.5983
 30
0.0
 10
-2.397
 20
38.5983
 30
0.0
 10
-2.397
 20
38.5983
 30
0.0
 10
-2.3669
 20
38.7648
 30
0.0
 10
-2.2978
 20
38.8937
 30
0.0
 10
-2.1905
 20
38.9849
 30
0.0
 10
-2.1905
 20
38.9849
 30
0.0
 10
-2.0828
 20
39.0762
 30
0.0
 10
-1.9492
 20
39.1223
 30
0.0
 10
-1.7893
 20
39.1223
 30
0.0
 10
-1.7893
 20
39.1223
 30
0.0
 10
-1.6793
 20
39.1223
 30
0.0
 10
-1.5777
 20
39.0983
 30
0.0
 10
-1.485
 20
39.0513
 30
0.0
 10
-1.485
 20
39.0513
 30
0.0
 10
-1.3923
 20
39.0038
 30
0.0
 10
-1.3213
 20
38.9393
 30
0.0
 10
-1.2719
 20
38.8575
 30
0.0
 10
-1.2719
 20
38.8575
 30
0.0
 10
-1.223
 20
38.7756
 30
0.0
 10
-1.1981
 20
38.6891
 30
0.0
 10
-1.1981
 20
38.5969
 30
0.0
 10
-1.1981
 20
38.5969
 30
0.0
 10
-1.1981
 20
38.5099
 30
0.0
 10
-1.2216
 20
38.4304
 30
0.0
 10
-1.2686
 20
38.3584
 30
0.0
 10
-1.2686
 20
38.3584
 30
0.0
 10
-1.3157
 20
38.2869
 30
0.0
 10
-1.3848
 20
38.23
 30
0.0
 10
-1.4765
 20
38.1877
 30
0.0
 10
-1.4765
 20
38.1877
 30
0.0
 10
-1.3571
 20
38.1604
 30
0.0
 10
-1.2644
 20
38.103
 30
0.0
 10
-1.1981
 20
38.016
 30
0.0
 10
-1.1981
 20
38.016
 30
0.0
 10
-1.1322
 20
37.9294
 30
0.0
 10
-1.0993
 20
37.8208
 30
0.0
 10
-1.0993
 20
37.6905
 30
0.0
 10
-1.0993
 20
37.6905
 30
0.0
 10
-1.0993
 20
37.5141
 30
0.0
 10
-1.1633
 20
37.3645
 30
0.0
 10
-1.2921
 20
37.2418
 30
0.0
 10
-1.2921
 20
37.2418
 30
0.0
 10
-1.4206
 20
37.119
 30
0.0
 10
-1.5833
 20
37.0579
 30
0.0
 10
-1.7799
 20
37.0579
 30
0.0
 10
-1.7799
 20
37.0579
 30
0.0
 10
-1.9572
 20
37.0579
 30
0.0
 10
-2.1045
 20
37.1105
 30
0.0
 10
-2.2216
 20
37.2164
 30
0.0
 10
-2.2216
 20
37.2164
 30
0.0
 10
-2.3387
 20
37.3217
 30
0.0
 10
-2.4055
 20
37.4586
 30
0.0
 10
-2.422
 20
37.627
 30
0.0
  0
SPLINE
  5
5F
330
1F
100
AcDbEntity
  8
AXIS
 62
   250
100
AcDbSpline
210
0.0
220
0.0
230
1.0
 70
    11
 71
     3
 72
    52
 73
    48
 74
     0
 42
0.0000000001
 43
0.0000000001
 40
0.0
 40
0.0
 40
0.0
 40
0.0
 40
0.0769230769230769
 40
0.0769230769230769
 40
0.0769230769230769
 40
0.0769230769230769
 40
0.1538461538461539
 40
0.1538461538461539
 40
0.1538461538461539
 40
0.1538461538461539
 40
0.2307692307692308
 40
0.2307692307692308
 40
0.2307692307692308
 40
0.2307692307692308
 40
0.3076923076923077
 40
0.3076923076923077
 40
0.3076923076923077
 40
0.3076923076923077
 40
0.3846153846153846
 40
0.3846153846153846
 40
0.3846153846153846
 40
0.3846153846153846
 40
0.4615384615384616
 40
0.4615384615384616
 40
0.4615384615384616
 40
0.4615384615384616
 40
0.5384615384615384
 40
0.5384615384615384
 40
0.5384615384615384
 40
0.5384615384615384
 40
0.6153846153846154
 40
0.6153846153846154
 40
0.6153846153846154
 40
0.6153846153846154
 40
0.6923076923076923
 40
0.6923076923076923
 40
0.6923076923076923
 40
0.6923076923076923
 40
0.7692307692307693
 40
0.7692307692307693
 40
0.7692307692307693
 40
0.7692307692307693
 40
0.8461538461538461
 40
0.8461538461538461
 40
0.8461538461538461
 40
0.8461538461538461
 40
1.0
 40
1.0
 40
1.0
 40
1.0
 10
-0.8538
 20
38.0898
 30
0.0
 10
-0.8538
 20
38.3288
 30
0.0
 10
-0.8293
 20
38.5212
 30
0.0
 10
-0.7799
 20
38.6665
 30
0.0
 10
-0.7799
 20
38.6665
 30
0.0
 10
-0.731
 20
38.8123
 30
0.0
 10
-0.6576
 20
38.9247
 30
0.0
 10
-0.5607
 20
39.0038
 30
0.0
 10
-0.5607
 20
39.0038
 30
0.0
 10
-0.4638
 20
39.0828
 30
0.0
 10
-0.342
 20
39.1223
 30
0.0
 10
-0.1953
 20
39.1223
 30
0.0
 10
-0.1953
 20
39.1223
 30
0.0
 10
-0.0866
 20
39.1223
 30
0.0
 10
0.0084
 20
39.1002
 30
0.0
 10
0.0902
 20
39.0564
 30
0.0
 10
0.0902
 20
39.0564
 30
0.0
 10
0.1721
 20
39.0132
 30
0.0
 10
0.2394
 20
38.9501
 30
0.0
 10
0.293
 20
38.8678
 30
0.0
 10
0.293
 20
38.8678
 30
0.0
 10
0.3461
 20
38.7855
 30
0.0
 10
0.388
 20
38.6853
 30
0.0
 10
0.4181
 20
38.5673
 30
0.0
 10
0.4181
 20
38.5673
 30
0.0
 10
0.4487
 20
38.4492
 30
0.0
 10
0.4637
 20
38.2902
 30
0.0
 10
0.4637
 20
38.0898
 30
0.0
 10
0.4637
 20
38.0898
 30
0.0
 10
0.4637
 20
37.8528
 30
0.0
 10
0.4393
 20
37.6618
 30
0.0
 10
0.3908
 20
37.516
 30
0.0
 10
0.3908
 20
37.516
 30
0.0
 10
0.3419
 20
37.3702
 30
0.0
 10
0.269
 20
37.2578
 30
0.0
 10
0.1721
 20
37.1783
 30
0.0
 10
0.1721
 20
37.1783
 30
0.0
 10
0.0752
 20
37.0988
 30
0.0
 10
-0.0471
 20
37.0593
 30
0.0
 10
-0.1953
 20
37.0593
 30
0.0
 10
-0.1953
 20
37.0593
 30
0.0
 10
-0.39
 20
37.0593
 30
0.0
 10
-0.5429
 20
37.1289
 30
0.0
 10
-0.6539
 20
37.2686
 30
0.0
 10
-0.6539
 20
37.2686
 30
0.0
 10
-0.787
 20
37.4365
 30
0.0
 10
-0.8538
 20
37.7107
 30
0.0
 10
-0.8538
 20
38.0898
 30
0.0
  0
SPLINE
  5
60
330
1F
100
AcDbEntity
  8
AXIS
 62
   250
100
AcDbSpline
210
0.0
220
0.0
230
1.0
 70
    11
 71
     3
 72
    36
 73
    32
 74
     0
 42
0.0000000001
 43
0.0000000001
 40
0.0
 40
0.0
 40
0.0
 40
0.0
 40
0.1111111111111111
 40
0.1111111111111111
 40
0.1111111111111111
 40
0.1111111111111111
 40
0.2222222222222222
 40
0.2222222222222222
 40
0.2222222222222222
 40
0.2222222222222222
 40
0.3333333333333333
 40
0.3333333333333333
 40
0.3333333333333333
 40
0.3333333333333333
 40
0.4444444444444444
 40
0.4444444444444444
 40
0.4444444444444444
 40
0.4444444444444444
 40
0.5555555555555556
 40
0.5555555555555556
 40
0.5555555555555556
 40
0.5555555555555556
 40
0.6666666666666666
 40
0.6666666666666666
 40
0.6666666666666666
 40
0.6666666666666666
 40
0.7777777777777778
 40
0.7777777777777778
 40
0.7777777777777778
 40
0.7777777777777778
 40
1.0
 40
1.0
 40
1.0
 40
1.0
 10
-0.5988
 20
38.0898
 30
0.0
 10
-0.5988
 20
37.7582
 30
0.0
 10
-0.5598
 20
37.5376
 30
0.0
 10
-0.4822
 20
37.4276
 30
0.0
 10
-0.4822
 20
37.4276
 30
0.0
 10
-0.4046
 20
37.318
 30
0.0
 10
-0.3091
 20
37.2629
 30
0.0
 10
-0.1953
 20
37.2629
 30
0.0
 10
-0.1953
 20
37.2629
 30
0.0
 10
-0.081
 20
37.2629
 30
0.0
 10
0.0145
 20
37.3184
 30
0.0
 10
0.0921
 20
37.4285
 30
0.0
 10
0.0921
 20
37.4285
 30
0.0
 10
0.1697
 20
37.5386
 30
0.0
 10
0.2088
 20
37.7592
 30
0.0
 10
0.2088
 20
38.0898
 30
0.0
 10
0.2088
 20
38.0898
 30
0.0
 10
0.2088
 20
38.4224
 30
0.0
 10
0.1697
 20
38.6435
 30
0.0
 10
0.0921
 20
38.7526
 30
0.0
 10
0.0921
 20
38.7526
 30
0.0
 10
0.0145
 20
38.8622
 30
0.0
 10
-0.0819
 20
38.9167
 30
0.0
 10
-0.1976
 20
38.9167
 30
0.0
 10
-0.1976
 20
38.9167
 30
0.0
 10
-0.3119
 20
38.9167
 30
0.0
 10
-0.4027
 20
38.8683
 30
0.0
 10
-0.4709
 20
38.7719
 30
0.0
 10
-0.4709
 20
38.7719
 30
0.0
 10
-0.556
 20
38.6491
 30
0.0
 10
-0.5988
 20
38.4214
 30
0.0
 10
-0.5988
 20
38.0898
 30
0.0
  0
SPLINE
  5
61
330
1F
100
AcDbEntity
  8
AXIS
 62
   250
100
AcDbSpline
210
0.0
220
0.0
230
1.0
 70
    24
 71
     3
 72
     8
 73
     4
 74
     0
 42
0.0000000001
 43
0.0000000001
 40
0.0
 40
0.0
 40
0.0
 40
0.0
 40
1.0
 40
1.0
 40
1.0
 40
1.0
 10
-19.9026
 20
34.6283
 30
0.0
 10
-19.9026
 20
34.6283
 30
0.0
 10
-19.9026
 20
36.806
 30
0.0
 10
-19.9026
 20
36.806
 30
0.0
  0
SPLINE
  5
62
330
1F
100
AcDbEntity
  8
AXIS
 62
   250
100
AcDbSpline
210
0.0
220
0.0
230
1.0
 70
    24
 71
     3
 72
     8
 73
     4
 74
     0
 42
0.0000000001
 43
0.0000000001
 40
0.0
 40
0.0
 40
0.0
 40
0.0
 40
1.0
 40
1.0
 40
1.0
 40
1.0
 10
12.3897
 20
34.2692
 30
0.0
 10
12.3897
 20
34.2692
 30
0.0
 10
12.3897
 20
36.806
 30
0.0
 10
12.3897
 20
36.806
 30
0.0
  0
SPLINE
  5
63
330
1F
100
AcDbEntity
  8
AXIS
 62
   250
100
AcDbSpline
210
0.0
220
0.0
230
1.0
 70
    24
 71
     3
 72
     8
 73
     4
 74
     0
 42
0.0000000001
 43
0.0000000001
 40
0.0
 40
0.0
 40
0.0
 40
0.0
 40
1.0
 40
1.0
 40
1.0
 40
1.0
 10
-18.76
 20
36.5557
 30
0.0
 10
-18.76
 20
36.5557
 30
0.0
 10
11.1079
 20
36.5557
 30
0.0
 10
11.1079
 20
36.5557
 30
0.0
  0
SPLINE
  5
64
330
1F
100
AcDbEntity
  8
AXIS
 62
   250
100
AcDbSpline
210
0.0
220
0.0
230
1.0
 70
    11
 71
     3
 72
    20
 73
    16
 74
     0
 42
0.0000000001
 43
0.0000000001
 40
0.0
 40
0.0
 40
0.0
 40
0.0
 40
0.2
 40
0.2
 40
0.2
 40
0.2
 40
0.4
 40
0.4
 40
0.4
 40
0.4
 40
0.6
 40
0.6
 40
0.6
 40
0.6
 40
1.0
 40
1.0
 40
1.0
 40
1.0
 10
-20.0528
 20
-18.9757
 30
0.0
 10
-20.0528
 20
-27.9759
 30
0.0
 10
-12.7567
 20
-35.2721
 30
0.0
 10
-3.7564
 20
-35.2721
 30
0.0
 10
-3.7564
 20
-35.2721
 30
0.0
 10
5.2438
 20
-35.2721
 30
0.0
 10
12.5399
 20
-27.9759
 30
0.0
 10
12.5399
 20
-18.9757
 30
0.0
 10
12.5399
 20
-18.9757
 30
0.0
 10
12.5399
 20
-9.9754
 30
0.0
 10
5.2438
 20
-2.6793
 30
0.0
 10
-3.7564
 20
-2.6793
 30
0.0
 10
-3.7564
 20
-2.6793
 30
0.0
 10
-12.7566
 20
-2.6793
 30
0.0
 10
-20.0528
 20
-9.9754
 30
0.0
 10
-20.0528
 20
-18.9757
 30
0.0
  0
SPLINE
  5
65
330
1F
100
AcDbEntity
  8
AXIS
 62
   250
100
AcDbSpline
210
0.0
220
0.0
230
1.0
 70
    11
 71
     3
 72
    36
 73
    32
 74
     0
 42
0.0000000001
 43
0.0000000001
 40
0.0
 40
0.0
 40
0.0
 40
0.0
 40
0.1111111111111111
 40
0.1111111111111111
 40
0.1111111111111111
 40
0.1111111111111111
 40
0.2222222222222222
 40
0.2222222222222222
 40
0.2222222222222222
 40
0.2222222222222222
 40
0.3333333333333333
 40
0.3333333333333333
 40
0.3333333333333333
 40
0.3333333333333333
 40
0.4444444444444444
 40
0.4444444444444444
 40
0.4444444444444444
 40
0.4444444444444444
 40
0.5555555555555556
 40
0.5555555555555556
 40
0.5555555555555556
 40
0.5555555555555556
 40
0.6666666666666666
 40
0.6666666666666666
 40
0.6666666666666666
 40
0.6666666666666666
 40
0.7777777777777778
 40
0.7777777777777778
 40
0.7777777777777778
 40
0.7777777777777778
 40
1.0
 40
1.0
 40
1.0
 40
1.0
 10
-22.3014
 20
-1.7402
 30
0.0
 10
-22.3014
 20
-1.0455
 30
0.0
 10
-21.7342
 20
-0.477
 30
0.0
 10
-21.041
 20
-0.477
 30
0.0
 10
-21.041
 20
-0.477
 30
0.0
 10
-21.041
 20
-0.477
 30
0.0
 10
13.5266
 20
-0.477
 30
0.0
 10
13.5266
 20
-0.477
 30
0.0
 10
13.5266
 20
-0.477
 30
0.0
 10
14.2198
 20
-0.477
 30
0.0
 10
14.787
 20
-1.0455
 30
0.0
 10
14.787
 20
-1.7402
 30
0.0
 10
14.787
 20
-1.7402
 30
0.0
 10
14.787
 20
-1.7402
 30
0.0
 10
14.787
 20
-36.2078
 30
0.0
 10
14.787
 20
-36.2078
 30
0.0
 10
14.787
 20
-36.2078
 30
0.0
 10
14.787
 20
-36.9025
 30
0.0
 10
14.2198
 20
-37.471
 30
0.0
 10
13.5266
 20
-37.471
 30
0.0
 10
13.5266
 20
-37.471
 30
0.0
 10
13.5266
 20
-37.471
 30
0.0
 10
-21.041
 20
-37.471
 30
0.0
 10
-21.041
 20
-37.471
 30
0.0
 10
-21.041
 20
-37.471
 30
0.0
 10
-21.7342
 20
-37.471
 30
0.0
 10
-22.3014
 20
-36.9025
 30
0.0
 10
-22.3014
 20
-36.2078
 30
0.0
 10
-22.3014
 20
-36.2078
 30
0.0
 10
-22.3014
 20
-36.2078
 30
0.0
 10
-22.3014
 20
-1.7402
 30
0.0
 10
-22.3014
 20
-1.7402
 30
0.0
  0
SPLINE
  5
66
330
1F
100
AcDbEntity
  8
AXIS
 62
   250
100
AcDbSpline
210
0.0
220
0.0
230
1.0
 70
    11
 71
     3
 72
    20
 73
    16
 74
     0
 42
0.0000000001
 43
0.0000000001
 40
0.0
 40
0.0
 40
0.0
 40
0.0
 40
0.2
 40
0.2
 40
0.2
 40
0.2
 40
0.4
 40
0.4
 40
0.4
 40
0.4
 40
0.6
 40
0.6
 40
0.6
 40
0.6
 40
1.0
 40
1.0
 40
1.0
 40
1.0
 10
-17.9
 20
-18.9757
 30
0.0
 10
-17.9
 20
-26.7869
 30
0.0
 10
-11.5677
 20
-33.1192
 30
0.0
 10
-3.7564
 20
-33.1192
 30
0.0
 10
-3.7564
 20
-33.1192
 30
0.0
 10
4.0549
 20
-33.1192
 30
0.0
 10
10.3871
 20
-26.7869
 30
0.0
 10
10.3871
 20
-18.9757
 30
0.0
 10
10.3871
 20
-18.9757
 30
0.0
 10
10.3871
 20
-11.1644
 30
0.0
 10
4.0549
 20
-4.8321
 30
0.0
 10
-3.7564
 20
-4.8321
 30
0.0
 10
-3.7564
 20
-4.8321
 30
0.0
 10
-11.5677
 20
-4.8321
 30
0.0
 10
-17.9
 20
-11.1644
 30
0.0
 10
-17.9
 20
-18.9757
 30
0.0
  0
SPLINE
  5
67
330
1F
100
AcDbEntity
  8
AXIS
 62
   250
100
AcDbSpline
210
0.0
220
0.0
230
1.0
 70
     8
 71
     3
 72
    24
 73
    20
 74
     0
 42
0.0000000001
 43
0.0000000001
 40
0.0
 40
0.0
 40
0.0
 40
0.0
 40
0.1666666666666667
 40
0.1666666666666667
 40
0.1666666666666667
 40
0.1666666666666667
 40
0.3333333333333333
 40
0.3333333333333333
 40
0.3333333333333333
 40
0.3333333333333333
 40
0.5
 40
0.5
 40
0.5
 40
0.5
 40
0.6666666666666666
 40
0.6666666666666666
 40
0.6666666666666666
 40
0.6666666666666666
 40
1.0
 40
1.0
 40
1.0
 40
1.0
 10
14.7679
 20
-12.7174
 30
0.0
 10
14.7679
 20
-12.7174
 30
0.0
 10
16.2698
 20
-12.7174
 30
0.0
 10
16.2698
 20
-12.7174
 30
0.0
 10
16.2698
 20
-12.7174
 30
0.0
 10
16.2698
 20
-12.7174
 30
0.0
 10
17.5302
 20
-12.9897
 30
0.0
 10
17.5302
 20
-12.9897
 30
0.0
 10
17.5302
 20
-12.9897
 30
0.0
 10
17.5302
 20
-12.9897
 30
0.0
 10
17.5302
 20
-24.9402
 30
0.0
 10
17.5302
 20
-24.9402
 30
0.0
 10
17.5302
 20
-24.9402
 30
0.0
 10
17.5302
 20
-24.9402
 30
0.0
 10
16.2738
 20
-25.22
 30
0.0
 10
16.2738
 20
-25.22
 30
0.0
 10
16.2738
 20
-25.22
 30
0.0
 10
16.2738
 20
-25.22
 30
0.0
 10
14.798
 20
-25.22
 30
0.0
 10
14.798
 20
-25.22
 30
0.0
  0
SPLINE
  5
68
330
1F
100
AcDbEntity
  8
AXIS
 62
   250
100
AcDbSpline
210
0.0
220
0.0
230
1.0
 70
     8
 71
     3
 72
     8
 73
     4
 74
     0
 42
0.0000000001
 43
0.0000000001
 40
0.0
 40
0.0
 40
0.0
 40
0.0
 40
1.0
 40
1.0
 40
1.0
 40
1.0
 10
-0.9772
 20
-28.6605
 30
0.0
 10
-0.4147
 20
-28.4991
 30
0.0
 10
0.1326
 20
-28.289
 30
0.0
 10
0.6587
 20
-28.0325
 30
0.0
  0
SPLINE
  5
69
330
1F
100
AcDbEntity
  8
AXIS
 62
   250
100
AcDbSpline
210
0.0
220
0.0
230
1.0
 70
     8
 71
     3
 72
     8
 73
     4
 74
     0
 42
0.0000000001
 43
0.0000000001
 40
0.0
 40
0.0
 40
0.0
 40
0.0
 40
1.0
 40
1.0
 40
1.0
 40
1.0
 10
-5.1567
 20
-28.9536
 30
0.0
 10
-4.5772
 20
-29.0349
 30
0.0
 10
-3.9916
 20
-29.0656
 30
0.0
 10
-3.4068
 20
-29.0453
 30
0.0
  0
SPLINE
  5
6A
330
1F
100
AcDbEntity
  8
AXIS
 62
   250
100
AcDbSpline
210
0.0
220
0.0
230
1.0
 70
     8
 71
     3
 72
     8
 73
     4
 74
     0
 42
0.0000000001
 43
0.0000000001
 40
0.0
 40
0.0
 40
0.0
 40
0.0
 40
1.0
 40
1.0
 40
1.0
 40
1.0
 10
-9.094
 20
-27.5214
 30
0.0
 10
-8.5977
 20
-27.8314
 30
0.0
 10
-8.0752
 20
-28.0976
 30
0.0
 10
-7.5327
 20
-28.317
 30
0.0
  0
SPLINE
  5
6B
330
1F
100
AcDbEntity
  8
AXIS
 62
   250
100
AcDbSpline
210
0.0
220
0.0
230
1.0
 70
     8
 71
     3
 72
     8
 73
     4
 74
     0
 42
0.0000000001
 43
0.0000000001
 40
0.0
 40
0.0
 40
0.0
 40
0.0
 40
1.0
 40
1.0
 40
1.0
 40
1.0
 10
-11.0057
 20
-25.9734
 30
0.0
 10
-11.4121
 20
-25.5523
 30
0.0
 10
-11.7811
 20
-25.0967
 30
0.0
 10
-12.1084
 20
-24.6116
 30
0.0
  0
SPLINE
  5
6C
330
1F
100
AcDbEntity
  8
AXIS
 62
   250
100
AcDbSpline
210
0.0
220
0.0
230
1.0
 70
     8
 71
     3
 72
     8
 73
     4
 74
     0
 42
0.0000000001
 43
0.0000000001
 40
0.0
 40
0.0
 40
0.0
 40
0.0
 40
1.0
 40
1.0
 40
1.0
 40
1.0
 10
-13.6787
 20
-20.7273
 30
0.0
 10
-13.577
 20
-21.3036
 30
0.0
 10
-13.4252
 20
-21.8699
 30
0.0
 10
-13.2252
 20
-22.4199
 30
0.0
  0
SPLINE
  5
6D
330
1F
100
AcDbEntity
  8
AXIS
 62
   250
100
AcDbSpline
210
0.0
220
0.0
230
1.0
 70
     8
 71
     3
 72
     8
 73
     4
 74
     0
 42
0.0000000001
 43
0.0000000001
 40
0.0
 40
0.0
 40
0.0
 40
0.0
 40
1.0
 40
1.0
 40
1.0
 40
1.0
 10
6.3132
 20
-19.3253
 30
0.0
 10
6.3336
 20
-18.7405
 30
0.0
 10
6.3029
 20
-18.1549
 30
0.0
 10
6.2215
 20
-17.5754
 30
0.0
  0
SPLINE
  5
6E
330
1F
100
AcDbEntity
  8
AXIS
 62
   250
100
AcDbSpline
210
0.0
220
0.0
230
1.0
 70
     8
 71
     3
 72
     8
 73
     4
 74
     0
 42
0.0000000001
 43
0.0000000001
 40
0.0
 40
0.0
 40
0.0
 40
0.0
 40
1.0
 40
1.0
 40
1.0
 40
1.0
 10
5.3004
 20
-23.3908
 30
0.0
 10
5.5569
 20
-22.8647
 30
0.0
 10
5.767
 20
-22.3173
 30
0.0
 10
5.9284
 20
-21.7549
 30
0.0
  0
SPLINE
  5
6F
330
1F
100
AcDbEntity
  8
AXIS
 62
   250
100
AcDbSpline
210
0.0
220
0.0
230
1.0
 70
     8
 71
     3
 72
     8
 73
     4
 74
     0
 42
0.0000000001
 43
0.0000000001
 40
0.0
 40
0.0
 40
0.0
 40
0.0
 40
1.0
 40
1.0
 40
1.0
 40
1.0
 10
2.7217
 20
-26.6928
 30
0.0
 10
3.1699
 20
-26.3165
 30
0.0
 10
3.5845
 20
-25.902
 30
0.0
 10
3.9607
 20
-25.4538
 30
0.0
  0
SPLINE
  5
70
330
1F
100
AcDbEntity
  8
AXIS
 62
   250
100
AcDbSpline
210
0.0
220
0.0
230
1.0
 70
     8
 71
     3
 72
     8
 73
     4
 74
     0
 42
0.0000000001
 43
0.0000000001
 40
0.0
 40
0.0
 40
0.0
 40
0.0
 40
1.0
 40
1.0
 40
1.0
 40
1.0
 10
5.5849
 20
-15.1994
 30
0.0
 10
5.3655
 20
-14.6568
 30
0.0
 10
5.0993
 20
-14.1344
 30
0.0
 10
4.7893
 20
-13.6381
 30
0.0
  0
SPLINE
  5
71
330
1F
100
AcDbEntity
  8
AXIS
 62
   250
100
AcDbSpline
210
0.0
220
0.0
230
1.0
 70
     8
 71
     3
 72
     8
 73
     4
 74
     0
 42
0.0000000001
 43
0.0000000001
 40
0.0
 40
0.0
 40
0.0
 40
0.0
 40
1.0
 40
1.0
 40
1.0
 40
1.0
 10
3.2413
 20
-11.7264
 30
0.0
 10
2.8202
 20
-11.32
 30
0.0
 10
2.3646
 20
-10.951
 30
0.0
 10
1.8795
 20
-10.6236
 30
0.0
  0
SPLINE
  5
72
330
1F
100
AcDbEntity
  8
AXIS
 62
   250
100
AcDbSpline
210
0.0
220
0.0
230
1.0
 70
     8
 71
     3
 72
     8
 73
     4
 74
     0
 42
0.0000000001
 43
0.0000000001
 40
0.0
 40
0.0
 40
0.0
 40
0.0
 40
1.0
 40
1.0
 40
1.0
 40
1.0
 10
-0.3122
 20
-9.5069
 30
0.0
 10
-0.8622
 20
-9.3068
 30
0.0
 10
-1.4285
 20
-9.1551
 30
0.0
 10
-2.0048
 20
-9.0533
 30
0.0
  0
SPLINE
  5
73
330
1F
100
AcDbEntity
  8
AXIS
 62
   250
100
AcDbSpline
210
0.0
220
0.0
230
1.0
 70
     8
 71
     3
 72
     8
 73
     4
 74
     0
 42
0.0000000001
 43
0.0000000001
 40
0.0
 40
0.0
 40
0.0
 40
0.0
 40
1.0
 40
1.0
 40
1.0
 40
1.0
 10
-4.4612
 20
-8.9246
 30
0.0
 10
-5.0451
 20
-8.9656
 30
0.0
 10
-5.6241
 20
-9.0573
 30
0.0
 10
-6.192
 20
-9.1987
 30
0.0
  0
SPLINE
  5
74
330
1F
100
AcDbEntity
  8
AXIS
 62
   250
100
AcDbSpline
210
0.0
220
0.0
230
1.0
 70
     8
 71
     3
 72
     8
 73
     4
 74
     0
 42
0.0000000001
 43
0.0000000001
 40
0.0
 40
0.0
 40
0.0
 40
0.0
 40
1.0
 40
1.0
 40
1.0
 40
1.0
 10
-8.4884
 20
-10.0803
 30
0.0
 10
-9.0051
 20
-10.3551
 30
0.0
 10
-9.4969
 20
-10.6745
 30
0.0
 10
-9.9581
 20
-11.0346
 30
0.0
  0
SPLINE
  5
75
330
1F
100
AcDbEntity
  8
AXIS
 62
   250
100
AcDbSpline
210
0.0
220
0.0
230
1.0
 70
     8
 71
     3
 72
     8
 73
     4
 74
     0
 42
0.0000000001
 43
0.0000000001
 40
0.0
 40
0.0
 40
0.0
 40
0.0
 40
1.0
 40
1.0
 40
1.0
 40
1.0
 10
-11.6974
 20
-12.774
 30
0.0
 10
-12.0576
 20
-13.2352
 30
0.0
 10
-12.3769
 20
-13.727
 30
0.0
 10
-12.6518
 20
-14.2436
 30
0.0
  0
SPLINE
  5
76
330
1F
100
AcDbEntity
  8
AXIS
 62
   250
100
AcDbSpline
210
0.0
220
0.0
230
1.0
 70
     8
 71
     3
 72
     8
 73
     4
 74
     0
 42
0.0000000001
 43
0.0000000001
 40
0.0
 40
0.0
 40
0.0
 40
0.0
 40
1.0
 40
1.0
 40
1.0
 40
1.0
 10
-13.5333
 20
-16.5401
 30
0.0
 10
-13.6748
 20
-17.1079
 30
0.0
 10
-13.7665
 20
-17.687
 30
0.0
 10
-13.8075
 20
-18.2708
 30
0.0
  0
SPLINE
  5
77
330
1F
100
AcDbEntity
  8
AXIS
 62
   250
100
AcDbSpline
210
0.0
220
0.0
230
1.0
 70
    27
 71
     3
 72
    12
 73
     8
 74
     0
 42
0.0000000001
 43
0.0000000001
 40
0.0
 40
0.0
 40
0.0
 40
0.0
 40
0.3333333333333333
 40
0.3333333333333333
 40
0.3333333333333333
 40
0.3333333333333333
 40
1.0
 40
1.0
 40
1.0
 40
1.0
 10
-4.3373
 20
-4.9066
 30
0.0
 10
-4.3373
 20
-4.9066
 30
0.0
 10
-4.4612
 20
-8.9246
 30
0.0
 10
-4.4612
 20
-8.9246
 30
0.0
 10
-4.4612
 20
-8.9246
 30
0.0
 10
-4.4612
 20
-8.9246
 30
0.0
 10
-4.3373
 20
-4.9066
 30
0.0
 10
-4.3373
 20
-4.9066
 30
0.0
  0
SPLINE
  5
78
330
1F
100
AcDbEntity
  8
AXIS
 62
   250
100
AcDbSpline
210
0.0
220
0.0
230
1.0
 70
    11
 71
     3
 72
    20
 73
    16
 74
     0
 42
0.0000000001
 43
0.0000000001
 40
0.0
 40
0.0
 40
0.0
 40
0.0
 40
0.2
 40
0.2
 40
0.2
 40
0.2
 40
0.4
 40
0.4
 40
0.4
 40
0.4
 40
0.6
 40
0.6
 40
0.6
 40
0.6
 40
1.0
 40
1.0
 40
1.0
 40
1.0
 10
5.2554
 20
-18.9757
 30
0.0
 10
5.2554
 20
-13.9986
 30
0.0
 10
1.2207
 20
-9.9638
 30
0.0
 10
-3.7564
 20
-9.9638
 30
0.0
 10
-3.7564
 20
-9.9638
 30
0.0
 10
-8.7335
 20
-9.9638
 30
0.0
 10
-12.7682
 20
-13.9986
 30
0.0
 10
-12.7682
 20
-18.9757
 30
0.0
 10
-12.7682
 20
-18.9757
 30
0.0
 10
-12.7682
 20
-23.9527
 30
0.0
 10
-8.7335
 20
-27.9875
 30
0.0
 10
-3.7564
 20
-27.9875
 30
0.0
 10
-3.7564
 20
-27.9875
 30
0.0
 10
1.2207
 20
-27.9875
 30
0.0
 10
5.2554
 20
-23.9527
 30
0.0
 10
5.2554
 20
-18.9757
 30
0.0
  0
SPLINE
  5
79
330
1F
100
AcDbEntity
  8
AXIS
 62
   250
100
AcDbSpline
210
0.0
220
0.0
230
1.0
 70
    27
 71
     3
 72
    12
 73
     8
 74
     0
 42
0.0000000001
 43
0.0000000001
 40
0.0
 40
0.0
 40
0.0
 40
0.0
 40
0.3333333333333333
 40
0.3333333333333333
 40
0.3333333333333333
 40
0.3333333333333333
 40
1.0
 40
1.0
 40
1.0
 40
1.0
 10
8.7181
 20
-25.5071
 30
0.0
 10
8.7181
 20
-25.5071
 30
0.0
 10
5.3004
 20
-23.3908
 30
0.0
 10
5.3004
 20
-23.3908
 30
0.0
 10
5.3004
 20
-23.3908
 30
0.0
 10
5.3004
 20
-23.3908
 30
0.0
 10
8.7181
 20
-25.5071
 30
0.0
 10
8.7181
 20
-25.5071
 30
0.0
  0
SPLINE
  5
7A
330
1F
100
AcDbEntity
  8
AXIS
 62
   250
100
AcDbSpline
210
0.0
220
0.0
230
1.0
 70
    27
 71
     3
 72
    12
 73
     8
 74
     0
 42
0.0000000001
 43
0.0000000001
 40
0.0
 40
0.0
 40
0.0
 40
0.0
 40
0.3333333333333333
 40
0.3333333333333333
 40
0.3333333333333333
 40
0.3333333333333333
 40
1.0
 40
1.0
 40
1.0
 40
1.0
 10
-12.6518
 20
-14.2436
 30
0.0
 10
-12.6518
 20
-14.2436
 30
0.0
 10
-16.3728
 20
-12.7226
 30
0.0
 10
-16.3728
 20
-12.7226
 30
0.0
 10
-16.3728
 20
-12.7226
 30
0.0
 10
-16.3728
 20
-12.7226
 30
0.0
 10
-12.6518
 20
-14.2436
 30
0.0
 10
-12.6518
 20
-14.2436
 30
0.0
  0
SPLINE
  5
7B
330
1F
100
AcDbEntity
  8
AXIS
 62
   250
100
AcDbSpline
210
0.0
220
0.0
230
1.0
 70
    27
 71
     3
 72
    12
 73
     8
 74
     0
 42
0.0000000001
 43
0.0000000001
 40
0.0
 40
0.0
 40
0.0
 40
0.0
 40
0.3333333333333333
 40
0.3333333333333333
 40
0.3333333333333333
 40
0.3333333333333333
 40
1.0
 40
1.0
 40
1.0
 40
1.0
 10
10.2962
 20
-19.8686
 30
0.0
 10
10.2962
 20
-19.8686
 30
0.0
 10
6.3132
 20
-19.3253
 30
0.0
 10
6.3132
 20
-19.3253
 30
0.0
 10
6.3132
 20
-19.3253
 30
0.0
 10
6.3132
 20
-19.3253
 30
0.0
 10
10.2962
 20
-19.8686
 30
0.0
 10
10.2962
 20
-19.8686
 30
0.0
  0
SPLINE
  5
7C
330
1F
100
AcDbEntity
  8
AXIS
 62
   250
100
AcDbSpline
210
0.0
220
0.0
230
1.0
 70
    27
 71
     3
 72
    12
 73
     8
 74
     0
 42
0.0000000001
 43
0.0000000001
 40
0.0
 40
0.0
 40
0.0
 40
0.0
 40
0.3333333333333333
 40
0.3333333333333333
 40
0.3333333333333333
 40
0.3333333333333333
 40
1.0
 40
1.0
 40
1.0
 40
1.0
 10
-13.8075
 20
-18.2708
 30
0.0
 10
-13.8075
 20
-18.2708
 30
0.0
 10
-17.8254
 20
-18.3947
 30
0.0
 10
-17.8254
 20
-18.3947
 30
0.0
 10
-17.8254
 20
-18.3947
 30
0.0
 10
-17.8254
 20
-18.3947
 30
0.0
 10
-13.8075
 20
-18.2708
 30
0.0
 10
-13.8075
 20
-18.2708
 30
0.0
  0
SPLINE
  5
7D
330
1F
100
AcDbEntity
  8
AXIS
 62
   250
100
AcDbSpline
210
0.0
220
0.0
230
1.0
 70
    27
 71
     3
 72
    12
 73
     8
 74
     0
 42
0.0000000001
 43
0.0000000001
 40
0.0
 40
0.0
 40
0.0
 40
0.0
 40
0.3333333333333333
 40
0.3333333333333333
 40
0.3333333333333333
 40
0.3333333333333333
 40
1.0
 40
1.0
 40
1.0
 40
1.0
 10
-15.6501
 20
-26.5132
 30
0.0
 10
-15.6501
 20
-26.5132
 30
0.0
 10
-12.1084
 20
-24.6116
 30
0.0
 10
-12.1084
 20
-24.6116
 30
0.0
 10
-12.1084
 20
-24.6116
 30
0.0
 10
-12.1084
 20
-24.6116
 30
0.0
 10
-15.6501
 20
-26.5132
 30
0.0
 10
-15.6501
 20
-26.5132
 30
0.0
  0
SPLINE
  5
7E
330
1F
100
AcDbEntity
  8
AXIS
 62
   250
100
AcDbSpline
210
0.0
220
0.0
230
1.0
 70
    27
 71
     3
 72
    12
 73
     8
 74
     0
 42
0.0000000001
 43
0.0000000001
 40
0.0
 40
0.0
 40
0.0
 40
0.0
 40
0.3333333333333333
 40
0.3333333333333333
 40
0.3333333333333333
 40
0.3333333333333333
 40
1.0
 40
1.0
 40
1.0
 40
1.0
 10
-0.2631
 20
-32.6164
 30
0.0
 10
-0.2631
 20
-32.6164
 30
0.0
 10
-0.9772
 20
-28.6605
 30
0.0
 10
-0.9772
 20
-28.6605
 30
0.0
 10
-0.9772
 20
-28.6605
 30
0.0
 10
-0.9772
 20
-28.6605
 30
0.0
 10
-0.2631
 20
-32.6164
 30
0.0
 10
-0.2631
 20
-32.6164
 30
0.0
  0
SPLINE
  5
7F
330
1F
100
AcDbEntity
  8
AXIS
 62
   250
100
AcDbSpline
210
0.0
220
0.0
230
1.0
 70
    27
 71
     3
 72
    12
 73
     8
 74
     0
 42
0.0000000001
 43
0.0000000001
 40
0.0
 40
0.0
 40
0.0
 40
0.0
 40
0.3333333333333333
 40
0.3333333333333333
 40
0.3333333333333333
 40
0.3333333333333333
 40
1.0
 40
1.0
 40
1.0
 40
1.0
 10
-6.192
 20
-9.1987
 30
0.0
 10
-6.192
 20
-9.1987
 30
0.0
 10
-7.5515
 20
-5.4158
 30
0.0
 10
-7.5515
 20
-5.4158
 30
0.0
 10
-7.5515
 20
-5.4158
 30
0.0
 10
-7.5515
 20
-5.4158
 30
0.0
 10
-6.192
 20
-9.1987
 30
0.0
 10
-6.192
 20
-9.1987
 30
0.0
  0
SPLINE
  5
80
330
1F
100
AcDbEntity
  8
AXIS
 62
   250
100
AcDbSpline
210
0.0
220
0.0
230
1.0
 70
    27
 71
     3
 72
    12
 73
     8
 74
     0
 42
0.0000000001
 43
0.0000000001
 40
0.0
 40
0.0
 40
0.0
 40
0.0
 40
0.3333333333333333
 40
0.3333333333333333
 40
0.3333333333333333
 40
0.3333333333333333
 40
1.0
 40
1.0
 40
1.0
 40
1.0
 10
4.9831
 20
-30.0163
 30
0.0
 10
4.9831
 20
-30.0163
 30
0.0
 10
2.7217
 20
-26.6928
 30
0.0
 10
2.7217
 20
-26.6928
 30
0.0
 10
2.7217
 20
-26.6928
 30
0.0
 10
2.7217
 20
-26.6928
 30
0.0
 10
4.9831
 20
-30.0163
 30
0.0
 10
4.9831
 20
-30.0163
 30
0.0
  0
SPLINE
  5
81
330
1F
100
AcDbEntity
  8
AXIS
 62
   250
100
AcDbSpline
210
0.0
220
0.0
230
1.0
 70
    27
 71
     3
 72
    12
 73
     8
 74
     0
 42
0.0000000001
 43
0.0000000001
 40
0.0
 40
0.0
 40
0.0
 40
0.0
 40
0.3333333333333333
 40
0.3333333333333333
 40
0.3333333333333333
 40
0.3333333333333333
 40
1.0
 40
1.0
 40
1.0
 40
1.0
 10
-9.9581
 20
-11.0346
 30
0.0
 10
-9.9581
 20
-11.0346
 30
0.0
 10
-12.7387
 20
-8.1317
 30
0.0
 10
-12.7387
 20
-8.1317
 30
0.0
 10
-12.7387
 20
-8.1317
 30
0.0
 10
-12.7387
 20
-8.1317
 30
0.0
 10
-9.9581
 20
-11.0346
 30
0.0
 10
-9.9581
 20
-11.0346
 30
0.0
  0
SPLINE
  5
82
330
1F
100
AcDbEntity
  8
AXIS
 62
   250
100
AcDbSpline
210
0.0
220
0.0
230
1.0
 70
    27
 71
     3
 72
    12
 73
     8
 74
     0
 42
0.0000000001
 43
0.0000000001
 40
0.0
 40
0.0
 40
0.0
 40
0.0
 40
0.3333333333333333
 40
0.3333333333333333
 40
0.3333333333333333
 40
0.3333333333333333
 40
1.0
 40
1.0
 40
1.0
 40
1.0
 10
-17.3163
 20
-15.1806
 30
0.0
 10
-17.3163
 20
-15.1806
 30
0.0
 10
-13.5333
 20
-16.5401
 30
0.0
 10
-13.5333
 20
-16.5401
 30
0.0
 10
-13.5333
 20
-16.5401
 30
0.0
 10
-13.5333
 20
-16.5401
 30
0.0
 10
-17.3163
 20
-15.1806
 30
0.0
 10
-17.3163
 20
-15.1806
 30
0.0
  0
SPLINE
  5
83
330
1F
100
AcDbEntity
  8
AXIS
 62
   250
100
AcDbSpline
210
0.0
220
0.0
230
1.0
 70
    27
 71
     3
 72
    12
 73
     8
 74
     0
 42
0.0000000001
 43
0.0000000001
 40
0.0
 40
0.0
 40
0.0
 40
0.0
 40
0.3333333333333333
 40
0.3333333333333333
 40
0.3333333333333333
 40
0.3333333333333333
 40
1.0
 40
1.0
 40
1.0
 40
1.0
 10
5.9284
 20
-21.7549
 30
0.0
 10
5.9284
 20
-21.7549
 30
0.0
 10
9.8844
 20
-22.4689
 30
0.0
 10
9.8844
 20
-22.4689
 30
0.0
 10
9.8844
 20
-22.4689
 30
0.0
 10
9.8844
 20
-22.4689
 30
0.0
 10
5.9284
 20
-21.7549
 30
0.0
 10
5.9284
 20
-21.7549
 30
0.0
  0
SPLINE
  5
84
330
1F
100
AcDbEntity
  8
AXIS
 62
   250
100
AcDbSpline
210
0.0
220
0.0
230
1.0
 70
    27
 71
     3
 72
    12
 73
     8
 74
     0
 42
0.0000000001
 43
0.0000000001
 40
0.0
 40
0.0
 40
0.0
 40
0.0
 40
0.3333333333333333
 40
0.3333333333333333
 40
0.3333333333333333
 40
0.3333333333333333
 40
1.0
 40
1.0
 40
1.0
 40
1.0
 10
-17.6876
 20
-21.024
 30
0.0
 10
-17.6876
 20
-21.024
 30
0.0
 10
-13.6787
 20
-20.7273
 30
0.0
 10
-13.6787
 20
-20.7273
 30
0.0
 10
-13.6787
 20
-20.7273
 30
0.0
 10
-13.6787
 20
-20.7273
 30
0.0
 10
-17.6876
 20
-21.024
 30
0.0
 10
-17.6876
 20
-21.024
 30
0.0
  0
SPLINE
  5
85
330
1F
100
AcDbEntity
  8
AXIS
 62
   250
100
AcDbSpline
210
0.0
220
0.0
230
1.0
 70
    27
 71
     3
 72
    12
 73
     8
 74
     0
 42
0.0000000001
 43
0.0000000001
 40
0.0
 40
0.0
 40
0.0
 40
0.0
 40
0.3333333333333333
 40
0.3333333333333333
 40
0.3333333333333333
 40
0.3333333333333333
 40
1.0
 40
1.0
 40
1.0
 40
1.0
 10
6.2215
 20
-17.5754
 30
0.0
 10
6.2215
 20
-17.5754
 30
0.0
 10
10.1259
 20
-16.6188
 30
0.0
 10
10.1259
 20
-16.6188
 30
0.0
 10
10.1259
 20
-16.6188
 30
0.0
 10
10.1259
 20
-16.6188
 30
0.0
 10
6.2215
 20
-17.5754
 30
0.0
 10
6.2215
 20
-17.5754
 30
0.0
  0
SPLINE
  5
86
330
1F
100
AcDbEntity
  8
AXIS
 62
   250
100
AcDbSpline
210
0.0
220
0.0
230
1.0
 70
    27
 71
     3
 72
    12
 73
     8
 74
     0
 42
0.0000000001
 43
0.0000000001
 40
0.0
 40
0.0
 40
0.0
 40
0.0
 40
0.3333333333333333
 40
0.3333333333333333
 40
0.3333333333333333
 40
0.3333333333333333
 40
1.0
 40
1.0
 40
1.0
 40
1.0
 10
9.4445
 20
-14.0756
 30
0.0
 10
9.4445
 20
-14.0756
 30
0.0
 10
5.5849
 20
-15.1994
 30
0.0
 10
5.5849
 20
-15.1994
 30
0.0
 10
5.5849
 20
-15.1994
 30
0.0
 10
5.5849
 20
-15.1994
 30
0.0
 10
9.4445
 20
-14.0756
 30
0.0
 10
9.4445
 20
-14.0756
 30
0.0
  0
SPLINE
  5
87
330
1F
100
AcDbEntity
  8
AXIS
 62
   250
100
AcDbSpline
210
0.0
220
0.0
230
1.0
 70
    27
 71
     3
 72
    12
 73
     8
 74
     0
 42
0.0000000001
 43
0.0000000001
 40
0.0
 40
0.0
 40
0.0
 40
0.0
 40
0.3333333333333333
 40
0.3333333333333333
 40
0.3333333333333333
 40
0.3333333333333333
 40
1.0
 40
1.0
 40
1.0
 40
1.0
 10
4.7893
 20
-13.6381
 30
0.0
 10
4.7893
 20
-13.6381
 30
0.0
 10
7.967
 20
-11.1761
 30
0.0
 10
7.967
 20
-11.1761
 30
0.0
 10
7.967
 20
-11.1761
 30
0.0
 10
7.967
 20
-11.1761
 30
0.0
 10
4.7893
 20
-13.6381
 30
0.0
 10
4.7893
 20
-13.6381
 30
0.0
  0
SPLINE
  5
88
330
1F
100
AcDbEntity
  8
AXIS
 62
   250
100
AcDbSpline
210
0.0
220
0.0
230
1.0
 70
    27
 71
     3
 72
    12
 73
     8
 74
     0
 42
0.0000000001
 43
0.0000000001
 40
0.0
 40
0.0
 40
0.0
 40
0.0
 40
0.3333333333333333
 40
0.3333333333333333
 40
0.3333333333333333
 40
0.3333333333333333
 40
1.0
 40
1.0
 40
1.0
 40
1.0
 10
-11.556
 20
-30.6991
 30
0.0
 10
-11.556
 20
-30.6991
 30
0.0
 10
-9.094
 20
-27.5214
 30
0.0
 10
-9.094
 20
-27.5214
 30
0.0
 10
-9.094
 20
-27.5214
 30
0.0
 10
-9.094
 20
-27.5214
 30
0.0
 10
-11.556
 20
-30.6991
 30
0.0
 10
-11.556
 20
-30.6991
 30
0.0
  0
SPLINE
  5
89
330
1F
100
AcDbEntity
  8
AXIS
 62
   250
100
AcDbSpline
210
0.0
220
0.0
230
1.0
 70
    27
 71
     3
 72
    12
 73
     8
 74
     0
 42
0.0000000001
 43
0.0000000001
 40
0.0
 40
0.0
 40
0.0
 40
0.0
 40
0.3333333333333333
 40
0.3333333333333333
 40
0.3333333333333333
 40
0.3333333333333333
 40
1.0
 40
1.0
 40
1.0
 40
1.0
 10
1.8795
 20
-10.6236
 30
0.0
 10
1.8795
 20
-10.6236
 30
0.0
 10
3.7812
 20
-7.082
 30
0.0
 10
3.7812
 20
-7.082
 30
0.0
 10
3.7812
 20
-7.082
 30
0.0
 10
3.7812
 20
-7.082
 30
0.0
 10
1.8795
 20
-10.6236
 30
0.0
 10
1.8795
 20
-10.6236
 30
0.0
  0
SPLINE
  5
8A
330
1F
100
AcDbEntity
  8
AXIS
 62
   250
100
AcDbSpline
210
0.0
220
0.0
230
1.0
 70
    27
 71
     3
 72
    12
 73
     8
 74
     0
 42
0.0000000001
 43
0.0000000001
 40
0.0
 40
0.0
 40
0.0
 40
0.0
 40
0.3333333333333333
 40
0.3333333333333333
 40
0.3333333333333333
 40
0.3333333333333333
 40
1.0
 40
1.0
 40
1.0
 40
1.0
 10
-6.1133
 20
-32.858
 30
0.0
 10
-6.1133
 20
-32.858
 30
0.0
 10
-5.1567
 20
-28.9536
 30
0.0
 10
-5.1567
 20
-28.9536
 30
0.0
 10
-5.1567
 20
-28.9536
 30
0.0
 10
-5.1567
 20
-28.9536
 30
0.0
 10
-6.1133
 20
-32.858
 30
0.0
 10
-6.1133
 20
-32.858
 30
0.0
  0
SPLINE
  5
8B
330
1F
100
AcDbEntity
  8
AXIS
 62
   250
100
AcDbSpline
210
0.0
220
0.0
230
1.0
 70
    27
 71
     3
 72
    12
 73
     8
 74
     0
 42
0.0000000001
 43
0.0000000001
 40
0.0
 40
0.0
 40
0.0
 40
0.0
 40
0.3333333333333333
 40
0.3333333333333333
 40
0.3333333333333333
 40
0.3333333333333333
 40
1.0
 40
1.0
 40
1.0
 40
1.0
 10
-2.0048
 20
-9.0533
 30
0.0
 10
-2.0048
 20
-9.0533
 30
0.0
 10
-1.7081
 20
-5.0445
 30
0.0
 10
-1.7081
 20
-5.0445
 30
0.0
 10
-1.7081
 20
-5.0445
 30
0.0
 10
-1.7081
 20
-5.0445
 30
0.0
 10
-2.0048
 20
-9.0533
 30
0.0
 10
-2.0048
 20
-9.0533
 30
0.0
  0
SPLINE
  5
8C
330
1F
100
AcDbEntity
  8
AXIS
 62
   250
100
AcDbSpline
210
0.0
220
0.0
230
1.0
 70
    27
 71
     3
 72
    12
 73
     8
 74
     0
 42
0.0000000001
 43
0.0000000001
 40
0.0
 40
0.0
 40
0.0
 40
0.0
 40
0.3333333333333333
 40
0.3333333333333333
 40
0.3333333333333333
 40
0.3333333333333333
 40
1.0
 40
1.0
 40
1.0
 40
1.0
 10
-3.4068
 20
-29.0453
 30
0.0
 10
-3.4068
 20
-29.0453
 30
0.0
 10
-2.8635
 20
-33.0283
 30
0.0
 10
-2.8635
 20
-33.0283
 30
0.0
 10
-2.8635
 20
-33.0283
 30
0.0
 10
-2.8635
 20
-33.0283
 30
0.0
 10
-3.4068
 20
-29.0453
 30
0.0
 10
-3.4068
 20
-29.0453
 30
0.0
  0
SPLINE
  5
8D
330
1F
100
AcDbEntity
  8
AXIS
 62
   250
100
AcDbSpline
210
0.0
220
0.0
230
1.0
 70
    27
 71
     3
 72
    12
 73
     8
 74
     0
 42
0.0000000001
 43
0.0000000001
 40
0.0
 40
0.0
 40
0.0
 40
0.0
 40
0.3333333333333333
 40
0.3333333333333333
 40
0.3333333333333333
 40
0.3333333333333333
 40
1.0
 40
1.0
 40
1.0
 40
1.0
 10
-10.0095
 20
-6.3592
 30
0.0
 10
-10.0095
 20
-6.3592
 30
0.0
 10
-8.4884
 20
-10.0803
 30
0.0
 10
-8.4884
 20
-10.0803
 30
0.0
 10
-8.4884
 20
-10.0803
 30
0.0
 10
-8.4884
 20
-10.0803
 30
0.0
 10
-10.0095
 20
-6.3592
 30
0.0
 10
-10.0095
 20
-6.3592
 30
0.0
  0
SPLINE
  5
8E
330
1F
100
AcDbEntity
  8
AXIS
 62
   250
100
AcDbSpline
210
0.0
220
0.0
230
1.0
 70
    27
 71
     3
 72
    12
 73
     8
 74
     0
 42
0.0000000001
 43
0.0000000001
 40
0.0
 40
0.0
 40
0.0
 40
0.0
 40
0.3333333333333333
 40
0.3333333333333333
 40
0.3333333333333333
 40
0.3333333333333333
 40
1.0
 40
1.0
 40
1.0
 40
1.0
 10
0.6587
 20
-28.0325
 30
0.0
 10
0.6587
 20
-28.0325
 30
0.0
 10
2.775
 20
-31.4502
 30
0.0
 10
2.775
 20
-31.4502
 30
0.0
 10
2.775
 20
-31.4502
 30
0.0
 10
2.775
 20
-31.4502
 30
0.0
 10
0.6587
 20
-28.0325
 30
0.0
 10
0.6587
 20
-28.0325
 30
0.0
  0
SPLINE
  5
8F
330
1F
100
AcDbEntity
  8
AXIS
 62
   250
100
AcDbSpline
210
0.0
220
0.0
230
1.0
 70
    27
 71
     3
 72
    12
 73
     8
 74
     0
 42
0.0000000001
 43
0.0000000001
 40
0.0
 40
0.0
 40
0.0
 40
0.0
 40
0.3333333333333333
 40
0.3333333333333333
 40
0.3333333333333333
 40
0.3333333333333333
 40
1.0
 40
1.0
 40
1.0
 40
1.0
 10
-14.6004
 20
-9.9934
 30
0.0
 10
-14.6004
 20
-9.9934
 30
0.0
 10
-11.6974
 20
-12.774
 30
0.0
 10
-11.6974
 20
-12.774
 30
0.0
 10
-11.6974
 20
-12.774
 30
0.0
 10
-11.6974
 20
-12.774
 30
0.0
 10
-14.6004
 20
-9.9934
 30
0.0
 10
-14.6004
 20
-9.9934
 30
0.0
  0
SPLINE
  5
90
330
1F
100
AcDbEntity
  8
AXIS
 62
   250
100
AcDbSpline
210
0.0
220
0.0
230
1.0
 70
    27
 71
     3
 72
    12
 73
     8
 74
     0
 42
0.0000000001
 43
0.0000000001
 40
0.0
 40
0.0
 40
0.0
 40
0.0
 40
0.3333333333333333
 40
0.3333333333333333
 40
0.3333333333333333
 40
0.3333333333333333
 40
1.0
 40
1.0
 40
1.0
 40
1.0
 10
3.9607
 20
-25.4538
 30
0.0
 10
3.9607
 20
-25.4538
 30
0.0
 10
7.2842
 20
-27.7152
 30
0.0
 10
7.2842
 20
-27.7152
 30
0.0
 10
7.2842
 20
-27.7152
 30
0.0
 10
7.2842
 20
-27.7152
 30
0.0
 10
3.9607
 20
-25.4538
 30
0.0
 10
3.9607
 20
-25.4538
 30
0.0
  0
SPLINE
  5
91
330
1F
100
AcDbEntity
  8
AXIS
 62
   250
100
AcDbSpline
210
0.0
220
0.0
230
1.0
 70
    27
 71
     3
 72
    12
 73
     8
 74
     0
 42
0.0000000001
 43
0.0000000001
 40
0.0
 40
0.0
 40
0.0
 40
0.0
 40
0.3333333333333333
 40
0.3333333333333333
 40
0.3333333333333333
 40
0.3333333333333333
 40
1.0
 40
1.0
 40
1.0
 40
1.0
 10
-13.2252
 20
-22.4199
 30
0.0
 10
-13.2252
 20
-22.4199
 30
0.0
 10
-16.8453
 20
-24.1674
 30
0.0
 10
-16.8453
 20
-24.1674
 30
0.0
 10
-16.8453
 20
-24.1674
 30
0.0
 10
-16.8453
 20
-24.1674
 30
0.0
 10
-13.2252
 20
-22.4199
 30
0.0
 10
-13.2252
 20
-22.4199
 30
0.0
  0
SPLINE
  5
92
330
1F
100
AcDbEntity
  8
AXIS
 62
   250
100
AcDbSpline
210
0.0
220
0.0
230
1.0
 70
    27
 71
     3
 72
    12
 73
     8
 74
     0
 42
0.0000000001
 43
0.0000000001
 40
0.0
 40
0.0
 40
0.0
 40
0.0
 40
0.3333333333333333
 40
0.3333333333333333
 40
0.3333333333333333
 40
0.3333333333333333
 40
1.0
 40
1.0
 40
1.0
 40
1.0
 10
6.3102
 20
-9.13
 30
0.0
 10
6.3102
 20
-9.13
 30
0.0
 10
3.2413
 20
-11.7264
 30
0.0
 10
3.2413
 20
-11.7264
 30
0.0
 10
3.2413
 20
-11.7264
 30
0.0
 10
3.2413
 20
-11.7264
 30
0.0
 10
6.3102
 20
-9.13
 30
0.0
 10
6.3102
 20
-9.13
 30
0.0
  0
SPLINE
  5
93
330
1F
100
AcDbEntity
  8
AXIS
 62
   250
100
AcDbSpline
210
0.0
220
0.0
230
1.0
 70
    27
 71
     3
 72
    12
 73
     8
 74
     0
 42
0.0000000001
 43
0.0000000001
 40
0.0
 40
0.0
 40
0.0
 40
0.0
 40
0.3333333333333333
 40
0.3333333333333333
 40
0.3333333333333333
 40
0.3333333333333333
 40
1.0
 40
1.0
 40
1.0
 40
1.0
 10
-11.0057
 20
-25.9734
 30
0.0
 10
-11.0057
 20
-25.9734
 30
0.0
 10
-13.6021
 20
-29.0423
 30
0.0
 10
-13.6021
 20
-29.0423
 30
0.0
 10
-13.6021
 20
-29.0423
 30
0.0
 10
-13.6021
 20
-29.0423
 30
0.0
 10
-11.0057
 20
-25.9734
 30
0.0
 10
-11.0057
 20
-25.9734
 30
0.0
  0
SPLINE
  5
94
330
1F
100
AcDbEntity
  8
AXIS
 62
   250
100
AcDbSpline
210
0.0
220
0.0
230
1.0
 70
    27
 71
     3
 72
    12
 73
     8
 74
     0
 42
0.0000000001
 43
0.0000000001
 40
0.0
 40
0.0
 40
0.0
 40
0.0
 40
0.3333333333333333
 40
0.3333333333333333
 40
0.3333333333333333
 40
0.3333333333333333
 40
1.0
 40
1.0
 40
1.0
 40
1.0
 10
1.4353
 20
-5.8867
 30
0.0
 10
1.4353
 20
-5.8867
 30
0.0
 10
-0.3122
 20
-9.5069
 30
0.0
 10
-0.3122
 20
-9.5069
 30
0.0
 10
-0.3122
 20
-9.5069
 30
0.0
 10
-0.3122
 20
-9.5069
 30
0.0
 10
1.4353
 20
-5.8867
 30
0.0
 10
1.4353
 20
-5.8867
 30
0.0
  0
SPLINE
  5
95
330
1F
100
AcDbEntity
  8
AXIS
 62
   250
100
AcDbSpline
210
0.0
220
0.0
230
1.0
 70
    27
 71
     3
 72
    12
 73
     8
 74
     0
 42
0.0000000001
 43
0.0000000001
 40
0.0
 40
0.0
 40
0.0
 40
0.0
 40
0.3333333333333333
 40
0.3333333333333333
 40
0.3333333333333333
 40
0.3333333333333333
 40
1.0
 40
1.0
 40
1.0
 40
1.0
 10
-7.5327
 20
-28.317
 30
0.0
 10
-7.5327
 20
-28.317
 30
0.0
 10
-8.6564
 20
-32.1766
 30
0.0
 10
-8.6564
 20
-32.1766
 30
0.0
 10
-8.6564
 20
-32.1766
 30
0.0
 10
-8.6564
 20
-32.1766
 30
0.0
 10
-7.5327
 20
-28.317
 30
0.0
 10
-7.5327
 20
-28.317
 30
0.0
  0
SPLINE
  5
96
330
1F
100
AcDbEntity
  8
AXIS
 62
   250
100
AcDbSpline
210
0.0
220
0.0
230
1.0
 70
     8
 71
     3
 72
    16
 73
    12
 74
     0
 42
0.0000000001
 43
0.0000000001
 40
0.0
 40
0.0
 40
0.0
 40
0.0
 40
0.25
 40
0.25
 40
0.25
 40
0.25
 40
0.5
 40
0.5
 40
0.5
 40
0.5
 40
1.0
 40
1.0
 40
1.0
 40
1.0
 10
4.9831
 20
32.9986
 30
0.0
 10
4.9831
 20
32.9986
 30
0.0
 10
4.1362
 20
32.5438
 30
0.0
 10
4.1362
 20
32.5438
 30
0.0
 10
4.1362
 20
32.5438
 30
0.0
 10
4.1362
 20
32.5438
 30
0.0
 10
3.3857
 20
32.141
 30
0.0
 10
3.3857
 20
32.141
 30
0.0
 10
3.3857
 20
32.141
 30
0.0
 10
3.3857
 20
32.141
 30
0.0
 10
2.7217
 20
31.7849
 30
0.0
 10
2.7217
 20
31.7849
 30
0.0
  0
SPLINE
  5
97
330
1F
100
AcDbEntity
  8
AXIS
 62
   250
100
AcDbSpline
210
0.0
220
0.0
230
1.0
 70
    11
 71
     3
 72
    20
 73
    16
 74
     0
 42
0.0000000001
 43
0.0000000001
 40
0.0
 40
0.0
 40
0.0
 40
0.0
 40
0.2
 40
0.2
 40
0.2
 40
0.2
 40
0.4
 40
0.4
 40
0.4
 40
0.4
 40
0.6
 40
0.6
 40
0.6
 40
0.6
 40
1.0
 40
1.0
 40
1.0
 40
1.0
 10
-19.9796
 20
34.2932
 30
0.0
 10
-19.9796
 20
34.2932
 30
0.0
 10
12.4176
 20
34.2932
 30
0.0
 10
12.4176
 20
34.2932
 30
0.0
 10
12.4176
 20
34.2932
 30
0.0
 10
12.4176
 20
34.2932
 30
0.0
 10
12.4176
 20
32.9798
 30
0.0
 10
12.4176
 20
32.9798
 30
0.0
 10
12.4176
 20
32.9798
 30
0.0
 10
12.4176
 20
32.9798
 30
0.0
 10
-19.9796
 20
32.9798
 30
0.0
 10
-19.9796
 20
32.9798
 30
0.0
 10
-19.9796
 20
32.9798
 30
0.0
 10
-19.9796
 20
32.9798
 30
0.0
 10
-19.9796
 20
34.2932
 30
0.0
 10
-19.9796
 20
34.2932
 30
0.0
  0
SPLINE
  5
98
330
1F
100
AcDbEntity
  8
AXIS
 62
   250
100
AcDbSpline
210
0.0
220
0.0
230
1.0
 70
     8
 71
     3
 72
    16
 73
    12
 74
     0
 42
0.0000000001
 43
0.0000000001
 40
0.0
 40
0.0
 40
0.0
 40
0.0
 40
0.25
 40
0.25
 40
0.25
 40
0.25
 40
0.5
 40
0.5
 40
0.5
 40
0.5
 40
1.0
 40
1.0
 40
1.0
 40
1.0
 10
0.6587
 20
31.7849
 30
0.0
 10
0.6587
 20
31.7849
 30
0.0
 10
1.2795
 20
32.1406
 30
0.0
 10
1.2795
 20
32.1406
 30
0.0
 10
1.2795
 20
32.1406
 30
0.0
 10
1.2795
 20
32.1406
 30
0.0
 10
1.9818
 20
32.5435
 30
0.0
 10
1.9818
 20
32.5435
 30
0.0
 10
1.9818
 20
32.5435
 30
0.0
 10
1.9818
 20
32.5435
 30
0.0
 10
2.775
 20
32.9986
 30
0.0
 10
2.775
 20
32.9986
 30
0.0
  0
SPLINE
  5
99
330
1F
100
AcDbEntity
  8
AXIS
 62
   250
100
AcDbSpline
210
0.0
220
0.0
230
1.0
 70
     8
 71
     3
 72
    16
 73
    12
 74
     0
 42
0.0000000001
 43
0.0000000001
 40
0.0
 40
0.0
 40
0.0
 40
0.0
 40
0.25
 40
0.25
 40
0.25
 40
0.25
 40
0.5
 40
0.5
 40
0.5
 40
0.5
 40
1.0
 40
1.0
 40
1.0
 40
1.0
 10
-17.6876
 20
32.9986
 30
0.0
 10
-17.6876
 20
32.9986
 30
0.0
 10
-16.1864
 20
32.5438
 30
0.0
 10
-16.1864
 20
32.5438
 30
0.0
 10
-16.1864
 20
32.5438
 30
0.0
 10
-16.1864
 20
32.5438
 30
0.0
 10
-14.8558
 20
32.141
 30
0.0
 10
-14.8558
 20
32.141
 30
0.0
 10
-14.8558
 20
32.141
 30
0.0
 10
-14.8558
 20
32.141
 30
0.0
 10
-13.6787
 20
31.7849
 30
0.0
 10
-13.6787
 20
31.7849
 30
0.0
  0
SPLINE
  5
9A
330
1F
100
AcDbEntity
  8
AXIS
 62
   250
100
AcDbSpline
210
0.0
220
0.0
230
1.0
 70
     8
 71
     3
 72
    16
 73
    12
 74
     0
 42
0.0000000001
 43
0.0000000001
 40
0.0
 40
0.0
 40
0.0
 40
0.0
 40
0.25
 40
0.25
 40
0.25
 40
0.25
 40
0.5
 40
0.5
 40
0.5
 40
0.5
 40
1.0
 40
1.0
 40
1.0
 40
1.0
 10
-3.4068
 20
31.7849
 30
0.0
 10
-3.4068
 20
31.7849
 30
0.0
 10
-3.2474
 20
32.1406
 30
0.0
 10
-3.2474
 20
32.1406
 30
0.0
 10
-3.2474
 20
32.1406
 30
0.0
 10
-3.2474
 20
32.1406
 30
0.0
 10
-3.0671
 20
32.5435
 30
0.0
 10
-3.0671
 20
32.5435
 30
0.0
 10
-3.0671
 20
32.5435
 30
0.0
 10
-3.0671
 20
32.5435
 30
0.0
 10
-2.8635
 20
32.9986
 30
0.0
 10
-2.8635
 20
32.9986
 30
0.0
  0
SPLINE
  5
9B
330
1F
100
AcDbEntity
  8
AXIS
 62
   250
100
AcDbSpline
210
0.0
220
0.0
230
1.0
 70
     8
 71
     3
 72
    16
 73
    12
 74
     0
 42
0.0000000001
 43
0.0000000001
 40
0.0
 40
0.0
 40
0.0
 40
0.0
 40
0.25
 40
0.25
 40
0.25
 40
0.25
 40
0.5
 40
0.5
 40
0.5
 40
0.5
 40
1.0
 40
1.0
 40
1.0
 40
1.0
 10
-6.1133
 20
32.9986
 30
0.0
 10
-6.1133
 20
32.9986
 30
0.0
 10
-5.7551
 20
32.5438
 30
0.0
 10
-5.7551
 20
32.5438
 30
0.0
 10
-5.7551
 20
32.5438
 30
0.0
 10
-5.7551
 20
32.5438
 30
0.0
 10
-5.4376
 20
32.141
 30
0.0
 10
-5.4376
 20
32.141
 30
0.0
 10
-5.4376
 20
32.141
 30
0.0
 10
-5.4376
 20
32.141
 30
0.0
 10
-5.1567
 20
31.7849
 30
0.0
 10
-5.1567
 20
31.7849
 30
0.0
  0
SPLINE
  5
9C
330
1F
100
AcDbEntity
  8
AXIS
 62
   250
100
AcDbSpline
210
0.0
220
0.0
230
1.0
 70
     8
 71
     3
 72
    16
 73
    12
 74
     0
 42
0.0000000001
 43
0.0000000001
 40
0.0
 40
0.0
 40
0.0
 40
0.0
 40
0.25
 40
0.25
 40
0.25
 40
0.25
 40
0.5
 40
0.5
 40
0.5
 40
0.5
 40
1.0
 40
1.0
 40
1.0
 40
1.0
 10
-11.556
 20
32.9986
 30
0.0
 10
-11.556
 20
32.9986
 30
0.0
 10
-10.634
 20
32.5438
 30
0.0
 10
-10.634
 20
32.5438
 30
0.0
 10
-10.634
 20
32.5438
 30
0.0
 10
-10.634
 20
32.5438
 30
0.0
 10
-9.8169
 20
32.141
 30
0.0
 10
-9.8169
 20
32.141
 30
0.0
 10
-9.8169
 20
32.141
 30
0.0
 10
-9.8169
 20
32.141
 30
0.0
 10
-9.094
 20
31.7849
 30
0.0
 10
-9.094
 20
31.7849
 30
0.0
  0
SPLINE
  5
9D
330
1F
100
AcDbEntity
  8
AXIS
 62
   250
100
AcDbSpline
210
0.0
220
0.0
230
1.0
 70
     8
 71
     3
 72
    16
 73
    12
 74
     0
 42
0.0000000001
 43
0.0000000001
 40
0.0
 40
0.0
 40
0.0
 40
0.0
 40
0.25
 40
0.25
 40
0.25
 40
0.25
 40
0.5
 40
0.5
 40
0.5
 40
0.5
 40
1.0
 40
1.0
 40
1.0
 40
1.0
 10
-15.6501
 20
32.9986
 30
0.0
 10
-15.6501
 20
32.9986
 30
0.0
 10
-14.3238
 20
32.5438
 30
0.0
 10
-14.3238
 20
32.5438
 30
0.0
 10
-14.3238
 20
32.5438
 30
0.0
 10
-14.3238
 20
32.5438
 30
0.0
 10
-13.1483
 20
32.141
 30
0.0
 10
-13.1483
 20
32.141
 30
0.0
 10
-13.1483
 20
32.141
 30
0.0
 10
-13.1483
 20
32.141
 30
0.0
 10
-12.1084
 20
31.7849
 30
0.0
 10
-12.1084
 20
31.7849
 30
0.0
  0
SPLINE
  5
9E
330
1F
100
AcDbEntity
  8
AXIS
 62
   250
100
AcDbSpline
210
0.0
220
0.0
230
1.0
 70
     8
 71
     3
 72
    16
 73
    12
 74
     0
 42
0.0000000001
 43
0.0000000001
 40
0.0
 40
0.0
 40
0.0
 40
0.0
 40
0.25
 40
0.25
 40
0.25
 40
0.25
 40
0.5
 40
0.5
 40
0.5
 40
0.5
 40
1.0
 40
1.0
 40
1.0
 40
1.0
 10
3.9607
 20
31.7849
 30
0.0
 10
3.9607
 20
31.7849
 30
0.0
 10
4.9357
 20
32.1406
 30
0.0
 10
4.9357
 20
32.1406
 30
0.0
 10
4.9357
 20
32.1406
 30
0.0
 10
4.9357
 20
32.1406
 30
0.0
 10
6.0386
 20
32.5435
 30
0.0
 10
6.0386
 20
32.5435
 30
0.0
 10
6.0386
 20
32.5435
 30
0.0
 10
6.0386
 20
32.5435
 30
0.0
 10
7.2842
 20
32.9986
 30
0.0
 10
7.2842
 20
32.9986
 30
0.0
  0
SPLINE
  5
9F
330
1F
100
AcDbEntity
  8
AXIS
 62
   250
100
AcDbSpline
210
0.0
220
0.0
230
1.0
 70
     8
 71
     3
 72
    16
 73
    12
 74
     0
 42
0.0000000001
 43
0.0000000001
 40
0.0
 40
0.0
 40
0.0
 40
0.0
 40
0.25
 40
0.25
 40
0.25
 40
0.25
 40
0.5
 40
0.5
 40
0.5
 40
0.5
 40
1.0
 40
1.0
 40
1.0
 40
1.0
 10
-0.2631
 20
32.9986
 30
0.0
 10
-0.2631
 20
32.9986
 30
0.0
 10
-0.5305
 20
32.5438
 30
0.0
 10
-0.5305
 20
32.5438
 30
0.0
 10
-0.5305
 20
32.5438
 30
0.0
 10
-0.5305
 20
32.5438
 30
0.0
 10
-0.7676
 20
32.141
 30
0.0
 10
-0.7676
 20
32.141
 30
0.0
 10
-0.7676
 20
32.141
 30
0.0
 10
-0.7676
 20
32.141
 30
0.0
 10
-0.9772
 20
31.7849
 30
0.0
 10
-0.9772
 20
31.7849
 30
0.0
  0
SPLINE
  5
A0
330
1F
100
AcDbEntity
  8
AXIS
 62
   250
100
AcDbSpline
210
0.0
220
0.0
230
1.0
 70
     8
 71
     3
 72
    16
 73
    12
 74
     0
 42
0.0000000001
 43
0.0000000001
 40
0.0
 40
0.0
 40
0.0
 40
0.0
 40
0.25
 40
0.25
 40
0.25
 40
0.25
 40
0.5
 40
0.5
 40
0.5
 40
0.5
 40
1.0
 40
1.0
 40
1.0
 40
1.0
 10
-7.5327
 20
31.7849
 30
0.0
 10
-7.5327
 20
31.7849
 30
0.0
 10
-7.8624
 20
32.1406
 30
0.0
 10
-7.8624
 20
32.1406
 30
0.0
 10
-7.8624
 20
32.1406
 30
0.0
 10
-7.8624
 20
32.1406
 30
0.0
 10
-8.2353
 20
32.5435
 30
0.0
 10
-8.2353
 20
32.5435
 30
0.0
 10
-8.2353
 20
32.5435
 30
0.0
 10
-8.2353
 20
32.5435
 30
0.0
 10
-8.6564
 20
32.9986
 30
0.0
 10
-8.6564
 20
32.9986
 30
0.0
  0
SPLINE
  5
A1
330
1F
100
AcDbEntity
  8
AXIS
 62
   250
100
AcDbSpline
210
0.0
220
0.0
230
1.0
 70
     8
 71
     3
 72
    16
 73
    12
 74
     0
 42
0.0000000001
 43
0.0000000001
 40
0.0
 40
0.0
 40
0.0
 40
0.0
 40
0.25
 40
0.25
 40
0.25
 40
0.25
 40
0.5
 40
0.5
 40
0.5
 40
0.5
 40
1.0
 40
1.0
 40
1.0
 40
1.0
 10
-11.0057
 20
31.7849
 30
0.0
 10
-11.0057
 20
31.7849
 30
0.0
 10
-11.7673
 20
32.1406
 30
0.0
 10
-11.7673
 20
32.1406
 30
0.0
 10
-11.7673
 20
32.1406
 30
0.0
 10
-11.7673
 20
32.1406
 30
0.0
 10
-12.629
 20
32.5435
 30
0.0
 10
-12.629
 20
32.5435
 30
0.0
 10
-12.629
 20
32.5435
 30
0.0
 10
-12.629
 20
32.5435
 30
0.0
 10
-13.6021
 20
32.9986
 30
0.0
 10
-13.6021
 20
32.9986
 30
0.0
  0
SPLINE
  5
A2
330
1F
100
AcDbEntity
  8
AXIS
 62
   250
100
AcDbSpline
210
0.0
220
0.0
230
1.0
 70
     8
 71
     3
 72
    16
 73
    12
 74
     0
 42
0.0000000001
 43
0.0000000001
 40
0.0
 40
0.0
 40
0.0
 40
0.0
 40
0.25
 40
0.25
 40
0.25
 40
0.25
 40
0.5
 40
0.5
 40
0.5
 40
0.5
 40
1.0
 40
1.0
 40
1.0
 40
1.0
 10
10.2962
 20
32.9986
 30
0.0
 10
10.2962
 20
32.9986
 30
0.0
 10
8.8047
 20
32.5438
 30
0.0
 10
8.8047
 20
32.5438
 30
0.0
 10
8.8047
 20
32.5438
 30
0.0
 10
8.8047
 20
32.5438
 30
0.0
 10
7.4827
 20
32.141
 30
0.0
 10
7.4827
 20
32.141
 30
0.0
 10
7.4827
 20
32.141
 30
0.0
 10
7.4827
 20
32.141
 30
0.0
 10
6.3132
 20
31.7849
 30
0.0
 10
6.3132
 20
31.7849
 30
0.0
  0
SPLINE
  5
A3
330
1F
100
AcDbEntity
  8
AXIS
 62
   250
100
AcDbSpline
210
0.0
220
0.0
230
1.0
 70
    27
 71
     3
 72
    12
 73
     8
 74
     0
 42
0.0000000001
 43
0.0000000001
 40
0.0
 40
0.0
 40
0.0
 40
0.0
 40
0.3333333333333333
 40
0.3333333333333333
 40
0.3333333333333333
 40
0.3333333333333333
 40
1.0
 40
1.0
 40
1.0
 40
1.0
 10
-13.7696
 20
31.7659
 30
0.0
 10
-13.7696
 20
31.7659
 30
0.0
 10
-17.9
 20
33.0176
 30
0.0
 10
-17.9
 20
33.0176
 30
0.0
 10
-17.9
 20
33.0176
 30
0.0
 10
-17.9
 20
33.0176
 30
0.0
 10
-13.7696
 20
31.7659
 30
0.0
 10
-13.7696
 20
31.7659
 30
0.0
  0
SPLINE
  5
A4
330
1F
100
AcDbEntity
  8
AXIS
 62
   250
100
AcDbSpline
210
0.0
220
0.0
230
1.0
 70
     8
 71
     3
 72
     8
 73
     4
 74
     0
 42
0.0000000001
 43
0.0000000001
 40
0.0
 40
0.0
 40
0.0
 40
0.0
 40
1.0
 40
1.0
 40
1.0
 40
1.0
 10
-18.2677
 20
14.847
 30
0.0
 10
-18.2558
 20
14.1643
 30
0.0
 10
-17.699
 20
13.6172
 30
0.0
 10
-17.0163
 20
13.6172
 30
0.0
  0
SPLINE
  5
A5
330
1F
100
AcDbEntity
  8
AXIS
 62
   250
100
AcDbSpline
210
0.0
220
0.0
230
1.0
 70
    11
 71
     3
 72
    20
 73
    16
 74
     0
 42
0.0000000001
 43
0.0000000001
 40
0.0
 40
0.0
 40
0.0
 40
0.0
 40
0.2
 40
0.2
 40
0.2
 40
0.2
 40
0.4
 40
0.4
 40
0.4
 40
0.4
 40
0.6
 40
0.6
 40
0.6
 40
0.6
 40
1.0
 40
1.0
 40
1.0
 40
1.0
 10
-22.288
 20
31.746
 30
0.0
 10
-22.288
 20
31.746
 30
0.0
 10
14.7658
 20
31.746
 30
0.0
 10
14.7658
 20
31.746
 30
0.0
 10
14.7658
 20
31.746
 30
0.0
 10
14.7658
 20
31.746
 30
0.0
 10
14.7658
 20
30.4326
 30
0.0
 10
14.7658
 20
30.4326
 30
0.0
 10
14.7658
 20
30.4326
 30
0.0
 10
14.7658
 20
30.4326
 30
0.0
 10
-22.288
 20
30.4326
 30
0.0
 10
-22.288
 20
30.4326
 30
0.0
 10
-22.288
 20
30.4326
 30
0.0
 10
-22.288
 20
30.4326
 30
0.0
 10
-22.288
 20
31.746
 30
0.0
 10
-22.288
 20
31.746
 30
0.0
  0
SPLINE
  5
A6
330
1F
100
AcDbEntity
  8
AXIS
 62
   250
100
AcDbSpline
210
0.0
220
0.0
230
1.0
 70
     8
 71
     3
 72
    20
 73
    16
 74
     0
 42
0.0000000001
 43
0.0000000001
 40
0.0
 40
0.0
 40
0.0
 40
0.0
 40
0.2
 40
0.2
 40
0.2
 40
0.2
 40
0.4
 40
0.4
 40
0.4
 40
0.4
 40
0.6
 40
0.6
 40
0.6
 40
0.6
 40
1.0
 40
1.0
 40
1.0
 40
1.0
 10
-21.2784
 20
30.4504
 30
0.0
 10
-21.2784
 20
30.4504
 30
0.0
 10
-21.2794
 20
29.0123
 30
0.0
 10
-21.2794
 20
29.0123
 30
0.0
 10
-21.2794
 20
29.0123
 30
0.0
 10
-21.2794
 20
29.0123
 30
0.0
 10
11.0021
 20
29.0123
 30
0.0
 10
11.0021
 20
29.0123
 30
0.0
 10
11.0021
 20
29.0123
 30
0.0
 10
11.0021
 20
29.0123
 30
0.0
 10
13.7665
 20
29.0123
 30
0.0
 10
13.7665
 20
29.0123
 30
0.0
 10
13.7665
 20
29.0123
 30
0.0
 10
13.7665
 20
29.0123
 30
0.0
 10
13.8105
 20
30.4504
 30
0.0
 10
13.8105
 20
30.4504
 30
0.0
  0
SPLINE
  5
A7
330
1F
100
AcDbEntity
  8
AXIS
 62
   250
100
AcDbSpline
210
0.0
220
0.0
230
1.0
 70
     8
 71
     3
 72
    76
 73
    72
 74
     0
 42
0.0000000001
 43
0.0000000001
 40
0.0
 40
0.0
 40
0.0
 40
0.0
 40
0.0526315789473684
 40
0.0526315789473684
 40
0.0526315789473684
 40
0.0526315789473684
 40
0.1052631578947368
 40
0.1052631578947368
 40
0.1052631578947368
 40
0.1052631578947368
 40
0.1578947368421053
 40
0.1578947368421053
 40
0.1578947368421053
 40
0.1578947368421053
 40
0.2105263157894737
 40
0.2105263157894737
 40
0.2105263157894737
 40
0.2105263157894737
 40
0.2631578947368421
 40
0.2631578947368421
 40
0.2631578947368421
 40
0.2631578947368421
 40
0.3157894736842105
 40
0.3157894736842105
 40
0.3157894736842105
 40
0.3157894736842105
 40
0.3684210526315789
 40
0.3684210526315789
 40
0.3684210526315789
 40
0.3684210526315789
 40
0.4210526315789473
 40
0.4210526315789473
 40
0.4210526315789473
 40
0.4210526315789473
 40
0.4736842105263158
 40
0.4736842105263158
 40
0.4736842105263158
 40
0.4736842105263158
 40
0.5263157894736842
 40
0.5263157894736842
 40
0.5263157894736842
 40
0.5263157894736842
 40
0.5789473684210527
 40
0.5789473684210527
 40
0.5789473684210527
 40
0.5789473684210527
 40
0.631578947368421
 40
0.631578947368421
 40
0.631578947368421
 40
0.631578947368421
 40
0.6842105263157895
 40
0.6842105263157895
 40
0.6842105263157895
 40
0.6842105263157895
 40
0.7368421052631579
 40
0.7368421052631579
 40
0.7368421052631579
 40
0.7368421052631579
 40
0.7894736842105263
 40
0.7894736842105263
 40
0.7894736842105263
 40
0.7894736842105263
 40
0.8421052631578947
 40
0.8421052631578947
 40
0.8421052631578947
 40
0.8421052631578947
 40
0.8947368421052632
 40
0.8947368421052632
 40
0.8947368421052632
 40
0.8947368421052632
 40
1.0
 40
1.0
 40
1.0
 40
1.0
 10
10.8426
 20
19.8753
 30
0.0
 10
10.8426
 20
19.8753
 30
0.0
 10
16.2698
 20
19.8753
 30
0.0
 10
16.2698
 20
19.8753
 30
0.0
 10
16.2698
 20
19.8753
 30
0.0
 10
16.2698
 20
19.8753
 30
0.0
 10
17.49
 20
19.655
 30
0.0
 10
17.49
 20
19.655
 30
0.0
 10
17.49
 20
19.655
 30
0.0
 10
17.49
 20
19.655
 30
0.0
 10
17.543
 20
7.624
 30
0.0
 10
17.543
 20
7.624
 30
0.0
 10
17.543
 20
7.624
 30
0.0
 10
17.543
 20
7.624
 30
0.0
 10
16.271
 20
7.306
 30
0.0
 10
16.271
 20
7.306
 30
0.0
 10
16.271
 20
7.306
 30
0.0
 10
16.271
 20
7.306
 30
0.0
 10
-3.3106
 20
7.3382
 30
0.0
 10
-3.3106
 20
7.3382
 30
0.0
 10
-3.3106
 20
7.3382
 30
0.0
 10
-3.3106
 20
7.3382
 30
0.0
 10
-4.1881
 20
7.3782
 30
0.0
 10
-4.1881
 20
7.3782
 30
0.0
 10
-4.1881
 20
7.3782
 30
0.0
 10
-4.1881
 20
7.3782
 30
0.0
 10
-4.9659
 20
7.4581
 30
0.0
 10
-4.9659
 20
7.4581
 30
0.0
 10
-4.9659
 20
7.4581
 30
0.0
 10
-4.9659
 20
7.4581
 30
0.0
 10
-5.6639
 20
7.6579
 30
0.0
 10
-5.6639
 20
7.6579
 30
0.0
 10
-5.6639
 20
7.6579
 30
0.0
 10
-5.6639
 20
7.6579
 30
0.0
 10
-6.3818
 20
7.9377
 30
0.0
 10
-6.3818
 20
7.9377
 30
0.0
 10
-6.3818
 20
7.9377
 30
0.0
 10
-6.3818
 20
7.9377
 30
0.0
 10
-7.1197
 20
8.3374
 30
0.0
 10
-7.1197
 20
8.3374
 30
0.0
 10
-7.1197
 20
8.3374
 30
0.0
 10
-7.1197
 20
8.3374
 30
0.0
 10
-7.6383
 20
8.7171
 30
0.0
 10
-7.6383
 20
8.7171
 30
0.0
 10
-7.6383
 20
8.7171
 30
0.0
 10
-7.6383
 20
8.7171
 30
0.0
 10
-8.1568
 20
9.2367
 30
0.0
 10
-8.1568
 20
9.2367
 30
0.0
 10
-8.1568
 20
9.2367
 30
0.0
 10
-8.1568
 20
9.2367
 30
0.0
 10
-8.775
 20
9.8761
 30
0.0
 10
-8.775
 20
9.8761
 30
0.0
 10
-8.775
 20
9.8761
 30
0.0
 10
-8.775
 20
9.8761
 30
0.0
 10
-9.2138
 20
10.5356
 30
0.0
 10
-9.2138
 20
10.5356
 30
0.0
 10
-9.2138
 20
10.5356
 30
0.0
 10
-9.2138
 20
10.5356
 30
0.0
 10
-9.5727
 20
11.2351
 30
0.0
 10
-9.5727
 20
11.2351
 30
0.0
 10
-9.5727
 20
11.2351
 30
0.0
 10
-9.5727
 20
11.2351
 30
0.0
 10
-9.8918
 20
12.2342
 30
0.0
 10
-9.8918
 20
12.2342
 30
0.0
 10
-9.8918
 20
12.2342
 30
0.0
 10
-9.8918
 20
12.2342
 30
0.0
 10
-10.0314
 20
13.0336
 30
0.0
 10
-10.0314
 20
13.0336
 30
0.0
 10
-10.0314
 20
13.0336
 30
0.0
 10
-10.0314
 20
13.0336
 30
0.0
 10
-10.0514
 20
13.6131
 30
0.0
 10
-10.0514
 20
13.6131
 30
0.0
  0
SPLINE
  5
A8
330
1F
100
AcDbEntity
  8
AXIS
 62
   250
100
AcDbSpline
210
0.0
220
0.0
230
1.0
 70
     8
 71
     3
 72
    28
 73
    24
 74
     0
 42
0.0000000001
 43
0.0000000001
 40
0.0
 40
0.0
 40
0.0
 40
0.0
 40
0.1428571428571428
 40
0.1428571428571428
 40
0.1428571428571428
 40
0.1428571428571428
 40
0.2857142857142857
 40
0.2857142857142857
 40
0.2857142857142857
 40
0.2857142857142857
 40
0.4285714285714285
 40
0.4285714285714285
 40
0.4285714285714285
 40
0.4285714285714285
 40
0.5714285714285714
 40
0.5714285714285714
 40
0.5714285714285714
 40
0.5714285714285714
 40
0.7142857142857143
 40
0.7142857142857143
 40
0.7142857142857143
 40
0.7142857142857143
 40
1.0
 40
1.0
 40
1.0
 40
1.0
 10
9.3937
 20
14.847
 30
0.0
 10
9.3937
 20
14.847
 30
0.0
 10
9.3194
 20
14.5382
 30
0.0
 10
9.3194
 20
14.5382
 30
0.0
 10
9.3194
 20
14.5382
 30
0.0
 10
9.3194
 20
14.5382
 30
0.0
 10
9.1637
 20
14.2406
 30
0.0
 10
9.1637
 20
14.2406
 30
0.0
 10
9.1637
 20
14.2406
 30
0.0
 10
9.1637
 20
14.2406
 30
0.0
 10
8.9359
 20
13.9855
 30
0.0
 10
8.9359
 20
13.9855
 30
0.0
 10
8.9359
 20
13.9855
 30
0.0
 10
8.9359
 20
13.9855
 30
0.0
 10
8.6465
 20
13.7882
 30
0.0
 10
8.6465
 20
13.7882
 30
0.0
 10
8.6465
 20
13.7882
 30
0.0
 10
8.6465
 20
13.7882
 30
0.0
 10
8.3025
 20
13.6605
 30
0.0
 10
8.3025
 20
13.6605
 30
0.0
 10
8.3025
 20
13.6605
 30
0.0
 10
8.3025
 20
13.6605
 30
0.0
 10
7.9337
 20
13.6172
 30
0.0
 10
7.9337
 20
13.6172
 30
0.0
  0
SPLINE
  5
A9
330
1F
100
AcDbEntity
  8
AXIS
 62
   250
100
AcDbSpline
210
0.0
220
0.0
230
1.0
 70
     8
 71
     3
 72
    40
 73
    36
 74
     0
 42
0.0000000001
 43
0.0000000001
 40
0.0
 40
0.0
 40
0.0
 40
0.0
 40
0.1
 40
0.1
 40
0.1
 40
0.1
 40
0.2
 40
0.2
 40
0.2
 40
0.2
 40
0.3
 40
0.3
 40
0.3
 40
0.3
 40
0.4
 40
0.4
 40
0.4
 40
0.4
 40
0.5
 40
0.5
 40
0.5
 40
0.5
 40
0.6
 40
0.6
 40
0.6
 40
0.6
 40
0.7
 40
0.7
 40
0.7
 40
0.7
 40
0.8
 40
0.8
 40
0.8
 40
0.8
 40
1.0
 40
1.0
 40
1.0
 40
1.0
 10
10.8426
 20
19.8753
 30
0.0
 10
10.8426
 20
19.8753
 30
0.0
 10
10.8102
 20
19.8024
 30
0.0
 10
10.8102
 20
19.8024
 30
0.0
 10
10.8102
 20
19.8024
 30
0.0
 10
10.8102
 20
19.8024
 30
0.0
 10
10.7174
 20
19.5895
 30
0.0
 10
10.7174
 20
19.5895
 30
0.0
 10
10.7174
 20
19.5895
 30
0.0
 10
10.7174
 20
19.5895
 30
0.0
 10
10.5725
 20
19.245
 30
0.0
 10
10.5725
 20
19.245
 30
0.0
 10
10.5725
 20
19.245
 30
0.0
 10
10.5725
 20
19.245
 30
0.0
 10
10.3855
 20
18.7734
 30
0.0
 10
10.3855
 20
18.7734
 30
0.0
 10
10.3855
 20
18.7734
 30
0.0
 10
10.3855
 20
18.7734
 30
0.0
 10
10.1686
 20
18.178
 30
0.0
 10
10.1686
 20
18.178
 30
0.0
 10
10.1686
 20
18.178
 30
0.0
 10
10.1686
 20
18.178
 30
0.0
 10
9.9392
 20
17.4679
 30
0.0
 10
9.9392
 20
17.4679
 30
0.0
 10
9.9392
 20
17.4679
 30
0.0
 10
9.9392
 20
17.4679
 30
0.0
 10
9.7185
 20
16.6572
 30
0.0
 10
9.7185
 20
16.6572
 30
0.0
 10
9.7185
 20
16.6572
 30
0.0
 10
9.7185
 20
16.6572
 30
0.0
 10
9.53
 20
15.7729
 30
0.0
 10
9.53
 20
15.7729
 30
0.0
 10
9.53
 20
15.7729
 30
0.0
 10
9.53
 20
15.7729
 30
0.0
 10
9.3937
 20
14.847
 30
0.0
 10
9.3937
 20
14.847
 30
0.0
  0
SPLINE
  5
AA
330
1F
100
AcDbEntity
  8
AXIS
 62
   250
100
AcDbSpline
210
0.0
220
0.0
230
1.0
 70
    27
 71
     3
 72
    12
 73
     8
 74
     0
 42
0.0000000001
 43
0.0000000001
 40
0.0
 40
0.0
 40
0.0
 40
0.0
 40
0.3333333333333333
 40
0.3333333333333333
 40
0.3333333333333333
 40
0.3333333333333333
 40
1.0
 40
1.0
 40
1.0
 40
1.0
 10
-18.515
 20
29.0123
 30
0.0
 10
-18.515
 20
29.0123
 30
0.0
 10
-18.2677
 20
14.847
 30
0.0
 10
-18.2677
 20
14.847
 30
0.0
 10
-18.2677
 20
14.847
 30
0.0
 10
-18.2677
 20
14.847
 30
0.0
 10
-18.515
 20
29.0123
 30
0.0
 10
-18.515
 20
29.0123
 30
0.0
  0
SPLINE
  5
AB
330
1F
100
AcDbEntity
  8
AXIS
 62
   250
100
AcDbSpline
210
0.0
220
0.0
230
1.0
 70
    27
 71
     3
 72
    12
 73
     8
 74
     0
 42
0.0000000001
 43
0.0000000001
 40
0.0
 40
0.0
 40
0.0
 40
0.0
 40
0.3333333333333333
 40
0.3333333333333333
 40
0.3333333333333333
 40
0.3333333333333333
 40
1.0
 40
1.0
 40
1.0
 40
1.0
 10
11.0021
 20
29.0123
 30
0.0
 10
11.0021
 20
29.0123
 30
0.0
 10
10.8426
 20
19.8753
 30
0.0
 10
10.8426
 20
19.8753
 30
0.0
 10
10.8426
 20
19.8753
 30
0.0
 10
10.8426
 20
19.8753
 30
0.0
 10
11.0021
 20
29.0123
 30
0.0
 10
11.0021
 20
29.0123
 30
0.0
  0
SPLINE
  5
AC
330
1F
100
AcDbEntity
  8
AXIS
 62
   250
100
AcDbSpline
210
0.0
220
0.0
230
1.0
 70
    27
 71
     3
 72
    12
 73
     8
 74
     0
 42
0.0000000001
 43
0.0000000001
 40
0.0
 40
0.0
 40
0.0
 40
0.0
 40
0.3333333333333333
 40
0.3333333333333333
 40
0.3333333333333333
 40
0.3333333333333333
 40
1.0
 40
1.0
 40
1.0
 40
1.0
 10
7.9337
 20
13.6172
 30
0.0
 10
7.9337
 20
13.6172
 30
0.0
 10
-17.0161
 20
13.6172
 30
0.0
 10
-17.0161
 20
13.6172
 30
0.0
 10
-17.0161
 20
13.6172
 30
0.0
 10
-17.0161
 20
13.6172
 30
0.0
 10
7.9337
 20
13.6172
 30
0.0
 10
7.9337
 20
13.6172
 30
0.0
  0
SPLINE
  5
AD
330
1F
100
AcDbEntity
  8
AXIS
 62
   250
100
AcDbSpline
210
0.0
220
0.0
230
1.0
 70
    11
 71
     3
 72
    16
 73
    12
 74
     0
 42
0.0000000001
 43
0.0000000001
 40
0.0
 40
0.0
 40
0.0
 40
0.0
 40
0.25
 40
0.25
 40
0.25
 40
0.25
 40
0.5
 40
0.5
 40
0.5
 40
0.5
 40
1.0
 40
1.0
 40
1.0
 40
1.0
 10
-21.8662
 20
3.4198
 30
0.0
 10
-21.8662
 20
3.4198
 30
0.0
 10
-19.377
 20
3.0002
 30
0.0
 10
-19.377
 20
3.0002
 30
0.0
 10
-19.377
 20
3.0002
 30
0.0
 10
-19.377
 20
3.0002
 30
0.0
 10
-19.377
 20
3.8393
 30
0.0
 10
-19.377
 20
3.8393
 30
0.0
 10
-19.377
 20
3.8393
 30
0.0
 10
-19.377
 20
3.8393
 30
0.0
 10
-21.8662
 20
3.4198
 30
0.0
 10
-21.8662
 20
3.4198
 30
0.0
  0
SPLINE
  5
AE
330
1F
100
AcDbEntity
  8
AXIS
 62
   250
100
AcDbSpline
210
0.0
220
0.0
230
1.0
 70
    11
 71
     3
 72
    16
 73
    12
 74
     0
 42
0.0000000001
 43
0.0000000001
 40
0.0
 40
0.0
 40
0.0
 40
0.0
 40
0.25
 40
0.25
 40
0.25
 40
0.25
 40
0.5
 40
0.5
 40
0.5
 40
0.5
 40
1.0
 40
1.0
 40
1.0
 40
1.0
 10
14.3107
 20
3.449
 30
0.0
 10
14.3107
 20
3.449
 30
0.0
 10
11.8215
 20
3.8686
 30
0.0
 10
11.8215
 20
3.8686
 30
0.0
 10
11.8215
 20
3.8686
 30
0.0
 10
11.8215
 20
3.8686
 30
0.0
 10
11.8215
 20
3.0295
 30
0.0
 10
11.8215
 20
3.0295
 30
0.0
 10
11.8215
 20
3.0295
 30
0.0
 10
11.8215
 20
3.0295
 30
0.0
 10
14.3107
 20
3.449
 30
0.0
 10
14.3107
 20
3.449
 30
0.0
  0
SPLINE
  5
AF
330
1F
100
AcDbEntity
  8
AXIS
 62
   250
100
AcDbSpline
210
0.0
220
0.0
230
1.0
 70
    11
 71
     3
 72
    40
 73
    36
 74
     0
 42
0.0000000001
 43
0.0000000001
 40
0.0
 40
0.0
 40
0.0
 40
0.0
 40
0.1
 40
0.1
 40
0.1
 40
0.1
 40
0.2
 40
0.2
 40
0.2
 40
0.2
 40
0.3
 40
0.3
 40
0.3
 40
0.3
 40
0.4
 40
0.4
 40
0.4
 40
0.4
 40
0.5
 40
0.5
 40
0.5
 40
0.5
 40
0.6
 40
0.6
 40
0.6
 40
0.6
 40
0.7
 40
0.7
 40
0.7
 40
0.7
 40
0.8
 40
0.8
 40
0.8
 40
0.8
 40
1.0
 40
1.0
 40
1.0
 40
1.0
 10
-27.8574
 20
-20.1786
 30
0.0
 10
-27.8574
 20
-20.1786
 30
0.0
 10
-27.8574
 20
-20.4265
 30
0.0
 10
-27.8574
 20
-20.4265
 30
0.0
 10
-27.8574
 20
-20.4265
 30
0.0
 10
-27.8574
 20
-20.4265
 30
0.0
 10
-29.4378
 20
-20.4265
 30
0.0
 10
-29.4378
 20
-20.4265
 30
0.0
 10
-29.4378
 20
-20.4265
 30
0.0
 10
-29.3809
 20
-20.4863
 30
0.0
 10
-29.324
 20
-20.5643
 30
0.0
 10
-29.2671
 20
-20.6612
 30
0.0
 10
-29.2671
 20
-20.6612
 30
0.0
 10
-29.2102
 20
-20.7586
 30
0.0
 10
-29.1674
 20
-20.8456
 30
0.0
 10
-29.1391
 20
-20.9228
 30
0.0
 10
-29.1391
 20
-20.9228
 30
0.0
 10
-29.1391
 20
-20.9228
 30
0.0
 10
-29.3786
 20
-20.9228
 30
0.0
 10
-29.3786
 20
-20.9228
 30
0.0
 10
-29.3786
 20
-20.9228
 30
0.0
 10
-29.4439
 20
-20.784
 30
0.0
 10
-29.523
 20
-20.6626
 30
0.0
 10
-29.6156
 20
-20.5587
 30
0.0
 10
-29.6156
 20
-20.5587
 30
0.0
 10
-29.7088
 20
-20.4552
 30
0.0
 10
-29.7986
 20
-20.3814
 30
0.0
 10
-29.8861
 20
-20.3381
 30
0.0
 10
-29.8861
 20
-20.3381
 30
0.0
 10
-29.8861
 20
-20.3381
 30
0.0
 10
-29.8861
 20
-20.1786
 30
0.0
 10
-29.8861
 20
-20.1786
 30
0.0
 10
-29.8861
 20
-20.1786
 30
0.0
 10
-29.8861
 20
-20.1786
 30
0.0
 10
-27.8574
 20
-20.1786
 30
0.0
 10
-27.8574
 20
-20.1786
 30
0.0
  0
SPLINE
  5
B0
330
1F
100
AcDbEntity
  8
AXIS
 62
   250
100
AcDbSpline
210
0.0
220
0.0
230
1.0
 70
    11
 71
     3
 72
    92
 73
    88
 74
     0
 42
0.0000000001
 43
0.0000000001
 40
0.0
 40
0.0
 40
0.0
 40
0.0
 40
0.0434782608695652
 40
0.0434782608695652
 40
0.0434782608695652
 40
0.0434782608695652
 40
0.0869565217391304
 40
0.0869565217391304
 40
0.0869565217391304
 40
0.0869565217391304
 40
0.1304347826086956
 40
0.1304347826086956
 40
0.1304347826086956
 40
0.1304347826086956
 40
0.1739130434782609
 40
0.1739130434782609
 40
0.1739130434782609
 40
0.1739130434782609
 40
0.2173913043478261
 40
0.2173913043478261
 40
0.2173913043478261
 40
0.2173913043478261
 40
0.2608695652173913
 40
0.2608695652173913
 40
0.2608695652173913
 40
0.2608695652173913
 40
0.3043478260869565
 40
0.3043478260869565
 40
0.3043478260869565
 40
0.3043478260869565
 40
0.3478260869565217
 40
0.3478260869565217
 40
0.3478260869565217
 40
0.3478260869565217
 40
0.391304347826087
 40
0.391304347826087
 40
0.391304347826087
 40
0.391304347826087
 40
0.4347826086956522
 40
0.4347826086956522
 40
0.4347826086956522
 40
0.4347826086956522
 40
0.4782608695652174
 40
0.4782608695652174
 40
0.4782608695652174
 40
0.4782608695652174
 40
0.5217391304347826
 40
0.5217391304347826
 40
0.5217391304347826
 40
0.5217391304347826
 40
0.5652173913043478
 40
0.5652173913043478
 40
0.5652173913043478
 40
0.5652173913043478
 40
0.6086956521739131
 40
0.6086956521739131
 40
0.6086956521739131
 40
0.6086956521739131
 40
0.6521739130434783
 40
0.6521739130434783
 40
0.6521739130434783
 40
0.6521739130434783
 40
0.6956521739130435
 40
0.6956521739130435
 40
0.6956521739130435
 40
0.6956521739130435
 40
0.7391304347826086
 40
0.7391304347826086
 40
0.7391304347826086
 40
0.7391304347826086
 40
0.782608695652174
 40
0.782608695652174
 40
0.782608695652174
 40
0.782608695652174
 40
0.8260869565217391
 40
0.8260869565217391
 40
0.8260869565217391
 40
0.8260869565217391
 40
0.8695652173913043
 40
0.8695652173913043
 40
0.8695652173913043
 40
0.8695652173913043
 40
0.9130434782608695
 40
0.9130434782608695
 40
0.9130434782608695
 40
0.9130434782608695
 40
1.0
 40
1.0
 40
1.0
 40
1.0
 10
-28.3866
 20
-19.5432
 30
0.0
 10
-28.3866
 20
-19.5432
 30
0.0
 10
-28.4087
 20
-19.2826
 30
0.0
 10
-28.4087
 20
-19.2826
 30
0.0
 10
-28.4087
 20
-19.2826
 30
0.0
 10
-28.2817
 20
-19.2633
 30
0.0
 10
-28.1867
 20
-19.2186
 30
0.0
 10
-28.1227
 20
-19.1485
 30
0.0
 10
-28.1227
 20
-19.1485
 30
0.0
 10
-28.0587
 20
-19.078
 30
0.0
 10
-28.0267
 20
-18.9933
 30
0.0
 10
-28.0267
 20
-18.8941
 30
0.0
 10
-28.0267
 20
-18.8941
 30
0.0
 10
-28.0267
 20
-18.7746
 30
0.0
 10
-28.0719
 20
-18.6735
 30
0.0
 10
-28.1617
 20
-18.5912
 30
0.0
 10
-28.1617
 20
-18.5912
 30
0.0
 10
-28.252
 20
-18.5084
 30
0.0
 10
-28.3715
 20
-18.467
 30
0.0
 10
-28.5201
 20
-18.467
 30
0.0
 10
-28.5201
 20
-18.467
 30
0.0
 10
-28.6617
 20
-18.467
 30
0.0
 10
-28.7732
 20
-18.5065
 30
0.0
 10
-28.855
 20
-18.586
 30
0.0
 10
-28.855
 20
-18.586
 30
0.0
 10
-28.9369
 20
-18.6655
 30
0.0
 10
-28.9778
 20
-18.7694
 30
0.0
 10
-28.9778
 20
-18.8983
 30
0.0
 10
-28.9778
 20
-18.8983
 30
0.0
 10
-28.9778
 20
-18.9783
 30
0.0
 10
-28.9595
 20
-19.0502
 30
0.0
 10
-28.9233
 20
-19.1147
 30
0.0
 10
-28.9233
 20
-19.1147
 30
0.0
 10
-28.887
 20
-19.1791
 30
0.0
 10
-28.84
 20
-19.2294
 30
0.0
 10
-28.7821
 20
-19.2661
 30
0.0
 10
-28.7821
 20
-19.2661
 30
0.0
 10
-28.7821
 20
-19.2661
 30
0.0
 10
-28.8122
 20
-19.499
 30
0.0
 10
-28.8122
 20
-19.499
 30
0.0
 10
-28.8122
 20
-19.499
 30
0.0
 10
-28.8122
 20
-19.499
 30
0.0
 10
-29.8499
 20
-19.3033
 30
0.0
 10
-29.8499
 20
-19.3033
 30
0.0
 10
-29.8499
 20
-19.3033
 30
0.0
 10
-29.8499
 20
-19.3033
 30
0.0
 10
-29.8499
 20
-18.2986
 30
0.0
 10
-29.8499
 20
-18.2986
 30
0.0
 10
-29.8499
 20
-18.2986
 30
0.0
 10
-29.8499
 20
-18.2986
 30
0.0
 10
-29.6128
 20
-18.2986
 30
0.0
 10
-29.6128
 20
-18.2986
 30
0.0
 10
-29.6128
 20
-18.2986
 30
0.0
 10
-29.6128
 20
-18.2986
 30
0.0
 10
-29.6128
 20
-19.1048
 30
0.0
 10
-29.6128
 20
-19.1048
 30
0.0
 10
-29.6128
 20
-19.1048
 30
0.0
 10
-29.6128
 20
-19.1048
 30
0.0
 10
-29.07
 20
-19.2139
 30
0.0
 10
-29.07
 20
-19.2139
 30
0.0
 10
-29.07
 20
-19.2139
 30
0.0
 10
-29.1547
 20
-19.0926
 30
0.0
 10
-29.197
 20
-18.9651
 30
0.0
 10
-29.197
 20
-18.832
 30
0.0
 10
-29.197
 20
-18.832
 30
0.0
 10
-29.197
 20
-18.6556
 30
0.0
 10
-29.1359
 20
-18.507
 30
0.0
 10
-29.0136
 20
-18.3856
 30
0.0
 10
-29.0136
 20
-18.3856
 30
0.0
 10
-28.8913
 20
-18.2643
 30
0.0
 10
-28.7342
 20
-18.2036
 30
0.0
 10
-28.5423
 20
-18.2036
 30
0.0
 10
-28.5423
 20
-18.2036
 30
0.0
 10
-28.3593
 20
-18.2036
 30
0.0
 10
-28.2012
 20
-18.2572
 30
0.0
 10
-28.0681
 20
-18.3635
 30
0.0
 10
-28.0681
 20
-18.3635
 30
0.0
 10
-27.9049
 20
-18.4933
 30
0.0
 10
-27.8231
 20
-18.6702
 30
0.0
 10
-27.8231
 20
-18.8941
 30
0.0
 10
-27.8231
 20
-18.8941
 30
0.0
 10
-27.8231
 20
-19.078
 30
0.0
 10
-27.8743
 20
-19.228
 30
0.0
 10
-27.9773
 20
-19.3442
 30
0.0
 10
-27.9773
 20
-19.3442
 30
0.0
 10
-28.0804
 20
-19.4604
 30
0.0
 10
-28.2168
 20
-19.5267
 30
0.0
 10
-28.3866
 20
-19.5432
 30
0.0
  0
SPLINE
  5
B1
330
1F
100
AcDbEntity
  8
AXIS
 62
   250
100
AcDbSpline
210
0.0
220
0.0
230
1.0
 70
    11
 71
     3
 72
    52
 73
    48
 74
     0
 42
0.0000000001
 43
0.0000000001
 40
0.0
 40
0.0
 40
0.0
 40
0.0
 40
0.0769230769230769
 40
0.0769230769230769
 40
0.0769230769230769
 40
0.0769230769230769
 40
0.1538461538461539
 40
0.1538461538461539
 40
0.1538461538461539
 40
0.1538461538461539
 40
0.2307692307692308
 40
0.2307692307692308
 40
0.2307692307692308
 40
0.2307692307692308
 40
0.3076923076923077
 40
0.3076923076923077
 40
0.3076923076923077
 40
0.3076923076923077
 40
0.3846153846153846
 40
0.3846153846153846
 40
0.3846153846153846
 40
0.3846153846153846
 40
0.4615384615384616
 40
0.4615384615384616
 40
0.4615384615384616
 40
0.4615384615384616
 40
0.5384615384615384
 40
0.5384615384615384
 40
0.5384615384615384
 40
0.5384615384615384
 40
0.6153846153846154
 40
0.6153846153846154
 40
0.6153846153846154
 40
0.6153846153846154
 40
0.6923076923076923
 40
0.6923076923076923
 40
0.6923076923076923
 40
0.6923076923076923
 40
0.7692307692307693
 40
0.7692307692307693
 40
0.7692307692307693
 40
0.7692307692307693
 40
0.8461538461538461
 40
0.8461538461538461
 40
0.8461538461538461
 40
0.8461538461538461
 40
1.0
 40
1.0
 40
1.0
 40
1.0
 10
-28.8536
 20
-17.9736
 30
0.0
 10
-29.0926
 20
-17.9736
 30
0.0
 10
-29.285
 20
-17.9491
 30
0.0
 10
-29.4303
 20
-17.8997
 30
0.0
 10
-29.4303
 20
-17.8997
 30
0.0
 10
-29.5761
 20
-17.8508
 30
0.0
 10
-29.6885
 20
-17.7774
 30
0.0
 10
-29.7676
 20
-17.6805
 30
0.0
 10
-29.7676
 20
-17.6805
 30
0.0
 10
-29.8466
 20
-17.5836
 30
0.0
 10
-29.8861
 20
-17.4618
 30
0.0
 10
-29.8861
 20
-17.3151
 30
0.0
 10
-29.8861
 20
-17.3151
 30
0.0
 10
-29.8861
 20
-17.2064
 30
0.0
 10
-29.864
 20
-17.1114
 30
0.0
 10
-29.8202
 20
-17.0296
 30
0.0
 10
-29.8202
 20
-17.0296
 30
0.0
 10
-29.777
 20
-16.9477
 30
0.0
 10
-29.7139
 20
-16.8804
 30
0.0
 10
-29.6316
 20
-16.8268
 30
0.0
 10
-29.6316
 20
-16.8268
 30
0.0
 10
-29.5493
 20
-16.7737
 30
0.0
 10
-29.4491
 20
-16.7318
 30
0.0
 10
-29.3311
 20
-16.7017
 30
0.0
 10
-29.3311
 20
-16.7017
 30
0.0
 10
-29.213
 20
-16.6711
 30
0.0
 10
-29.054
 20
-16.6561
 30
0.0
 10
-28.8536
 20
-16.6561
 30
0.0
 10
-28.8536
 20
-16.6561
 30
0.0
 10
-28.6166
 20
-16.6561
 30
0.0
 10
-28.4256
 20
-16.6805
 30
0.0
 10
-28.2798
 20
-16.729
 30
0.0
 10
-28.2798
 20
-16.729
 30
0.0
 10
-28.134
 20
-16.7779
 30
0.0
 10
-28.0216
 20
-16.8508
 30
0.0
 10
-27.9421
 20
-16.9477
 30
0.0
 10
-27.9421
 20
-16.9477
 30
0.0
 10
-27.8626
 20
-17.0446
 30
0.0
 10
-27.8231
 20
-17.1669
 30
0.0
 10
-27.8231
 20
-17.3151
 30
0.0
 10
-27.8231
 20
-17.3151
 30
0.0
 10
-27.8231
 20
-17.5098
 30
0.0
 10
-27.8927
 20
-17.6627
 30
0.0
 10
-28.0324
 20
-17.7737
 30
0.0
 10
-28.0324
 20
-17.7737
 30
0.0
 10
-28.2003
 20
-17.9068
 30
0.0
 10
-28.4745
 20
-17.9736
 30
0.0
 10
-28.8536
 20
-17.9736
 30
0.0
  0
SPLINE
  5
B2
330
1F
100
AcDbEntity
  8
AXIS
 62
   250
100
AcDbSpline
210
0.0
220
0.0
230
1.0
 70
    11
 71
     3
 72
    36
 73
    32
 74
     0
 42
0.0000000001
 43
0.0000000001
 40
0.0
 40
0.0
 40
0.0
 40
0.0
 40
0.1111111111111111
 40
0.1111111111111111
 40
0.1111111111111111
 40
0.1111111111111111
 40
0.2222222222222222
 40
0.2222222222222222
 40
0.2222222222222222
 40
0.2222222222222222
 40
0.3333333333333333
 40
0.3333333333333333
 40
0.3333333333333333
 40
0.3333333333333333
 40
0.4444444444444444
 40
0.4444444444444444
 40
0.4444444444444444
 40
0.4444444444444444
 40
0.5555555555555556
 40
0.5555555555555556
 40
0.5555555555555556
 40
0.5555555555555556
 40
0.6666666666666666
 40
0.6666666666666666
 40
0.6666666666666666
 40
0.6666666666666666
 40
0.7777777777777778
 40
0.7777777777777778
 40
0.7777777777777778
 40
0.7777777777777778
 40
1.0
 40
1.0
 40
1.0
 40
1.0
 10
-28.8536
 20
-17.7186
 30
0.0
 10
-28.522
 20
-17.7186
 30
0.0
 10
-28.3014
 20
-17.6796
 30
0.0
 10
-28.1914
 20
-17.602
 30
0.0
 10
-28.1914
 20
-17.602
 30
0.0
 10
-28.0818
 20
-17.5244
 30
0.0
 10
-28.0267
 20
-17.4289
 30
0.0
 10
-28.0267
 20
-17.3151
 30
0.0
 10
-28.0267
 20
-17.3151
 30
0.0
 10
-28.0267
 20
-17.2008
 30
0.0
 10
-28.0822
 20
-17.1053
 30
0.0
 10
-28.1923
 20
-17.0277
 30
0.0
 10
-28.1923
 20
-17.0277
 30
0.0
 10
-28.3024
 20
-16.9501
 30
0.0
 10
-28.523
 20
-16.911
 30
0.0
 10
-28.8536
 20
-16.911
 30
0.0
 10
-28.8536
 20
-16.911
 30
0.0
 10
-29.1862
 20
-16.911
 30
0.0
 10
-29.4073
 20
-16.9501
 30
0.0
 10
-29.5164
 20
-17.0277
 30
0.0
 10
-29.5164
 20
-17.0277
 30
0.0
 10
-29.626
 20
-17.1053
 30
0.0
 10
-29.6805
 20
-17.2017
 30
0.0
 10
-29.6805
 20
-17.3174
 30
0.0
 10
-29.6805
 20
-17.3174
 30
0.0
 10
-29.6805
 20
-17.4317
 30
0.0
 10
-29.6321
 20
-17.5225
 30
0.0
 10
-29.5357
 20
-17.5907
 30
0.0
 10
-29.5357
 20
-17.5907
 30
0.0
 10
-29.4129
 20
-17.6758
 30
0.0
 10
-29.1852
 20
-17.7186
 30
0.0
 10
-28.8536
 20
-17.7186
 30
0.0
  0
SPLINE
  5
B3
330
1F
100
AcDbEntity
  8
AXIS
 62
   250
100
AcDbSpline
210
0.0
220
0.0
230
1.0
 70
    24
 71
     3
 72
     8
 73
     4
 74
     0
 42
0.0000000001
 43
0.0000000001
 40
0.0
 40
0.0
 40
0.0
 40
0.0
 40
1.0
 40
1.0
 40
1.0
 40
1.0
 10
-23.503
 20
-37.5076
 30
0.0
 10
-23.503
 20
-37.5076
 30
0.0
 10
-27.634
 20
-37.5076
 30
0.0
 10
-27.634
 20
-37.5076
 30
0.0
  0
SPLINE
  5
B4
330
1F
100
AcDbEntity
  8
AXIS
 62
   250
100
AcDbSpline
210
0.0
220
0.0
230
1.0
 70
    24
 71
     3
 72
     8
 73
     4
 74
     0
 42
0.0000000001
 43
0.0000000001
 40
0.0
 40
0.0
 40
0.0
 40
0.0
 40
1.0
 40
1.0
 40
1.0
 40
1.0
 10
-23.5938
 20
-0.459
 30
0.0
 10
-23.5938
 20
-0.459
 30
0.0
 10
-27.634
 20
-0.459
 30
0.0
 10
-27.634
 20
-0.459
 30
0.0
  0
SPLINE
  5
B5
330
1F
100
AcDbEntity
  8
AXIS
 62
   250
100
AcDbSpline
210
0.0
220
0.0
230
1.0
 70
    24
 71
     3
 72
     8
 73
     4
 74
     0
 42
0.0000000001
 43
0.0000000001
 40
0.0
 40
0.0
 40
0.0
 40
0.0
 40
1.0
 40
1.0
 40
1.0
 40
1.0
 10
-27.3837
 20
-1.845
 30
0.0
 10
-27.3837
 20
-1.845
 30
0.0
 10
-27.3837
 20
-36.4559
 30
0.0
 10
-27.3837
 20
-36.4559
 30
0.0
  0
SPLINE
  5
B6
330
1F
100
AcDbEntity
  8
AXIS
 62
   250
100
AcDbSpline
210
0.0
220
0.0
230
1.0
 70
    11
 71
     3
 72
    16
 73
    12
 74
     0
 42
0.0000000001
 43
0.0000000001
 40
0.0
 40
0.0
 40
0.0
 40
0.0
 40
0.25
 40
0.25
 40
0.25
 40
0.25
 40
0.5
 40
0.5
 40
0.5
 40
0.5
 40
1.0
 40
1.0
 40
1.0
 40
1.0
 10
-27.3733
 20
-37.087
 30
0.0
 10
-27.3733
 20
-37.087
 30
0.0
 10
-26.9537
 20
-34.5978
 30
0.0
 10
-26.9537
 20
-34.5978
 30
0.0
 10
-26.9537
 20
-34.5978
 30
0.0
 10
-26.9537
 20
-34.5978
 30
0.0
 10
-27.7928
 20
-34.5978
 30
0.0
 10
-27.7928
 20
-34.5978
 30
0.0
 10
-27.7928
 20
-34.5978
 30
0.0
 10
-27.7928
 20
-34.5978
 30
0.0
 10
-27.3733
 20
-37.087
 30
0.0
 10
-27.3733
 20
-37.087
 30
0.0
  0
SPLINE
  5
B7
330
1F
100
AcDbEntity
  8
AXIS
 62
   250
100
AcDbSpline
210
0.0
220
0.0
230
1.0
 70
    11
 71
     3
 72
    16
 73
    12
 74
     0
 42
0.0000000001
 43
0.0000000001
 40
0.0
 40
0.0
 40
0.0
 40
0.0
 40
0.25
 40
0.25
 40
0.25
 40
0.25
 40
0.5
 40
0.5
 40
0.5
 40
0.5
 40
1.0
 40
1.0
 40
1.0
 40
1.0
 10
-27.4025
 20
-0.9101
 30
0.0
 10
-27.4025
 20
-0.9101
 30
0.0
 10
-27.8221
 20
-3.3993
 30
0.0
 10
-27.8221
 20
-3.3993
 30
0.0
 10
-27.8221
 20
-3.3993
 30
0.0
 10
-27.8221
 20
-3.3993
 30
0.0
 10
-26.983
 20
-3.3993
 30
0.0
 10
-26.983
 20
-3.3993
 30
0.0
 10
-26.983
 20
-3.3993
 30
0.0
 10
-26.983
 20
-3.3993
 30
0.0
 10
-27.4025
 20
-0.9101
 30
0.0
 10
-27.4025
 20
-0.9101
 30
0.0
  0
SPLINE
  5
B8
330
1F
100
AcDbEntity
  8
AXIS
 62
   250
100
AcDbSpline
210
0.0
220
0.0
230
1.0
 70
    11
 71
     3
 72
    16
 73
    12
 74
     0
 42
0.0000000001
 43
0.0000000001
 40
0.0
 40
0.0
 40
0.0
 40
0.0
 40
0.25
 40
0.25
 40
0.25
 40
0.25
 40
0.5
 40
0.5
 40
0.5
 40
0.5
 40
1.0
 40
1.0
 40
1.0
 40
1.0
 10
-25.1837
 20
7.8486
 30
0.0
 10
-25.1837
 20
7.8486
 30
0.0
 10
-24.7641
 20
10.3378
 30
0.0
 10
-24.7641
 20
10.3378
 30
0.0
 10
-24.7641
 20
10.3378
 30
0.0
 10
-24.7641
 20
10.3378
 30
0.0
 10
-25.6032
 20
10.3378
 30
0.0
 10
-25.6032
 20
10.3378
 30
0.0
 10
-25.6032
 20
10.3378
 30
0.0
 10
-25.6032
 20
10.3378
 30
0.0
 10
-25.1837
 20
7.8486
 30
0.0
 10
-25.1837
 20
7.8486
 30
0.0
  0
SPLINE
  5
B9
330
1F
100
AcDbEntity
  8
AXIS
 62
   250
100
AcDbSpline
210
0.0
220
0.0
230
1.0
 70
    11
 71
     3
 72
    16
 73
    12
 74
     0
 42
0.0000000001
 43
0.0000000001
 40
0.0
 40
0.0
 40
0.0
 40
0.0
 40
0.25
 40
0.25
 40
0.25
 40
0.25
 40
0.5
 40
0.5
 40
0.5
 40
0.5
 40
1.0
 40
1.0
 40
1.0
 40
1.0
 10
-25.1946
 20
31.3355
 30
0.0
 10
-25.1946
 20
31.3355
 30
0.0
 10
-25.6142
 20
28.8463
 30
0.0
 10
-25.6142
 20
28.8463
 30
0.0
 10
-25.6142
 20
28.8463
 30
0.0
 10
-25.6142
 20
28.8463
 30
0.0
 10
-24.7751
 20
28.8463
 30
0.0
 10
-24.7751
 20
28.8463
 30
0.0
 10
-24.7751
 20
28.8463
 30
0.0
 10
-24.7751
 20
28.8463
 30
0.0
 10
-25.1946
 20
31.3355
 30
0.0
 10
-25.1946
 20
31.3355
 30
0.0
  0
SPLINE
  5
BA
330
1F
100
AcDbEntity
  8
AXIS
 62
   250
100
AcDbSpline
210
0.0
220
0.0
230
1.0
 70
    11
 71
     3
 72
    16
 73
    12
 74
     0
 42
0.0000000001
 43
0.0000000001
 40
0.0
 40
0.0
 40
0.0
 40
0.0
 40
0.25
 40
0.25
 40
0.25
 40
0.25
 40
0.5
 40
0.5
 40
0.5
 40
0.5
 40
1.0
 40
1.0
 40
1.0
 40
1.0
 10
22.4625
 20
7.7814
 30
0.0
 10
22.4625
 20
7.7814
 30
0.0
 10
22.8821
 20
10.2706
 30
0.0
 10
22.8821
 20
10.2706
 30
0.0
 10
22.8821
 20
10.2706
 30
0.0
 10
22.8821
 20
10.2706
 30
0.0
 10
22.043
 20
10.2706
 30
0.0
 10
22.043
 20
10.2706
 30
0.0
 10
22.043
 20
10.2706
 30
0.0
 10
22.043
 20
10.2706
 30
0.0
 10
22.4625
 20
7.7814
 30
0.0
 10
22.4625
 20
7.7814
 30
0.0
  0
SPLINE
  5
BB
330
1F
100
AcDbEntity
  8
AXIS
 62
   250
100
AcDbSpline
210
0.0
220
0.0
230
1.0
 70
    11
 71
     3
 72
    16
 73
    12
 74
     0
 42
0.0000000001
 43
0.0000000001
 40
0.0
 40
0.0
 40
0.0
 40
0.0
 40
0.25
 40
0.25
 40
0.25
 40
0.25
 40
0.5
 40
0.5
 40
0.5
 40
0.5
 40
1.0
 40
1.0
 40
1.0
 40
1.0
 10
22.4069
 20
19.4048
 30
0.0
 10
22.4069
 20
19.4048
 30
0.0
 10
21.9873
 20
16.9156
 30
0.0
 10
21.9873
 20
16.9156
 30
0.0
 10
21.9873
 20
16.9156
 30
0.0
 10
21.9873
 20
16.9156
 30
0.0
 10
22.8264
 20
16.9156
 30
0.0
 10
22.8264
 20
16.9156
 30
0.0
 10
22.8264
 20
16.9156
 30
0.0
 10
22.8264
 20
16.9156
 30
0.0
 10
22.4069
 20
19.4048
 30
0.0
 10
22.4069
 20
19.4048
 30
0.0
  0
SPLINE
  5
BC
330
1F
100
AcDbEntity
  8
AXIS
 62
   250
100
AcDbSpline
210
0.0
220
0.0
230
1.0
 70
    11
 71
     3
 72
    16
 73
    12
 74
     0
 42
0.0000000001
 43
0.0000000001
 40
0.0
 40
0.0
 40
0.0
 40
0.0
 40
0.25
 40
0.25
 40
0.25
 40
0.25
 40
0.5
 40
0.5
 40
0.5
 40
0.5
 40
1.0
 40
1.0
 40
1.0
 40
1.0
 10
-19.5162
 20
36.5682
 30
0.0
 10
-19.5162
 20
36.5682
 30
0.0
 10
-17.027
 20
36.1486
 30
0.0
 10
-17.027
 20
36.1486
 30
0.0
 10
-17.027
 20
36.1486
 30
0.0
 10
-17.027
 20
36.1486
 30
0.0
 10
-17.027
 20
36.9877
 30
0.0
 10
-17.027
 20
36.9877
 30
0.0
 10
-17.027
 20
36.9877
 30
0.0
 10
-17.027
 20
36.9877
 30
0.0
 10
-19.5162
 20
36.5682
 30
0.0
 10
-19.5162
 20
36.5682
 30
0.0
  0
SPLINE
  5
BD
330
1F
100
AcDbEntity
  8
AXIS
 62
   250
100
AcDbSpline
210
0.0
220
0.0
230
1.0
 70
    11
 71
     3
 72
    16
 73
    12
 74
     0
 42
0.0000000001
 43
0.0000000001
 40
0.0
 40
0.0
 40
0.0
 40
0.0
 40
0.25
 40
0.25
 40
0.25
 40
0.25
 40
0.5
 40
0.5
 40
0.5
 40
0.5
 40
1.0
 40
1.0
 40
1.0
 40
1.0
 10
11.926
 20
36.5522
 30
0.0
 10
11.926
 20
36.5522
 30
0.0
 10
9.4368
 20
36.9718
 30
0.0
 10
9.4368
 20
36.9718
 30
0.0
 10
9.4368
 20
36.9718
 30
0.0
 10
9.4368
 20
36.9718
 30
0.0
 10
9.4368
 20
36.1327
 30
0.0
 10
9.4368
 20
36.1327
 30
0.0
 10
9.4368
 20
36.1327
 30
0.0
 10
9.4368
 20
36.1327
 30
0.0
 10
11.926
 20
36.5522
 30
0.0
 10
11.926
 20
36.5522
 30
0.0
  0
SPLINE
  5
BE
330
1F
100
AcDbEntity
  8
AXIS
  6
NEW_LINE1
 62
   250
100
AcDbSpline
210
0.0
220
0.0
230
1.0
 70
    24
 71
     3
 72
     8
 73
     4
 74
     0
 42
0.0000000001
 43
0.0000000001
 40
0.0
 40
0.0
 40
0.0
 40
0.0
 40
1.0
 40
1.0
 40
1.0
 40
1.0
 10
7.7142
 20
13.6379
 30
0.0
 10
7.7142
 20
13.6379
 30
0.0
 10
18.4697
 20
13.6379
 30
0.0
 10
18.4697
 20
13.6379
 30
0.0
  0
SPLINE
  5
C0
330
1F
100
AcDbEntity
  8
AXIS
  6
NEW_LINE2
 62
   250
100
AcDbSpline
210
0.0
220
0.0
230
1.0
 70
    24
 71
     3
 72
     8
 73
     4
 74
     0
 42
0.0000000001
 43
0.0000000001
 40
0.0
 40
0.0
 40
0.0
 40
0.0
 40
1.0
 40
1.0
 40
1.0
 40
1.0
 10
-23.6809
 20
-18.5188
 30
0.0
 10
-23.6809
 20
-18.5188
 30
0.0
 10
18.6562
 20
-18.5188
 30
0.0
 10
18.6562
 20
-18.5188
 30
0.0
  0
SPLINE
  5
C2
330
1F
100
AcDbEntity
  8
AXIS
  6
NEW_LINE3
 62
   250
100
AcDbSpline
210
0.0
220
0.0
230
1.0
 70
    24
 71
     3
 72
     8
 73
     4
 74
     0
 42
0.0000000001
 43
0.0000000001
 40
0.0
 40
0.0
 40
0.0
 40
0.0
 40
1.0
 40
1.0
 40
1.0
 40
1.0
 10
-3.7085
 20
-38.009
 30
0.0
 10
-3.7085
 20
-38.009
 30
0.0
 10
-3.7085
 20
0.3582
 30
0.0
 10
-3.7085
 20
0.3582
 30
0.0
  0
SPLINE
  5
C4
330
1F
100
AcDbEntity
  8
AXIS
  6
NEW_LINE4
 62
   250
100
AcDbSpline
210
0.0
220
0.0
230
1.0
 70
    24
 71
     3
 72
     8
 73
     4
 74
     0
 42
0.0000000001
 43
0.0000000001
 40
0.0
 40
0.0
 40
0.0
 40
0.0
 40
1.0
 40
1.0
 40
1.0
 40
1.0
 10
-3.7082
 20
9.8072
 30
0.0
 10
-3.7082
 20
9.8072
 30
0.0
 10
-3.7082
 20
35.581
 30
0.0
 10
-3.7082
 20
35.581
 30
0.0
  0
ENDSEC
  0
SECTION
  2
OBJECTS
  0
DICTIONARY
  5
C
330
0
100
AcDbDictionary
  3
ACAD_GROUP
350
D
  3
ACAD_LAYOUT
350
1A
  3
ACAD_MATERIAL
350
3B
  3
ACAD_MLEADERSTYLE
350
E8
  3
ACAD_MLINESTYLE
350
17
  3
ACAD_PLOTSETTINGS
350
19
  3
ACAD_VISUALSTYLE
350
2A
  3
ACDBHEADERROUNDTRIPXREC
350
C6
  3
ACDBVARIABLEDICTIONARY
350
E6
  0
DICTIONARY
  5
D
102
{ACAD_REACTORS
330
C
102
}
330
C
100
AcDbDictionary
  0
DICTIONARY
  5
1A
102
{ACAD_REACTORS
330
C
102
}
330
C
100
AcDbDictionary
  0
DICTIONARY
  5
3B
102
{ACAD_REACTORS
330
C
102
}
330
C
100
AcDbDictionary
  3
BYBLOCK
350
3D
  3
BYLAYER
350
3C
  3
GLOBAL
350
3E
  0
DICTIONARY
  5
E8
102
{ACAD_REACTORS
330
C
102
}
330
C
100
AcDbDictionary
  0
DICTIONARY
  5
17
102
{ACAD_REACTORS
330
C
102
}
330
C
100
AcDbDictionary
  3
STANDARD
350
18
  0
DICTIONARY
  5
19
102
{ACAD_REACTORS
330
C
102
}
330
C
100
AcDbDictionary
  0
DICTIONARY
  5
2A
102
{ACAD_REACTORS
330
C
102
}
330
C
100
AcDbDictionary
  3
2DWIREFRAME
350
2F
  3
3D_HIDDEN
350
31
  3
3DWIREFRAME
350
30
  3
BASIC
350
32
  3
BRIGHTEN
350
36
  3
COLORCHANGE
350
3A
  3
CONCEPTUAL
350
34
  3
DIM
350
35
  3
FACEPATTERN
350
39
  3
FLAT
350
2B
  3
FLATWITHEDGES
350
2C
  3
GOURAUD
350
2D
  3
GOURAUDWITHEDGES
350
2E
  3
LINEPATTERN
350
38
  3
REALISTIC
350
33
  3
THICKEN
350
37
  0
DICTIONARY
  5
C6
102
{ACAD_REACTORS
330
C
102
}
330
C
100
AcDbDictionary
  3
CEPSNTYPE
350
CF
  3
DIMSTYLEDATA
350
E5
  3
FINGERPRINTGUID
350
D0
  3
HYPERLINKBASE
350
C9
  3
INSUNITS
350
CE
  3
LAYOUTDICT
350
CB
  3
LWETCUNION
350
CD
  3
PLOTSETDICT
350
CC
  3
PSVPSCALE
350
D2
  3
PUCSBASE
350
D5
  3
PUCSORGBACK
350
DB
  3
PUCSORGBOTTOM
350
D7
  3
PUCSORGFRONT
350
DA
  3
PUCSORGLEFT
350
D8
  3
PUCSORGRIGHT
350
D9
  3
PUCSORGTOP
350
D6
  3
PUCSORTHOREF
350
D3
  3
PUCSORTHOVIEW
350
D4
  3
STYLESHEET
350
CA
  3
TSTACKALIGN
350
C7
  3
TSTACKSIZE
350
C8
  3
UCSBASE
350
DE
  3
UCSORGBACK
350
E4
  3
UCSORGBOTTOM
350
E0
  3
UCSORGFRONT
350
E3
  3
UCSORGLEFT
350
E1
  3
UCSORGRIGHT
350
E2
  3
UCSORGTOP
350
DF
  3
UCSORTHOREF
350
DC
  3
UCSORTHOVIEW
350
DD
  3
VERSIONGUID
350
D1
  0
DICTIONARY
  5
E6
102
{ACAD_REACTORS
330
C
102
}
330
C
100
AcDbDictionary
  3
DIMASSOC
350
E9
  3
HIDETEXT
350
EA
  0
MATERIAL
  5
3D
102
{ACAD_REACTORS
330
3B
102
}
102
{ACAD_XDICTIONARY
360
ED
102
}
330
3B
100
AcDbMaterial
  1
ByBlock
  0
MATERIAL
  5
3C
102
{ACAD_REACTORS
330
3B
102
}
102
{ACAD_XDICTIONARY
360
EB
102
}
330
3B
100
AcDbMaterial
  1
ByLayer
  0
MATERIAL
  5
3E
102
{ACAD_REACTORS
330
3B
102
}
102
{ACAD_XDICTIONARY
360
EF
102
}
330
3B
100
AcDbMaterial
  1
Global
  0
MLINESTYLE
  5
18
102
{ACAD_REACTORS
330
17
102
}
330
17
100
AcDbMlineStyle
  2
Standard
 70
     0
  3

 62
   256
 51
90.0
 52
90.0
 71
     2
 49
0.5
 62
   256
  6
BYLAYER
 49
-0.5
 62
   256
  6
BYLAYER
  0
ACAD_PROXY_OBJECT
  5
2F
102
{ACAD_REACTORS
330
2A
102
}
330
2A
100
AcDbProxyObject
 90
      499
 91
      501
 93
      436
310
42CC9915DA5C99599C985B595049028333333333333E3BF0000000000000FB0107901411070040501600405405064090741402480A0340
1001
ACAD
1000
AcDbSavedByObjectVersion
1070
     0
  0
ACAD_PROXY_OBJECT
  5
31
102
{ACAD_REACTORS
330
2A
102
}
330
2A
100
AcDbProxyObject
 90
      499
 91
      501
 93
      500
310
424CD108121A5919195B90640502408333333333333E3BF0000000000000FB01079024090700405020000000000001110200405405064090740C02480A0340
1001
ACAD
1000
AcDbSavedByObjectVersion
1070
     0
  0
ACAD_PROXY_OBJECT
  5
30
102
{ACAD_REACTORS
330
2A
102
}
330
2A
100
AcDbProxyObject
 90
      499
 91
      501
 93
      436
310
42CCD915DA5C99599C985B595059028333333333333E3BF0000000000000FB0107901411070040501600405405064090741402480A0340
1001
ACAD
1000
AcDbSavedByObjectVersion
1070
     0
  0
ACAD_PROXY_OBJECT
  5
32
102
{ACAD_REACTORS
330
2A
102
}
330
2A
100
AcDbProxyObject
 90
      499
 91
      501
 93
      388
310
4150985CDA58D07406404333333333333E3BF0000000000000FB0107A41107004050150841D405064090741402480A0350
1001
ACAD
1000
AcDbSavedByObjectVersion
1070
     0
  0
ACAD_PROXY_OBJECT
  5
36
102
{ACAD_REACTORS
330
2A
102
}
330
2A
100
AcDbProxyObject
 90
      499
 91
      501
 93
      428
310
42109C9A59DA1D195B90C409028333333333333E3BF0000000000000FB010790141107004050150841D405064090741402480A029950
1001
ACAD
1000
AcDbSavedByObjectVersion
1070
     0
  0
ACAD_PROXY_OBJECT
  5
3A
102
{ACAD_REACTORS
330
2A
102
}
330
2A
100
AcDbProxyObject
 90
      499
 91
      501
 93
      452
310
42D0DBDB1BDC90DA185B99D95104090240C333333333333E3BF0000000000000FB0108901411070040501508421405064090741402480A0350
1001
ACAD
1000
AcDbSavedByObjectVersion
1070
     0
  0
ACAD_PROXY_OBJECT
  5
34
102
{ACAD_REACTORS
330
2A
102
}
330
2A
100
AcDbProxyObject
 90
      499
 91
      501
 93
      500
310
4290DBDB98D95C1D1D585B10940D028333333333333E3BF0000000000000FB0107902409070040501000000000000111010841D405064090740C02480A0340
1001
ACAD
1000
AcDbSavedByObjectVersion
1070
     0
  0
ACAD_PROXY_OBJECT
  5
35
102
{ACAD_REACTORS
330
2A
102
}
330
2A
100
AcDbProxyObject
 90
      499
 91
      501
 93
      412
310
40D11A5B50B409028333333333333E3BF0000000000000FB010790141107004050150841D405064090741402480A02677FFFFFD0
1001
ACAD
1000
AcDbSavedByObjectVersion
1070
     0
  0
ACAD_PROXY_OBJECT
  5
39
102
{ACAD_REACTORS
330
2A
102
}
330
2A
100
AcDbProxyObject
 90
      499
 91
      501
 93
      444
310
42D19858D95C185D1D195C9B90F409028333333333333E3BF0000000000000FB010790141107004050150841D405064090741402480A0350
1001
ACAD
1000
AcDbSavedByObjectVersion
1070
     0
  0
ACAD_PROXY_OBJECT
  5
2B
102
{ACAD_REACTORS
330
2A
102
}
330
2A
100
AcDbProxyObject
 90
      499
 91
      501
 93
      388
310
41119B185D240901404333333333333E3BF0000000000000F9010740A41107004050150841D405064090741402480A1B50
1001
ACAD
1000
AcDbSavedByObjectVersion
1070
     0
  0
ACAD_PROXY_OBJECT
  5
2C
102
{ACAD_REACTORS
330
2A
102
}
330
2A
100
AcDbProxyObject
 90
      499
 91
      501
 93
      476
310
43519B185D15DA5D1A115919D95CD0140901404333333333333E3BF0000000000000F9010740901411070040501600405405064090741402480A1B50
1001
ACAD
1000
AcDbSavedByObjectVersion
1070
     0
  0
ACAD_PROXY_OBJECT
  5
2D
102
{ACAD_REACTORS
330
2A
102
}
330
2A
100
AcDbProxyObject
 90
      499
 91
      501
 93
      412
310
41D1DBDD5C985D5910240902404333333333333E3BF0000000000000F9010740A411070040501641D405064090741402480A1B50
1001
ACAD
1000
AcDbSavedByObjectVersion
1070
     0
  0
ACAD_PROXY_OBJECT
  5
2E
102
{ACAD_REACTORS
330
2A
102
}
330
2A
100
AcDbProxyObject
 90
      499
 91
      501
 93
      500
310
4411DBDD5C985D5915DA5D1A115919D95CD0340902404333333333333E3BF0000000000000F9010740901411070040501600405405064090741402480A1B50
1001
ACAD
1000
AcDbSavedByObjectVersion
1070
     0
  0
ACAD_PROXY_OBJECT
  5
38
102
{ACAD_REACTORS
330
2A
102
}
330
2A
100
AcDbProxyObject
 90
      499
 91
      501
 93
      444
310
42D31A5B995C185D1D195C9B90E409028333333333333E3BF0000000000000FB010790141107004050750841D405064090741402483A0350
1001
ACAD
1000
AcDbSavedByObjectVersion
1070
     0
  0
ACAD_PROXY_OBJECT
  5
33
102
{ACAD_REACTORS
330
2A
102
}
330
2A
100
AcDbProxyObject
 90
      499
 91
      501
 93
      420
310
425499585B1A5CDD1A58D08409028333333333333E3BF0000000000000FB01079019070040501508421405064090741402480A1B40
1001
ACAD
1000
AcDbSavedByObjectVersion
1070
     0
  0
ACAD_PROXY_OBJECT
  5
37
102
{ACAD_REACTORS
330
2A
102
}
330
2A
100
AcDbProxyObject
 90
      499
 91
      501
 93
      412
310
41D51A1A58DAD95B90D409028333333333333E3BF0000000000000FB010790141107004050150C41D405064090741402480A0350
1001
ACAD
1000
AcDbSavedByObjectVersion
1070
     0
  0
XRECORD
  5
CF
102
{ACAD_REACTORS
330
C6
102
}
330
C6
100
AcDbXrecord
 90
        0
  0
XRECORD
  5
E5
102
{ACAD_REACTORS
330
C6
102
}
330
C6
100
AcDbXrecord
1000
DSTYLE
1002
{
1070
   340
340
11
1002
}
  0
XRECORD
  5
D0
102
{ACAD_REACTORS
330
C6
102
}
330
C6
100
AcDbXrecord
  1
{FA5A8429-4801-46E0-8A93-D4700F2F69D0}
  0
XRECORD
  5
C9
102
{ACAD_REACTORS
330
C6
102
}
330
C6
100
AcDbXrecord
  1

  0
XRECORD
  5
CE
102
{ACAD_REACTORS
330
C6
102
}
330
C6
100
AcDbXrecord
 90
        4
  0
XRECORD
  5
CB
102
{ACAD_REACTORS
330
C6
102
}
330
C6
100
AcDbXrecord
340
1A
  0
XRECORD
  5
CD
102
{ACAD_REACTORS
330
C6
102
}
330
C6
100
AcDbXrecord
 90
    10781
  0
XRECORD
  5
CC
102
{ACAD_REACTORS
330
C6
102
}
330
C6
100
AcDbXrecord
340
19
  0
XRECORD
  5
D2
102
{ACAD_REACTORS
330
C6
102
}
330
C6
100
AcDbXrecord
 40
0.0
  0
XRECORD
  5
D5
102
{ACAD_REACTORS
330
C6
102
}
330
C6
100
AcDbXrecord
340
0
  0
XRECORD
  5
DB
102
{ACAD_REACTORS
330
C6
102
}
330
C6
100
AcDbXrecord
 10
0.0
 20
0.0
 30
0.0
  0
XRECORD
  5
D7
102
{ACAD_REACTORS
330
C6
102
}
330
C6
100
AcDbXrecord
 10
0.0
 20
0.0
 30
0.0
  0
XRECORD
  5
DA
102
{ACAD_REACTORS
330
C6
102
}
330
C6
100
AcDbXrecord
 10
0.0
 20
0.0
 30
0.0
  0
XRECORD
  5
D8
102
{ACAD_REACTORS
330
C6
102
}
330
C6
100
AcDbXrecord
 10
0.0
 20
0.0
 30
0.0
  0
XRECORD
  5
D9
102
{ACAD_REACTORS
330
C6
102
}
330
C6
100
AcDbXrecord
 10
0.0
 20
0.0
 30
0.0
  0
XRECORD
  5
D6
102
{ACAD_REACTORS
330
C6
102
}
330
C6
100
AcDbXrecord
 10
0.0
 20
0.0
 30
0.0
  0
XRECORD
  5
D3
102
{ACAD_REACTORS
330
C6
102
}
330
C6
100
AcDbXrecord
340
0
  0
XRECORD
  5
D4
102
{ACAD_REACTORS
330
C6
102
}
330
C6
100
AcDbXrecord
 70
     0
  0
XRECORD
  5
CA
102
{ACAD_REACTORS
330
C6
102
}
330
C6
100
AcDbXrecord
  1

  0
XRECORD
  5
C7
102
{ACAD_REACTORS
330
C6
102
}
330
C6
100
AcDbXrecord
 90
        1
  0
XRECORD
  5
C8
102
{ACAD_REACTORS
330
C6
102
}
330
C6
100
AcDbXrecord
 90
       70
  0
XRECORD
  5
DE
102
{ACAD_REACTORS
330
C6
102
}
330
C6
100
AcDbXrecord
340
0
  0
XRECORD
  5
E4
102
{ACAD_REACTORS
330
C6
102
}
330
C6
100
AcDbXrecord
 10
0.0
 20
0.0
 30
0.0
  0
XRECORD
  5
E0
102
{ACAD_REACTORS
330
C6
102
}
330
C6
100
AcDbXrecord
 10
0.0
 20
0.0
 30
0.0
  0
XRECORD
  5
E3
102
{ACAD_REACTORS
330
C6
102
}
330
C6
100
AcDbXrecord
 10
0.0
 20
0.0
 30
0.0
  0
XRECORD
  5
E1
102
{ACAD_REACTORS
330
C6
102
}
330
C6
100
AcDbXrecord
 10
0.0
 20
0.0
 30
0.0
  0
XRECORD
  5
E2
102
{ACAD_REACTORS
330
C6
102
}
330
C6
100
AcDbXrecord
 10
0.0
 20
0.0
 30
0.0
  0
XRECORD
  5
DF
102
{ACAD_REACTORS
330
C6
102
}
330
C6
100
AcDbXrecord
 10
0.0
 20
0.0
 30
0.0
  0
XRECORD
  5
DC
102
{ACAD_REACTORS
330
C6
102
}
330
C6
100
AcDbXrecord
340
0
  0
XRECORD
  5
DD
102
{ACAD_REACTORS
330
C6
102
}
330
C6
100
AcDbXrecord
 70
     0
  0
XRECORD
  5
D1
102
{ACAD_REACTORS
330
C6
102
}
330
C6
100
AcDbXrecord
  1
{FAEB1C32-E019-11D5-929B-00C0DF256EC4}
  0
DICTIONARYVAR
  5
E9
102
{ACAD_REACTORS
330
E6
102
}
330
E6
100
DictionaryVariables
280
     0
  1
2
  0
DICTIONARYVAR
  5
EA
102
{ACAD_REACTORS
330
E6
102
}
330
E6
100
DictionaryVariables
280
     0
  1
1
  0
DICTIONARY
  5
ED
330
3D
100
AcDbDictionary
280
     1
  3
ACAD_XREC_ROUNDTRIP
360
EE
  0
DICTIONARY
  5
EB
330
3C
100
AcDbDictionary
280
     1
  3
ACAD_XREC_ROUNDTRIP
360
EC
  0
DICTIONARY
  5
EF
330
3E
100
AcDbDictionary
280
     1
  3
ACAD_XREC_ROUNDTRIP
360
F0
  0
XRECORD
  5
EE
102
{ACAD_REACTORS
330
ED
102
}
330
ED
100
AcDbXrecord
102
MATERIAL
148
0.0
149
0.0
149
0.0
 93
        0
 94
      127
282
     0
 72
     1
 77
     1
171
     1
175
     1
179
     1
273
     0
  0
XRECORD
  5
EC
102
{ACAD_REACTORS
330
EB
102
}
330
EB
100
AcDbXrecord
102
MATERIAL
148
0.0
149
0.0
149
0.0
 93
        0
 94
      127
282
     0
 72
     1
 77
     1
171
     1
175
     1
179
     1
273
     0
  0
XRECORD
  5
F0
102
{ACAD_REACTORS
330
EF
102
}
330
EF
100
AcDbXrecord
102
MATERIAL
148
0.0
149
0.0
149
0.0
 93
        0
 94
      127
282
     0
 72
     1
 77
     1
171
     1
175
     1
179
     1
273
     0
  0
ENDSEC
  0
EOF
