  0
SECTION
  2
HEADER
  9
$ACADVER
  1
AC1014
  9
$ACADMAINTVER
 70
     9
  9
$DWGCODEPAGE
  3
ANSI_1250
  9
$INSBASE
 10
0.0
 20
0.0
 30
0.0
  9
$EXTMIN
 10
-48.4086
 20
-36.2372
 30
0.0
  9
$EXTMAX
 10
48.2678
 20
36.3075
 30
0.0
  9
$LIMMIN
 10
0.0
 20
0.0
  9
$LIMMAX
 10
12.0
 20
9.0
  9
$ORTHOMODE
 70
     0
  9
$REGENMODE
 70
     1
  9
$FILLMODE
 70
     1
  9
$QTEXTMODE
 70
     0
  9
$MIRRTEXT
 70
     1
  9
$DRAGMODE
 70
     2
  9
$LTSCALE
 40
1.0
  9
$OSMODE
 70
    37
  9
$ATTMODE
 70
     1
  9
$TEXTSIZE
 40
0.2
  9
$TRACEWID
 40
0.05
  9
$TEXTSTYLE
  7
STANDARD
  9
$CLAYER
  8
0
  9
$CELTYPE
  6
BYLAYER
  9
$CECOLOR
 62
   256
  9
$CELTSCALE
 40
1.0
  9
$DELOBJ
 70
     1
  9
$DISPSILH
 70
     0
  9
$DIMSCALE
 40
1.0
  9
$DIMASZ
 40
0.18
  9
$DIMEXO
 40
0.0625
  9
$DIMDLI
 40
0.38
  9
$DIMRND
 40
0.0
  9
$DIMDLE
 40
0.0
  9
$DIMEXE
 40
0.18
  9
$DIMTP
 40
0.0
  9
$DIMTM
 40
0.0
  9
$DIMTXT
 40
0.18
  9
$DIMCEN
 40
0.09
  9
$DIMTSZ
 40
0.0
  9
$DIMTOL
 70
     0
  9
$DIMLIM
 70
     0
  9
$DIMTIH
 70
     1
  9
$DIMTOH
 70
     1
  9
$DIMSE1
 70
     0
  9
$DIMSE2
 70
     0
  9
$DIMTAD
 70
     0
  9
$DIMZIN
 70
     0
  9
$DIMBLK
  1

  9
$DIMASO
 70
     1
  9
$DIMSHO
 70
     1
  9
$DIMPOST
  1

  9
$DIMAPOST
  1

  9
$DIMALT
 70
     0
  9
$DIMALTD
 70
     2
  9
$DIMALTF
 40
25.4
  9
$DIMLFAC
 40
1.0
  9
$DIMTOFL
 70
     0
  9
$DIMTVP
 40
0.0
  9
$DIMTIX
 70
     0
  9
$DIMSOXD
 70
     0
  9
$DIMSAH
 70
     0
  9
$DIMBLK1
  1

  9
$DIMBLK2
  1

  9
$DIMSTYLE
  2
STANDARD
  9
$DIMCLRD
 70
     0
  9
$DIMCLRE
 70
     0
  9
$DIMCLRT
 70
     0
  9
$DIMTFAC
 40
1.0
  9
$DIMGAP
 40
0.09
  9
$DIMJUST
 70
     0
  9
$DIMSD1
 70
     0
  9
$DIMSD2
 70
     0
  9
$DIMTOLJ
 70
     1
  9
$DIMTZIN
 70
     0
  9
$DIMALTZ
 70
     0
  9
$DIMALTTZ
 70
     0
  9
$DIMFIT
 70
     3
  9
$DIMUPT
 70
     0
  9
$DIMUNIT
 70
     2
  9
$DIMDEC
 70
     4
  9
$DIMTDEC
 70
     4
  9
$DIMALTU
 70
     2
  9
$DIMALTTD
 70
     2
  9
$DIMTXSTY
  7
STANDARD
  9
$DIMAUNIT
 70
     0
  9
$LUNITS
 70
     2
  9
$LUPREC
 70
     4
  9
$SKETCHINC
 40
0.1
  9
$FILLETRAD
 40
0.5
  9
$AUNITS
 70
     0
  9
$AUPREC
 70
     0
  9
$MENU
  1
.
  9
$ELEVATION
 40
0.0
  9
$PELEVATION
 40
0.0
  9
$THICKNESS
 40
0.0
  9
$LIMCHECK
 70
     0
  9
$CHAMFERA
 40
0.5
  9
$CHAMFERB
 40
0.5
  9
$CHAMFERC
 40
1.0
  9
$CHAMFERD
 40
0.0
  9
$SKPOLY
 70
     0
  9
$TDCREATE
 40
2456272.416847662
  9
$TDUPDATE
 40
2456272.416847674
  9
$TDINDWG
 40
0.0000000116
  9
$TDUSRTIMER
 40
0.0000000116
  9
$USRTIMER
 70
     1
  9
$ANGBASE
 50
0.0
  9
$ANGDIR
 70
     0
  9
$PDMODE
 70
     0
  9
$PDSIZE
 40
0.0
  9
$PLINEWID
 40
0.0
  9
$COORDS
 70
     1
  9
$SPLFRAME
 70
     0
  9
$SPLINETYPE
 70
     6
  9
$SPLINESEGS
 70
     8
  9
$ATTDIA
 70
     0
  9
$ATTREQ
 70
     1
  9
$HANDLING
 70
     1
  9
$HANDSEED
  5
BD
  9
$SURFTAB1
 70
     6
  9
$SURFTAB2
 70
     6
  9
$SURFTYPE
 70
     6
  9
$SURFU
 70
     6
  9
$SURFV
 70
     6
  9
$UCSNAME
  2

  9
$UCSORG
 10
0.0
 20
0.0
 30
0.0
  9
$UCSXDIR
 10
1.0
 20
0.0
 30
0.0
  9
$UCSYDIR
 10
0.0
 20
1.0
 30
0.0
  9
$PUCSNAME
  2

  9
$PUCSORG
 10
0.0
 20
0.0
 30
0.0
  9
$PUCSXDIR
 10
1.0
 20
0.0
 30
0.0
  9
$PUCSYDIR
 10
0.0
 20
1.0
 30
0.0
  9
$USERI1
 70
     0
  9
$USERI2
 70
     0
  9
$USERI3
 70
     0
  9
$USERI4
 70
     0
  9
$USERI5
 70
     0
  9
$USERR1
 40
0.0
  9
$USERR2
 40
0.0
  9
$USERR3
 40
0.0
  9
$USERR4
 40
0.0
  9
$USERR5
 40
0.0
  9
$WORLDVIEW
 70
     1
  9
$SHADEDGE
 70
     3
  9
$SHADEDIF
 70
    70
  9
$TILEMODE
 70
     1
  9
$MAXACTVP
 70
    64
  9
$PINSBASE
 10
0.0
 20
0.0
 30
0.0
  9
$PLIMCHECK
 70
     0
  9
$PEXTMIN
 10
1.000000000000000E+20
 20
1.000000000000000E+20
 30
1.000000000000000E+20
  9
$PEXTMAX
 10
-1.000000000000000E+20
 20
-1.000000000000000E+20
 30
-1.000000000000000E+20
  9
$PLIMMIN
 10
0.0
 20
0.0
  9
$PLIMMAX
 10
12.0
 20
9.0
  9
$UNITMODE
 70
     0
  9
$VISRETAIN
 70
     1
  9
$PLINEGEN
 70
     0
  9
$PSLTSCALE
 70
     1
  9
$TREEDEPTH
 70
  3020
  9
$PICKSTYLE
 70
     1
  9
$CMLSTYLE
  2
STANDARD
  9
$CMLJUST
 70
     0
  9
$CMLSCALE
 40
1.0
  9
$PROXYGRAPHICS
 70
     1
  9
$MEASUREMENT
 70
     0
  0
ENDSEC
  0
SECTION
  2
CLASSES
  0
CLASS
  1
ACDBDICTIONARYWDFLT
  2
AcDbDictionaryWithDefault
  3
ObjectDBX Classes
 90
        0
280
     0
281
     0
  0
CLASS
  1
VISUALSTYLE
  2
AcDbVisualStyle
  3
ObjectDBX Classes
 90
     4095
280
     0
281
     0
  0
CLASS
  1
MATERIAL
  2
AcDbMaterial
  3
ObjectDBX Classes
 90
     1153
280
     0
281
     0
  0
CLASS
  1
DICTIONARYVAR
  2
AcDbDictionaryVar
  3
ObjectDBX Classes
 90
        0
280
     0
281
     0
  0
CLASS
  1
XRECORD
  2
AcDbXrecord
  3
AutoCAD 2000
 90
        0
280
     0
281
     0
  0
CLASS
  1
LWPOLYLINE
  2
AcDbPolyline
  3
AutoCAD 2000
 90
        0
280
     0
281
     1
  0
CLASS
  1
HATCH
  2
AcDbHatch
  3
AutoCAD 2000
 90
        0
280
     0
281
     1
  0
CLASS
  1
ACDBPLACEHOLDER
  2
AcDbPlaceHolder
  3
ObjectDBX Classes
 90
        0
280
     0
281
     0
  0
CLASS
  1
LAYOUT
  2
AcDbLayout
  3
ObjectDBX Classes
 90
        0
280
     0
281
     0
  0
ENDSEC
  0
SECTION
  2
TABLES
  0
TABLE
  2
VPORT
  5
8
330
0
100
AcDbSymbolTable
 70
     1
  0
VPORT
  5
29
330
8
100
AcDbSymbolTableRecord
100
AcDbViewportTableRecord
  2
*ACTIVE
 70
     0
 10
0.0
 20
0.0
 11
1.0
 21
1.0
 12
10.42990654205607
 22
4.5
 13
0.0
 23
0.0
 14
0.5
 24
0.5
 15
0.5
 25
0.5
 16
0.0
 26
0.0
 36
1.0
 17
0.0
 27
0.0
 37
0.0
 40
9.0
 41
1.972972972850329
 42
50.0
 43
0.0
 44
0.0
 50
0.0
 51
0.0
 71
     0
 72
   100
 73
     1
 74
     3
 75
     0
 76
     0
 77
     0
 78
     0
  0
ENDTAB
  0
TABLE
  2
LTYPE
  5
5
330
0
100
AcDbSymbolTable
 70
     1
  0
LTYPE
  5
14
330
5
100
AcDbSymbolTableRecord
100
AcDbLinetypeTableRecord
  2
BYBLOCK
 70
     0
  3

 72
    65
 73
     0
 40
0.0
  0
LTYPE
  5
15
330
5
100
AcDbSymbolTableRecord
100
AcDbLinetypeTableRecord
  2
BYLAYER
 70
     0
  3

 72
    65
 73
     0
 40
0.0
  0
LTYPE
  5
16
330
5
100
AcDbSymbolTableRecord
100
AcDbLinetypeTableRecord
  2
CONTINUOUS
 70
     0
  3
Solid line
 72
    65
 73
     0
 40
0.0
  0
ENDTAB
  0
TABLE
  2
LAYER
  5
2
330
0
100
AcDbSymbolTable
 70
     2
  0
LAYER
  5
10
330
2
100
AcDbSymbolTableRecord
100
AcDbLayerTableRecord
  2
0
 70
     0
 62
     7
  6
CONTINUOUS
  0
LAYER
  5
40
330
2
100
AcDbSymbolTableRecord
100
AcDbLayerTableRecord
  2
AXIS
 70
     0
 62
     7
  6
CONTINUOUS
  0
ENDTAB
  0
TABLE
  2
STYLE
  5
3
330
0
100
AcDbSymbolTable
 70
     1
  0
STYLE
  5
11
330
3
100
AcDbSymbolTableRecord
100
AcDbTextStyleTableRecord
  2
STANDARD
 70
     0
 40
0.0
 41
1.0
 50
0.0
 71
     0
 42
0.2
  3
txt
  4

  0
ENDTAB
  0
TABLE
  2
VIEW
  5
6
330
0
100
AcDbSymbolTable
 70
     0
  0
ENDTAB
  0
TABLE
  2
UCS
  5
7
330
0
100
AcDbSymbolTable
 70
     0
  0
ENDTAB
  0
TABLE
  2
APPID
  5
9
330
0
100
AcDbSymbolTable
 70
     2
  0
APPID
  5
12
330
9
100
AcDbSymbolTableRecord
100
AcDbRegAppTableRecord
  2
ACAD
 70
     0
  0
APPID
  5
3F
330
9
100
AcDbSymbolTableRecord
100
AcDbRegAppTableRecord
  2
ODA
 70
     0
  0
ENDTAB
  0
TABLE
  2
DIMSTYLE
  5
A
330
0
100
AcDbSymbolTable
 70
     1
  0
DIMSTYLE
105
27
330
A
100
AcDbSymbolTableRecord
100
AcDbDimStyleTableRecord
  2
STANDARD
 70
     0
  3

  4

  5

  6

  7

 40
1.0
 41
0.18
 42
0.0625
 43
0.38
 44
0.18
 45
0.0
 46
0.0
 47
0.0
 48
0.0
140
0.18
141
0.09
142
0.0
143
25.4
144
1.0
145
0.0
146
1.0
147
0.09
 71
     0
 72
     0
 73
     1
 74
     1
 75
     0
 76
     0
 77
     0
 78
     0
170
     0
171
     2
172
     0
173
     0
174
     0
175
     0
176
     0
177
     0
178
     0
270
     2
271
     4
272
     4
273
     2
274
     2
340
11
275
     0
280
     0
281
     0
282
     0
283
     1
284
     0
285
     0
286
     0
287
     3
288
     0
  0
ENDTAB
  0
TABLE
  2
BLOCK_RECORD
  5
1
330
0
100
AcDbSymbolTable
 70
     1
  0
BLOCK_RECORD
  5
1F
330
1
100
AcDbSymbolTableRecord
100
AcDbBlockTableRecord
  2
*MODEL_SPACE
  0
BLOCK_RECORD
  5
1B
330
1
100
AcDbSymbolTableRecord
100
AcDbBlockTableRecord
  2
*PAPER_SPACE
  0
ENDTAB
  0
ENDSEC
  0
SECTION
  2
BLOCKS
  0
BLOCK
  5
20
330
1F
100
AcDbEntity
  8
0
100
AcDbBlockBegin
  2
*MODEL_SPACE
 70
     0
 10
0.0
 20
0.0
 30
0.0
  3
*MODEL_SPACE
  1

  0
ENDBLK
  5
21
330
1F
100
AcDbEntity
  8
0
100
AcDbBlockEnd
  0
BLOCK
  5
1C
330
1B
100
AcDbEntity
 67
     1
  8
0
100
AcDbBlockBegin
  2
*PAPER_SPACE
 70
     0
 10
0.0
 20
0.0
 30
0.0
  3
*PAPER_SPACE
  1

  0
ENDBLK
  5
1D
330
1B
100
AcDbEntity
 67
     1
  8
0
100
AcDbBlockEnd
  0
ENDSEC
  0
SECTION
  2
ENTITIES
  0
SPLINE
  5
41
330
1F
100
AcDbEntity
  8
AXIS
 62
   250
100
AcDbSpline
210
0.0
220
0.0
230
1.0
 70
    24
 71
     3
 72
     8
 73
     4
 74
     0
 42
0.0000000001
 43
0.0000000001
 40
0.0
 40
0.0
 40
0.0
 40
0.0
 40
1.0
 40
1.0
 40
1.0
 40
1.0
 10
-48.2675
 20
35.807
 30
0.0
 10
-48.2675
 20
35.807
 30
0.0
 10
-48.2675
 20
-28.9461
 30
0.0
 10
-48.2675
 20
-28.9461
 30
0.0
  0
SPLINE
  5
42
330
1F
100
AcDbEntity
  8
AXIS
 62
   250
100
AcDbSpline
210
0.0
220
0.0
230
1.0
 70
    24
 71
     3
 72
     8
 73
     4
 74
     0
 42
0.0000000001
 43
0.0000000001
 40
0.0
 40
0.0
 40
0.0
 40
0.0
 40
1.0
 40
1.0
 40
1.0
 40
1.0
 10
-48.2675
 20
-28.9461
 30
0.0
 10
-48.2675
 20
-28.9461
 30
0.0
 10
16.1052
 20
-28.9461
 30
0.0
 10
16.1052
 20
-28.9461
 30
0.0
  0
SPLINE
  5
43
330
1F
100
AcDbEntity
  8
AXIS
 62
   250
100
AcDbSpline
210
0.0
220
0.0
230
1.0
 70
    24
 71
     3
 72
     8
 73
     4
 74
     0
 42
0.0000000001
 43
0.0000000001
 40
0.0
 40
0.0
 40
0.0
 40
0.0
 40
1.0
 40
1.0
 40
1.0
 40
1.0
 10
-46.0634
 20
-26.7288
 30
0.0
 10
-46.0634
 20
-26.7288
 30
0.0
 10
-46.0634
 20
4.0605
 30
0.0
 10
-46.0634
 20
4.0605
 30
0.0
  0
SPLINE
  5
44
330
1F
100
AcDbEntity
  8
AXIS
 62
   250
100
AcDbSpline
210
0.0
220
0.0
230
1.0
 70
    24
 71
     3
 72
     8
 73
     4
 74
     0
 42
0.0000000001
 43
0.0000000001
 40
0.0
 40
0.0
 40
0.0
 40
0.0
 40
1.0
 40
1.0
 40
1.0
 40
1.0
 10
-46.0634
 20
3.8944
 30
0.0
 10
-46.0634
 20
3.8944
 30
0.0
 10
-46.0634
 20
33.5897
 30
0.0
 10
-46.0634
 20
33.5897
 30
0.0
  0
SPLINE
  5
45
330
1F
100
AcDbEntity
  8
AXIS
 62
   250
100
AcDbSpline
210
0.0
220
0.0
230
1.0
 70
    24
 71
     3
 72
     8
 73
     4
 74
     0
 42
0.0000000001
 43
0.0000000001
 40
0.0
 40
0.0
 40
0.0
 40
0.0
 40
1.0
 40
1.0
 40
1.0
 40
1.0
 10
13.9011
 20
-26.7288
 30
0.0
 10
13.9011
 20
-26.7288
 30
0.0
 10
-16.6755
 20
-26.7288
 30
0.0
 10
-16.6755
 20
-26.7288
 30
0.0
  0
SPLINE
  5
46
330
1F
100
AcDbEntity
  8
AXIS
 62
   250
100
AcDbSpline
210
0.0
220
0.0
230
1.0
 70
    24
 71
     3
 72
     8
 73
     4
 74
     0
 42
0.0000000001
 43
0.0000000001
 40
0.0
 40
0.0
 40
0.0
 40
0.0
 40
1.0
 40
1.0
 40
1.0
 40
1.0
 10
-16.5424
 20
-26.7288
 30
0.0
 10
-16.5424
 20
-26.7288
 30
0.0
 10
-46.0634
 20
-26.7288
 30
0.0
 10
-46.0634
 20
-26.7288
 30
0.0
  0
SPLINE
  5
47
330
1F
100
AcDbEntity
  8
AXIS
 62
   250
100
AcDbSpline
210
0.0
220
0.0
230
1.0
 70
    24
 71
     3
 72
     8
 73
     4
 74
     0
 42
0.0000000001
 43
0.0000000001
 40
0.0
 40
0.0
 40
0.0
 40
0.0
 40
1.0
 40
1.0
 40
1.0
 40
1.0
 10
-45.3989
 20
-26.0602
 30
0.0
 10
-45.3989
 20
-26.0602
 30
0.0
 10
-45.3989
 20
4.1881
 30
0.0
 10
-45.3989
 20
4.1881
 30
0.0
  0
SPLINE
  5
48
330
1F
100
AcDbEntity
  8
AXIS
 62
   250
100
AcDbSpline
210
0.0
220
0.0
230
1.0
 70
    24
 71
     3
 72
     8
 73
     4
 74
     0
 42
0.0000000001
 43
0.0000000001
 40
0.0
 40
0.0
 40
0.0
 40
0.0
 40
1.0
 40
1.0
 40
1.0
 40
1.0
 10
-45.3989
 20
3.9061
 30
0.0
 10
-45.3989
 20
3.9061
 30
0.0
 10
-45.3989
 20
32.9211
 30
0.0
 10
-45.3989
 20
32.9211
 30
0.0
  0
SPLINE
  5
49
330
1F
100
AcDbEntity
  8
AXIS
 62
   250
100
AcDbSpline
210
0.0
220
0.0
230
1.0
 70
    24
 71
     3
 72
     8
 73
     4
 74
     0
 42
0.0000000001
 43
0.0000000001
 40
0.0
 40
0.0
 40
0.0
 40
0.0
 40
1.0
 40
1.0
 40
1.0
 40
1.0
 10
13.2366
 20
-26.0602
 30
0.0
 10
13.2366
 20
-26.0602
 30
0.0
 10
-16.6395
 20
-26.0602
 30
0.0
 10
-16.6395
 20
-26.0602
 30
0.0
  0
SPLINE
  5
4A
330
1F
100
AcDbEntity
  8
AXIS
 62
   250
100
AcDbSpline
210
0.0
220
0.0
230
1.0
 70
    24
 71
     3
 72
     8
 73
     4
 74
     0
 42
0.0000000001
 43
0.0000000001
 40
0.0
 40
0.0
 40
0.0
 40
0.0
 40
1.0
 40
1.0
 40
1.0
 40
1.0
 10
-16.554
 20
-26.0602
 30
0.0
 10
-16.554
 20
-26.0602
 30
0.0
 10
-45.3989
 20
-26.0602
 30
0.0
 10
-45.3989
 20
-26.0602
 30
0.0
  0
SPLINE
  5
4B
330
1F
100
AcDbEntity
  8
AXIS
 62
   250
100
AcDbSpline
210
0.0
220
0.0
230
1.0
 70
    24
 71
     3
 72
     8
 73
     4
 74
     0
 42
0.0000000001
 43
0.0000000001
 40
0.0
 40
0.0
 40
0.0
 40
0.0
 40
1.0
 40
1.0
 40
1.0
 40
1.0
 10
13.2366
 20
32.9211
 30
0.0
 10
13.2366
 20
32.9211
 30
0.0
 10
13.2366
 20
3.9061
 30
0.0
 10
13.2366
 20
3.9061
 30
0.0
  0
SPLINE
  5
4C
330
1F
100
AcDbEntity
  8
AXIS
 62
   250
100
AcDbSpline
210
0.0
220
0.0
230
1.0
 70
    24
 71
     3
 72
     8
 73
     4
 74
     0
 42
0.0000000001
 43
0.0000000001
 40
0.0
 40
0.0
 40
0.0
 40
0.0
 40
1.0
 40
1.0
 40
1.0
 40
1.0
 10
13.2366
 20
4.0957
 30
0.0
 10
13.2366
 20
4.0957
 30
0.0
 10
13.2366
 20
-26.0602
 30
0.0
 10
13.2366
 20
-26.0602
 30
0.0
  0
SPLINE
  5
4D
330
1F
100
AcDbEntity
  8
AXIS
 62
   250
100
AcDbSpline
210
0.0
220
0.0
230
1.0
 70
    24
 71
     3
 72
     8
 73
     4
 74
     0
 42
0.0000000001
 43
0.0000000001
 40
0.0
 40
0.0
 40
0.0
 40
0.0
 40
1.0
 40
1.0
 40
1.0
 40
1.0
 10
-45.3989
 20
32.9211
 30
0.0
 10
-45.3989
 20
32.9211
 30
0.0
 10
-15.4911
 20
32.9211
 30
0.0
 10
-15.4911
 20
32.9211
 30
0.0
  0
SPLINE
  5
4E
330
1F
100
AcDbEntity
  8
AXIS
 62
   250
100
AcDbSpline
210
0.0
220
0.0
230
1.0
 70
    24
 71
     3
 72
     8
 73
     4
 74
     0
 42
0.0000000001
 43
0.0000000001
 40
0.0
 40
0.0
 40
0.0
 40
0.0
 40
1.0
 40
1.0
 40
1.0
 40
1.0
 10
-15.6082
 20
32.9211
 30
0.0
 10
-15.6082
 20
32.9211
 30
0.0
 10
13.2366
 20
32.9211
 30
0.0
 10
13.2366
 20
32.9211
 30
0.0
  0
SPLINE
  5
4F
330
1F
100
AcDbEntity
  8
AXIS
 62
   250
100
AcDbSpline
210
0.0
220
0.0
230
1.0
 70
    24
 71
     3
 72
     8
 73
     4
 74
     0
 42
0.0000000001
 43
0.0000000001
 40
0.0
 40
0.0
 40
0.0
 40
0.0
 40
1.0
 40
1.0
 40
1.0
 40
1.0
 10
13.9011
 20
33.5897
 30
0.0
 10
13.9011
 20
33.5897
 30
0.0
 10
13.9011
 20
3.8944
 30
0.0
 10
13.9011
 20
3.8944
 30
0.0
  0
SPLINE
  5
50
330
1F
100
AcDbEntity
  8
AXIS
 62
   250
100
AcDbSpline
210
0.0
220
0.0
230
1.0
 70
    24
 71
     3
 72
     8
 73
     4
 74
     0
 42
0.0000000001
 43
0.0000000001
 40
0.0
 40
0.0
 40
0.0
 40
0.0
 40
1.0
 40
1.0
 40
1.0
 40
1.0
 10
13.9011
 20
4.03
 30
0.0
 10
13.9011
 20
4.03
 30
0.0
 10
13.9011
 20
-26.7288
 30
0.0
 10
13.9011
 20
-26.7288
 30
0.0
  0
SPLINE
  5
51
330
1F
100
AcDbEntity
  8
AXIS
 62
   250
100
AcDbSpline
210
0.0
220
0.0
230
1.0
 70
    24
 71
     3
 72
     8
 73
     4
 74
     0
 42
0.0000000001
 43
0.0000000001
 40
0.0
 40
0.0
 40
0.0
 40
0.0
 40
1.0
 40
1.0
 40
1.0
 40
1.0
 10
-46.0634
 20
33.5897
 30
0.0
 10
-46.0634
 20
33.5897
 30
0.0
 10
-15.5056
 20
33.5897
 30
0.0
 10
-15.5056
 20
33.5897
 30
0.0
  0
SPLINE
  5
52
330
1F
100
AcDbEntity
  8
AXIS
 62
   250
100
AcDbSpline
210
0.0
220
0.0
230
1.0
 70
    24
 71
     3
 72
     8
 73
     4
 74
     0
 42
0.0000000001
 43
0.0000000001
 40
0.0
 40
0.0
 40
0.0
 40
0.0
 40
1.0
 40
1.0
 40
1.0
 40
1.0
 10
-15.6198
 20
33.5897
 30
0.0
 10
-15.6198
 20
33.5897
 30
0.0
 10
13.9011
 20
33.5897
 30
0.0
 10
13.9011
 20
33.5897
 30
0.0
  0
SPLINE
  5
53
330
1F
100
AcDbEntity
  8
AXIS
 62
   250
100
AcDbSpline
210
0.0
220
0.0
230
1.0
 70
    24
 71
     3
 72
     8
 73
     4
 74
     0
 42
0.0000000001
 43
0.0000000001
 40
0.0
 40
0.0
 40
0.0
 40
0.0
 40
1.0
 40
1.0
 40
1.0
 40
1.0
 10
16.1052
 20
-28.9461
 30
0.0
 10
16.1052
 20
-28.9461
 30
0.0
 10
16.1052
 20
35.807
 30
0.0
 10
16.1052
 20
35.807
 30
0.0
  0
SPLINE
  5
54
330
1F
100
AcDbEntity
  8
AXIS
 62
   250
100
AcDbSpline
210
0.0
220
0.0
230
1.0
 70
    24
 71
     3
 72
     8
 73
     4
 74
     0
 42
0.0000000001
 43
0.0000000001
 40
0.0
 40
0.0
 40
0.0
 40
0.0
 40
1.0
 40
1.0
 40
1.0
 40
1.0
 10
16.1052
 20
35.807
 30
0.0
 10
16.1052
 20
35.807
 30
0.0
 10
-48.2675
 20
35.807
 30
0.0
 10
-48.2675
 20
35.807
 30
0.0
  0
SPLINE
  5
55
330
1F
100
AcDbEntity
  8
AXIS
 62
   250
100
AcDbSpline
210
0.0
220
0.0
230
1.0
 70
    24
 71
     3
 72
     8
 73
     4
 74
     0
 42
0.0000000001
 43
0.0000000001
 40
0.0
 40
0.0
 40
0.0
 40
0.0
 40
1.0
 40
1.0
 40
1.0
 40
1.0
 10
41.8246
 20
-26.4269
 30
0.0
 10
41.8246
 20
-26.4269
 30
0.0
 10
48.1422
 20
-26.4269
 30
0.0
 10
48.1422
 20
-26.4269
 30
0.0
  0
SPLINE
  5
56
330
1F
100
AcDbEntity
  8
AXIS
 62
   250
100
AcDbSpline
210
0.0
220
0.0
230
1.0
 70
    24
 71
     3
 72
     8
 73
     4
 74
     0
 42
0.0000000001
 43
0.0000000001
 40
0.0
 40
0.0
 40
0.0
 40
0.0
 40
1.0
 40
1.0
 40
1.0
 40
1.0
 10
41.8279
 20
33.6603
 30
0.0
 10
41.8279
 20
33.6603
 30
0.0
 10
48.2678
 20
33.6603
 30
0.0
 10
48.2678
 20
33.6603
 30
0.0
  0
SPLINE
  5
57
330
1F
100
AcDbEntity
  8
AXIS
 62
   250
100
AcDbSpline
210
0.0
220
0.0
230
1.0
 70
    24
 71
     3
 72
     8
 73
     4
 74
     0
 42
0.0000000001
 43
0.0000000001
 40
0.0
 40
0.0
 40
0.0
 40
0.0
 40
1.0
 40
1.0
 40
1.0
 40
1.0
 10
47.3254
 20
32.7499
 30
0.0
 10
47.3254
 20
32.7499
 30
0.0
 10
47.3254
 20
-26.2379
 30
0.0
 10
47.3254
 20
-26.2379
 30
0.0
  0
SPLINE
  5
58
330
1F
100
AcDbEntity
  8
AXIS
 62
   250
100
AcDbSpline
210
0.0
220
0.0
230
1.0
 70
    24
 71
     3
 72
     8
 73
     4
 74
     0
 42
0.0000000001
 43
0.0000000001
 40
0.0
 40
0.0
 40
0.0
 40
0.0
 40
1.0
 40
1.0
 40
1.0
 40
1.0
 10
17.9947
 20
-29.3099
 30
0.0
 10
17.9947
 20
-29.3099
 30
0.0
 10
26.1714
 20
-29.3099
 30
0.0
 10
26.1714
 20
-29.3099
 30
0.0
  0
SPLINE
  5
59
330
1F
100
AcDbEntity
  8
AXIS
 62
   250
100
AcDbSpline
210
0.0
220
0.0
230
1.0
 70
    24
 71
     3
 72
     8
 73
     4
 74
     0
 42
0.0000000001
 43
0.0000000001
 40
0.0
 40
0.0
 40
0.0
 40
0.0
 40
1.0
 40
1.0
 40
1.0
 40
1.0
 10
17.8813
 20
36.2369
 30
0.0
 10
17.8813
 20
36.2369
 30
0.0
 10
26.143
 20
36.2369
 30
0.0
 10
26.143
 20
36.2369
 30
0.0
  0
SPLINE
  5
5A
330
1F
100
AcDbEntity
  8
AXIS
 62
   250
100
AcDbSpline
210
0.0
220
0.0
230
1.0
 70
    24
 71
     3
 72
     8
 73
     4
 74
     0
 42
0.0000000001
 43
0.0000000001
 40
0.0
 40
0.0
 40
0.0
 40
0.0
 40
1.0
 40
1.0
 40
1.0
 40
1.0
 10
25.5871
 20
35.351
 30
0.0
 10
25.5871
 20
35.351
 30
0.0
 10
25.5871
 20
-28.9788
 30
0.0
 10
25.5871
 20
-28.9788
 30
0.0
  0
SPLINE
  5
5B
330
1F
100
AcDbEntity
  8
AXIS
 62
   250
100
AcDbSpline
210
0.0
220
0.0
230
1.0
 70
    24
 71
     3
 72
     8
 73
     4
 74
     0
 42
0.0000000001
 43
0.0000000001
 40
0.0
 40
0.0
 40
0.0
 40
0.0
 40
1.0
 40
1.0
 40
1.0
 40
1.0
 10
16.1625
 20
-36.0821
 30
0.0
 10
16.1625
 20
-36.0821
 30
0.0
 10
16.1625
 20
-30.1664
 30
0.0
 10
16.1625
 20
-30.1664
 30
0.0
  0
SPLINE
  5
5C
330
1F
100
AcDbEntity
  8
AXIS
 62
   250
100
AcDbSpline
210
0.0
220
0.0
230
1.0
 70
    24
 71
     3
 72
     8
 73
     4
 74
     0
 42
0.0000000001
 43
0.0000000001
 40
0.0
 40
0.0
 40
0.0
 40
0.0
 40
1.0
 40
1.0
 40
1.0
 40
1.0
 10
-46.9183
 20
-34.9328
 30
0.0
 10
-46.9183
 20
-34.9328
 30
0.0
 10
15.6446
 20
-34.9328
 30
0.0
 10
15.6446
 20
-34.9328
 30
0.0
  0
SPLINE
  5
5D
330
1F
100
AcDbEntity
  8
AXIS
 62
   250
100
AcDbSpline
210
0.0
220
0.0
230
1.0
 70
    11
 71
     3
 72
    20
 73
    16
 74
     0
 42
0.0000000001
 43
0.0000000001
 40
0.0
 40
0.0
 40
0.0
 40
0.0
 40
0.2
 40
0.2
 40
0.2
 40
0.2
 40
0.4
 40
0.4
 40
0.4
 40
0.4
 40
0.6
 40
0.6
 40
0.6
 40
0.6
 40
1.0
 40
1.0
 40
1.0
 40
1.0
 10
47.8063
 20
-23.3695
 30
0.0
 10
47.8063
 20
-23.3695
 30
0.0
 10
47.3792
 20
-26.3957
 30
0.0
 10
47.3792
 20
-26.3957
 30
0.0
 10
47.3792
 20
-26.3957
 30
0.0
 10
47.3792
 20
-26.3957
 30
0.0
 10
47.2843
 20
-26.3957
 30
0.0
 10
47.2843
 20
-26.3957
 30
0.0
 10
47.2843
 20
-26.3957
 30
0.0
 10
47.2843
 20
-26.3957
 30
0.0
 10
46.8289
 20
-23.3695
 30
0.0
 10
46.8289
 20
-23.3695
 30
0.0
 10
46.8289
 20
-23.3695
 30
0.0
 10
46.8289
 20
-23.3695
 30
0.0
 10
47.8063
 20
-23.3695
 30
0.0
 10
47.8063
 20
-23.3695
 30
0.0
  0
SPLINE
  5
5E
330
1F
100
AcDbEntity
  8
AXIS
 62
   250
100
AcDbSpline
210
0.0
220
0.0
230
1.0
 70
    11
 71
     3
 72
    20
 73
    16
 74
     0
 42
0.0000000001
 43
0.0000000001
 40
0.0
 40
0.0
 40
0.0
 40
0.0
 40
0.2
 40
0.2
 40
0.2
 40
0.2
 40
0.4
 40
0.4
 40
0.4
 40
0.4
 40
0.6
 40
0.6
 40
0.6
 40
0.6
 40
1.0
 40
1.0
 40
1.0
 40
1.0
 10
13.0228
 20
-34.4644
 30
0.0
 10
13.0228
 20
-34.4644
 30
0.0
 10
16.0489
 20
-34.8915
 30
0.0
 10
16.0489
 20
-34.8915
 30
0.0
 10
16.0489
 20
-34.8915
 30
0.0
 10
16.0489
 20
-34.8915
 30
0.0
 10
16.0489
 20
-34.9864
 30
0.0
 10
16.0489
 20
-34.9864
 30
0.0
 10
16.0489
 20
-34.9864
 30
0.0
 10
16.0489
 20
-34.9864
 30
0.0
 10
13.0228
 20
-35.4418
 30
0.0
 10
13.0228
 20
-35.4418
 30
0.0
 10
13.0228
 20
-35.4418
 30
0.0
 10
13.0228
 20
-35.4418
 30
0.0
 10
13.0228
 20
-34.4644
 30
0.0
 10
13.0228
 20
-34.4644
 30
0.0
  0
SPLINE
  5
5F
330
1F
100
AcDbEntity
  8
AXIS
 62
   250
100
AcDbSpline
210
0.0
220
0.0
230
1.0
 70
    11
 71
     3
 72
    20
 73
    16
 74
     0
 42
0.0000000001
 43
0.0000000001
 40
0.0
 40
0.0
 40
0.0
 40
0.0
 40
0.2
 40
0.2
 40
0.2
 40
0.2
 40
0.4
 40
0.4
 40
0.4
 40
0.4
 40
0.6
 40
0.6
 40
0.6
 40
0.6
 40
1.0
 40
1.0
 40
1.0
 40
1.0
 10
-45.0728
 20
-35.3716
 30
0.0
 10
-45.0728
 20
-35.3716
 30
0.0
 10
-48.0989
 20
-34.9445
 30
0.0
 10
-48.0989
 20
-34.9445
 30
0.0
 10
-48.0989
 20
-34.9445
 30
0.0
 10
-48.0989
 20
-34.9445
 30
0.0
 10
-48.0989
 20
-34.8496
 30
0.0
 10
-48.0989
 20
-34.8496
 30
0.0
 10
-48.0989
 20
-34.8496
 30
0.0
 10
-48.0989
 20
-34.8496
 30
0.0
 10
-45.0728
 20
-34.3942
 30
0.0
 10
-45.0728
 20
-34.3942
 30
0.0
 10
-45.0728
 20
-34.3942
 30
0.0
 10
-45.0728
 20
-34.3942
 30
0.0
 10
-45.0728
 20
-35.3716
 30
0.0
 10
-45.0728
 20
-35.3716
 30
0.0
  0
SPLINE
  5
60
330
1F
100
AcDbEntity
  8
AXIS
 62
   250
100
AcDbSpline
210
0.0
220
0.0
230
1.0
 70
    11
 71
     3
 72
   124
 73
   120
 74
     0
 42
0.0000000001
 43
0.0000000001
 40
0.0
 40
0.0
 40
0.0
 40
0.0
 40
0.032258064516129
 40
0.032258064516129
 40
0.032258064516129
 40
0.032258064516129
 40
0.0645161290322581
 40
0.0645161290322581
 40
0.0645161290322581
 40
0.0645161290322581
 40
0.0967741935483871
 40
0.0967741935483871
 40
0.0967741935483871
 40
0.0967741935483871
 40
0.1290322580645161
 40
0.1290322580645161
 40
0.1290322580645161
 40
0.1290322580645161
 40
0.1612903225806452
 40
0.1612903225806452
 40
0.1612903225806452
 40
0.1612903225806452
 40
0.1935483870967742
 40
0.1935483870967742
 40
0.1935483870967742
 40
0.1935483870967742
 40
0.2258064516129032
 40
0.2258064516129032
 40
0.2258064516129032
 40
0.2258064516129032
 40
0.2580645161290323
 40
0.2580645161290323
 40
0.2580645161290323
 40
0.2580645161290323
 40
0.2903225806451613
 40
0.2903225806451613
 40
0.2903225806451613
 40
0.2903225806451613
 40
0.3225806451612903
 40
0.3225806451612903
 40
0.3225806451612903
 40
0.3225806451612903
 40
0.3548387096774194
 40
0.3548387096774194
 40
0.3548387096774194
 40
0.3548387096774194
 40
0.3870967741935484
 40
0.3870967741935484
 40
0.3870967741935484
 40
0.3870967741935484
 40
0.4193548387096774
 40
0.4193548387096774
 40
0.4193548387096774
 40
0.4193548387096774
 40
0.4516129032258064
 40
0.4516129032258064
 40
0.4516129032258064
 40
0.4516129032258064
 40
0.4838709677419355
 40
0.4838709677419355
 40
0.4838709677419355
 40
0.4838709677419355
 40
0.5161290322580645
 40
0.5161290322580645
 40
0.5161290322580645
 40
0.5161290322580645
 40
0.5483870967741935
 40
0.5483870967741935
 40
0.5483870967741935
 40
0.5483870967741935
 40
0.5806451612903226
 40
0.5806451612903226
 40
0.5806451612903226
 40
0.5806451612903226
 40
0.6129032258064516
 40
0.6129032258064516
 40
0.6129032258064516
 40
0.6129032258064516
 40
0.6451612903225806
 40
0.6451612903225806
 40
0.6451612903225806
 40
0.6451612903225806
 40
0.6774193548387096
 40
0.6774193548387096
 40
0.6774193548387096
 40
0.6774193548387096
 40
0.7096774193548387
 40
0.7096774193548387
 40
0.7096774193548387
 40
0.7096774193548387
 40
0.7419354838709677
 40
0.7419354838709677
 40
0.7419354838709677
 40
0.7419354838709677
 40
0.7741935483870968
 40
0.7741935483870968
 40
0.7741935483870968
 40
0.7741935483870968
 40
0.8064516129032258
 40
0.8064516129032258
 40
0.8064516129032258
 40
0.8064516129032258
 40
0.8387096774193549
 40
0.8387096774193549
 40
0.8387096774193549
 40
0.8387096774193549
 40
0.8709677419354839
 40
0.8709677419354839
 40
0.8709677419354839
 40
0.8709677419354839
 40
0.9032258064516129
 40
0.9032258064516129
 40
0.9032258064516129
 40
0.9032258064516129
 40
0.9354838709677419
 40
0.9354838709677419
 40
0.9354838709677419
 40
0.9354838709677419
 40
1.0
 40
1.0
 40
1.0
 40
1.0
 10
45.8659
 20
-3.8926
 30
0.0
 10
45.8659
 20
-3.8926
 30
0.0
 10
45.826
 20
-3.5926
 30
0.0
 10
45.826
 20
-3.5926
 30
0.0
 10
45.826
 20
-3.5926
 30
0.0
 10
45.9962
 20
-3.5578
 30
0.0
 10
46.1186
 20
-3.4992
 30
0.0
 10
46.1938
 20
-3.4166
 30
0.0
 10
46.1938
 20
-3.4166
 30
0.0
 10
46.269
 20
-3.3335
 30
0.0
 10
46.3065
 20
-3.2327
 30
0.0
 10
46.3065
 20
-3.1138
 30
0.0
 10
46.3065
 20
-3.1138
 30
0.0
 10
46.3065
 20
-2.9726
 30
0.0
 10
46.2576
 20
-2.853
 30
0.0
 10
46.1596
 20
-2.7556
 30
0.0
 10
46.1596
 20
-2.7556
 30
0.0
 10
46.0617
 20
-2.6588
 30
0.0
 10
45.9404
 20
-2.6099
 30
0.0
 10
45.7958
 20
-2.6099
 30
0.0
 10
45.7958
 20
-2.6099
 30
0.0
 10
45.658
 20
-2.6099
 30
0.0
 10
45.5442
 20
-2.6549
 30
0.0
 10
45.4548
 20
-2.7448
 30
0.0
 10
45.4548
 20
-2.7448
 30
0.0
 10
45.3654
 20
-2.8353
 30
0.0
 10
45.3204
 20
-2.9498
 30
0.0
 10
45.3204
 20
-3.0887
 30
0.0
 10
45.3204
 20
-3.0887
 30
0.0
 10
45.3204
 20
-3.1456
 30
0.0
 10
45.3318
 20
-3.2162
 30
0.0
 10
45.354
 20
-3.3005
 30
0.0
 10
45.354
 20
-3.3005
 30
0.0
 10
45.354
 20
-3.3005
 30
0.0
 10
45.0904
 20
-3.2669
 30
0.0
 10
45.0904
 20
-3.2669
 30
0.0
 10
45.0904
 20
-3.2669
 30
0.0
 10
45.0927
 20
-3.247
 30
0.0
 10
45.0938
 20
-3.231
 30
0.0
 10
45.0938
 20
-3.2185
 30
0.0
 10
45.0938
 20
-3.2185
 30
0.0
 10
45.0938
 20
-3.091
 30
0.0
 10
45.0602
 20
-2.976
 30
0.0
 10
44.9936
 20
-2.8735
 30
0.0
 10
44.9936
 20
-2.8735
 30
0.0
 10
44.927
 20
-2.771
 30
0.0
 10
44.8239
 20
-2.7198
 30
0.0
 10
44.685
 20
-2.7198
 30
0.0
 10
44.685
 20
-2.7198
 30
0.0
 10
44.5751
 20
-2.7198
 30
0.0
 10
44.4835
 20
-2.7573
 30
0.0
 10
44.4117
 20
-2.8319
 30
0.0
 10
44.4117
 20
-2.8319
 30
0.0
 10
44.3394
 20
-2.9065
 30
0.0
 10
44.303
 20
-3.0027
 30
0.0
 10
44.303
 20
-3.1206
 30
0.0
 10
44.303
 20
-3.1206
 30
0.0
 10
44.303
 20
-3.2373
 30
0.0
 10
44.34
 20
-3.3347
 30
0.0
 10
44.4129
 20
-3.4121
 30
0.0
 10
44.4129
 20
-3.4121
 30
0.0
 10
44.4863
 20
-3.4901
 30
0.0
 10
44.5968
 20
-3.5402
 30
0.0
 10
44.7437
 20
-3.5624
 30
0.0
 10
44.7437
 20
-3.5624
 30
0.0
 10
44.7437
 20
-3.5624
 30
0.0
 10
44.6901
 20
-3.8624
 30
0.0
 10
44.6901
 20
-3.8624
 30
0.0
 10
44.6901
 20
-3.8624
 30
0.0
 10
44.4886
 20
-3.826
 30
0.0
 10
44.3326
 20
-3.7423
 30
0.0
 10
44.2221
 20
-3.6125
 30
0.0
 10
44.2221
 20
-3.6125
 30
0.0
 10
44.1117
 20
-3.4821
 30
0.0
 10
44.0559
 20
-3.3204
 30
0.0
 10
44.0559
 20
-3.1268
 30
0.0
 10
44.0559
 20
-3.1268
 30
0.0
 10
44.0559
 20
-2.9936
 30
0.0
 10
44.0849
 20
-2.8706
 30
0.0
 10
44.1419
 20
-2.7585
 30
0.0
 10
44.1419
 20
-2.7585
 30
0.0
 10
44.1994
 20
-2.6463
 30
0.0
 10
44.2774
 20
-2.5603
 30
0.0
 10
44.3764
 20
-2.5006
 30
0.0
 10
44.3764
 20
-2.5006
 30
0.0
 10
44.4755
 20
-2.4414
 30
0.0
 10
44.5803
 20
-2.4112
 30
0.0
 10
44.6919
 20
-2.4112
 30
0.0
 10
44.6919
 20
-2.4112
 30
0.0
 10
44.7972
 20
-2.4112
 30
0.0
 10
44.8934
 20
-2.4396
 30
0.0
 10
44.9805
 20
-2.4966
 30
0.0
 10
44.9805
 20
-2.4966
 30
0.0
 10
45.0671
 20
-2.5535
 30
0.0
 10
45.136
 20
-2.6372
 30
0.0
 10
45.1872
 20
-2.7482
 30
0.0
 10
45.1872
 20
-2.7482
 30
0.0
 10
45.2202
 20
-2.6036
 30
0.0
 10
45.2897
 20
-2.4915
 30
0.0
 10
45.395
 20
-2.4112
 30
0.0
 10
45.395
 20
-2.4112
 30
0.0
 10
45.4998
 20
-2.3315
 30
0.0
 10
45.6313
 20
-2.2916
 30
0.0
 10
45.789
 20
-2.2916
 30
0.0
 10
45.789
 20
-2.2916
 30
0.0
 10
46.0025
 20
-2.2916
 30
0.0
 10
46.1836
 20
-2.369
 30
0.0
 10
46.3322
 20
-2.525
 30
0.0
 10
46.3322
 20
-2.525
 30
0.0
 10
46.4808
 20
-2.6805
 30
0.0
 10
46.5548
 20
-2.8775
 30
0.0
 10
46.5548
 20
-3.1155
 30
0.0
 10
46.5548
 20
-3.1155
 30
0.0
 10
46.5548
 20
-3.3301
 30
0.0
 10
46.491
 20
-3.5083
 30
0.0
 10
46.3629
 20
-3.6501
 30
0.0
 10
46.3629
 20
-3.6501
 30
0.0
 10
46.2354
 20
-3.7918
 30
0.0
 10
46.0697
 20
-3.8727
 30
0.0
 10
45.8659
 20
-3.8926
 30
0.0
  0
SPLINE
  5
61
330
1F
100
AcDbEntity
  8
AXIS
 62
   250
100
AcDbSpline
210
0.0
220
0.0
230
1.0
 70
    11
 71
     3
 72
    52
 73
    48
 74
     0
 42
0.0000000001
 43
0.0000000001
 40
0.0
 40
0.0
 40
0.0
 40
0.0
 40
0.0769230769230769
 40
0.0769230769230769
 40
0.0769230769230769
 40
0.0769230769230769
 40
0.1538461538461539
 40
0.1538461538461539
 40
0.1538461538461539
 40
0.1538461538461539
 40
0.2307692307692308
 40
0.2307692307692308
 40
0.2307692307692308
 40
0.2307692307692308
 40
0.3076923076923077
 40
0.3076923076923077
 40
0.3076923076923077
 40
0.3076923076923077
 40
0.3846153846153846
 40
0.3846153846153846
 40
0.3846153846153846
 40
0.3846153846153846
 40
0.4615384615384616
 40
0.4615384615384616
 40
0.4615384615384616
 40
0.4615384615384616
 40
0.5384615384615384
 40
0.5384615384615384
 40
0.5384615384615384
 40
0.5384615384615384
 40
0.6153846153846154
 40
0.6153846153846154
 40
0.6153846153846154
 40
0.6153846153846154
 40
0.6923076923076923
 40
0.6923076923076923
 40
0.6923076923076923
 40
0.6923076923076923
 40
0.7692307692307693
 40
0.7692307692307693
 40
0.7692307692307693
 40
0.7692307692307693
 40
0.8461538461538461
 40
0.8461538461538461
 40
0.8461538461538461
 40
0.8461538461538461
 40
1.0
 40
1.0
 40
1.0
 40
1.0
 10
45.3056
 20
-1.9944
 30
0.0
 10
45.0164
 20
-1.9944
 30
0.0
 10
44.7835
 20
-1.9648
 30
0.0
 10
44.6076
 20
-1.905
 30
0.0
 10
44.6076
 20
-1.905
 30
0.0
 10
44.4311
 20
-1.8458
 30
0.0
 10
44.295
 20
-1.757
 30
0.0
 10
44.1994
 20
-1.6397
 30
0.0
 10
44.1994
 20
-1.6397
 30
0.0
 10
44.1037
 20
-1.5224
 30
0.0
 10
44.0559
 20
-1.375
 30
0.0
 10
44.0559
 20
-1.1973
 30
0.0
 10
44.0559
 20
-1.1973
 30
0.0
 10
44.0559
 20
-1.0658
 30
0.0
 10
44.0827
 20
-0.9508
 30
0.0
 10
44.1356
 20
-0.8517
 30
0.0
 10
44.1356
 20
-0.8517
 30
0.0
 10
44.188
 20
-0.7527
 30
0.0
 10
44.2643
 20
-0.6713
 30
0.0
 10
44.3639
 20
-0.6064
 30
0.0
 10
44.3639
 20
-0.6064
 30
0.0
 10
44.4635
 20
-0.542
 30
0.0
 10
44.5848
 20
-0.4913
 30
0.0
 10
44.7277
 20
-0.4549
 30
0.0
 10
44.7277
 20
-0.4549
 30
0.0
 10
44.8706
 20
-0.4179
 30
0.0
 10
45.0631
 20
-0.3997
 30
0.0
 10
45.3056
 20
-0.3997
 30
0.0
 10
45.3056
 20
-0.3997
 30
0.0
 10
45.5926
 20
-0.3997
 30
0.0
 10
45.8237
 20
-0.4293
 30
0.0
 10
46.0002
 20
-0.4879
 30
0.0
 10
46.0002
 20
-0.4879
 30
0.0
 10
46.1767
 20
-0.5471
 30
0.0
 10
46.3128
 20
-0.6354
 30
0.0
 10
46.409
 20
-0.7527
 30
0.0
 10
46.409
 20
-0.7527
 30
0.0
 10
46.5052
 20
-0.87
 30
0.0
 10
46.5531
 20
-1.018
 30
0.0
 10
46.5531
 20
-1.1973
 30
0.0
 10
46.5531
 20
-1.1973
 30
0.0
 10
46.5531
 20
-1.4331
 30
0.0
 10
46.4688
 20
-1.6181
 30
0.0
 10
46.2997
 20
-1.7525
 30
0.0
 10
46.2997
 20
-1.7525
 30
0.0
 10
46.0964
 20
-1.9136
 30
0.0
 10
45.7645
 20
-1.9944
 30
0.0
 10
45.3056
 20
-1.9944
 30
0.0
  0
SPLINE
  5
62
330
1F
100
AcDbEntity
  8
AXIS
 62
   250
100
AcDbSpline
210
0.0
220
0.0
230
1.0
 70
    11
 71
     3
 72
    36
 73
    32
 74
     0
 42
0.0000000001
 43
0.0000000001
 40
0.0
 40
0.0
 40
0.0
 40
0.0
 40
0.1111111111111111
 40
0.1111111111111111
 40
0.1111111111111111
 40
0.1111111111111111
 40
0.2222222222222222
 40
0.2222222222222222
 40
0.2222222222222222
 40
0.2222222222222222
 40
0.3333333333333333
 40
0.3333333333333333
 40
0.3333333333333333
 40
0.3333333333333333
 40
0.4444444444444444
 40
0.4444444444444444
 40
0.4444444444444444
 40
0.4444444444444444
 40
0.5555555555555556
 40
0.5555555555555556
 40
0.5555555555555556
 40
0.5555555555555556
 40
0.6666666666666666
 40
0.6666666666666666
 40
0.6666666666666666
 40
0.6666666666666666
 40
0.7777777777777778
 40
0.7777777777777778
 40
0.7777777777777778
 40
0.7777777777777778
 40
1.0
 40
1.0
 40
1.0
 40
1.0
 10
45.3056
 20
-1.6858
 30
0.0
 10
45.707
 20
-1.6858
 30
0.0
 10
45.974
 20
-1.6386
 30
0.0
 10
46.1073
 20
-1.5446
 30
0.0
 10
46.1073
 20
-1.5446
 30
0.0
 10
46.2399
 20
-1.4507
 30
0.0
 10
46.3065
 20
-1.3351
 30
0.0
 10
46.3065
 20
-1.1973
 30
0.0
 10
46.3065
 20
-1.1973
 30
0.0
 10
46.3065
 20
-1.059
 30
0.0
 10
46.2394
 20
-0.9434
 30
0.0
 10
46.1061
 20
-0.8495
 30
0.0
 10
46.1061
 20
-0.8495
 30
0.0
 10
45.9729
 20
-0.7555
 30
0.0
 10
45.7059
 20
-0.7083
 30
0.0
 10
45.3056
 20
-0.7083
 30
0.0
 10
45.3056
 20
-0.7083
 30
0.0
 10
44.9031
 20
-0.7083
 30
0.0
 10
44.6355
 20
-0.7555
 30
0.0
 10
44.5034
 20
-0.8495
 30
0.0
 10
44.5034
 20
-0.8495
 30
0.0
 10
44.3707
 20
-0.9434
 30
0.0
 10
44.3047
 20
-1.0601
 30
0.0
 10
44.3047
 20
-1.2002
 30
0.0
 10
44.3047
 20
-1.2002
 30
0.0
 10
44.3047
 20
-1.3385
 30
0.0
 10
44.3633
 20
-1.4484
 30
0.0
 10
44.4801
 20
-1.531
 30
0.0
 10
44.4801
 20
-1.531
 30
0.0
 10
44.6287
 20
-1.634
 30
0.0
 10
44.9042
 20
-1.6858
 30
0.0
 10
45.3056
 20
-1.6858
 30
0.0
  0
SPLINE
  5
63
330
1F
100
AcDbEntity
  8
AXIS
 62
   250
100
AcDbSpline
210
0.0
220
0.0
230
1.0
 70
    11
 71
     3
 72
    52
 73
    48
 74
     0
 42
0.0000000001
 43
0.0000000001
 40
0.0
 40
0.0
 40
0.0
 40
0.0
 40
0.0769230769230769
 40
0.0769230769230769
 40
0.0769230769230769
 40
0.0769230769230769
 40
0.1538461538461539
 40
0.1538461538461539
 40
0.1538461538461539
 40
0.1538461538461539
 40
0.2307692307692308
 40
0.2307692307692308
 40
0.2307692307692308
 40
0.2307692307692308
 40
0.3076923076923077
 40
0.3076923076923077
 40
0.3076923076923077
 40
0.3076923076923077
 40
0.3846153846153846
 40
0.3846153846153846
 40
0.3846153846153846
 40
0.3846153846153846
 40
0.4615384615384616
 40
0.4615384615384616
 40
0.4615384615384616
 40
0.4615384615384616
 40
0.5384615384615384
 40
0.5384615384615384
 40
0.5384615384615384
 40
0.5384615384615384
 40
0.6153846153846154
 40
0.6153846153846154
 40
0.6153846153846154
 40
0.6153846153846154
 40
0.6923076923076923
 40
0.6923076923076923
 40
0.6923076923076923
 40
0.6923076923076923
 40
0.7692307692307693
 40
0.7692307692307693
 40
0.7692307692307693
 40
0.7692307692307693
 40
0.8461538461538461
 40
0.8461538461538461
 40
0.8461538461538461
 40
0.8461538461538461
 40
1.0
 40
1.0
 40
1.0
 40
1.0
 10
45.3056
 20
-0.0945
 30
0.0
 10
45.0164
 20
-0.0945
 30
0.0
 10
44.7835
 20
-0.0649
 30
0.0
 10
44.6076
 20
-0.0051
 30
0.0
 10
44.6076
 20
-0.0051
 30
0.0
 10
44.4311
 20
0.0541
 30
0.0
 10
44.295
 20
0.1429
 30
0.0
 10
44.1994
 20
0.2602
 30
0.0
 10
44.1994
 20
0.2602
 30
0.0
 10
44.1037
 20
0.3775
 30
0.0
 10
44.0559
 20
0.5249
 30
0.0
 10
44.0559
 20
0.7026
 30
0.0
 10
44.0559
 20
0.7026
 30
0.0
 10
44.0559
 20
0.8341
 30
0.0
 10
44.0827
 20
0.9491
 30
0.0
 10
44.1356
 20
1.0482
 30
0.0
 10
44.1356
 20
1.0482
 30
0.0
 10
44.188
 20
1.1472
 30
0.0
 10
44.2643
 20
1.2286
 30
0.0
 10
44.3639
 20
1.2935
 30
0.0
 10
44.3639
 20
1.2935
 30
0.0
 10
44.4635
 20
1.3579
 30
0.0
 10
44.5848
 20
1.4086
 30
0.0
 10
44.7277
 20
1.445
 30
0.0
 10
44.7277
 20
1.445
 30
0.0
 10
44.8706
 20
1.482
 30
0.0
 10
45.0631
 20
1.5002
 30
0.0
 10
45.3056
 20
1.5002
 30
0.0
 10
45.3056
 20
1.5002
 30
0.0
 10
45.5926
 20
1.5002
 30
0.0
 10
45.8237
 20
1.4706
 30
0.0
 10
46.0002
 20
1.412
 30
0.0
 10
46.0002
 20
1.412
 30
0.0
 10
46.1767
 20
1.3528
 30
0.0
 10
46.3128
 20
1.2645
 30
0.0
 10
46.409
 20
1.1472
 30
0.0
 10
46.409
 20
1.1472
 30
0.0
 10
46.5052
 20
1.0299
 30
0.0
 10
46.5531
 20
0.8819
 30
0.0
 10
46.5531
 20
0.7026
 30
0.0
 10
46.5531
 20
0.7026
 30
0.0
 10
46.5531
 20
0.4668
 30
0.0
 10
46.4688
 20
0.2818
 30
0.0
 10
46.2997
 20
0.1474
 30
0.0
 10
46.2997
 20
0.1474
 30
0.0
 10
46.0964
 20
-0.0137
 30
0.0
 10
45.7645
 20
-0.0945
 30
0.0
 10
45.3056
 20
-0.0945
 30
0.0
  0
SPLINE
  5
64
330
1F
100
AcDbEntity
  8
AXIS
 62
   250
100
AcDbSpline
210
0.0
220
0.0
230
1.0
 70
    11
 71
     3
 72
    36
 73
    32
 74
     0
 42
0.0000000001
 43
0.0000000001
 40
0.0
 40
0.0
 40
0.0
 40
0.0
 40
0.1111111111111111
 40
0.1111111111111111
 40
0.1111111111111111
 40
0.1111111111111111
 40
0.2222222222222222
 40
0.2222222222222222
 40
0.2222222222222222
 40
0.2222222222222222
 40
0.3333333333333333
 40
0.3333333333333333
 40
0.3333333333333333
 40
0.3333333333333333
 40
0.4444444444444444
 40
0.4444444444444444
 40
0.4444444444444444
 40
0.4444444444444444
 40
0.5555555555555556
 40
0.5555555555555556
 40
0.5555555555555556
 40
0.5555555555555556
 40
0.6666666666666666
 40
0.6666666666666666
 40
0.6666666666666666
 40
0.6666666666666666
 40
0.7777777777777778
 40
0.7777777777777778
 40
0.7777777777777778
 40
0.7777777777777778
 40
1.0
 40
1.0
 40
1.0
 40
1.0
 10
45.3056
 20
0.2141
 30
0.0
 10
45.707
 20
0.2141
 30
0.0
 10
45.974
 20
0.2613
 30
0.0
 10
46.1073
 20
0.3553
 30
0.0
 10
46.1073
 20
0.3553
 30
0.0
 10
46.2399
 20
0.4492
 30
0.0
 10
46.3065
 20
0.5648
 30
0.0
 10
46.3065
 20
0.7026
 30
0.0
 10
46.3065
 20
0.7026
 30
0.0
 10
46.3065
 20
0.8409
 30
0.0
 10
46.2394
 20
0.9565
 30
0.0
 10
46.1061
 20
1.0504
 30
0.0
 10
46.1061
 20
1.0504
 30
0.0
 10
45.9729
 20
1.1444
 30
0.0
 10
45.7059
 20
1.1916
 30
0.0
 10
45.3056
 20
1.1916
 30
0.0
 10
45.3056
 20
1.1916
 30
0.0
 10
44.9031
 20
1.1916
 30
0.0
 10
44.6355
 20
1.1444
 30
0.0
 10
44.5034
 20
1.0504
 30
0.0
 10
44.5034
 20
1.0504
 30
0.0
 10
44.3707
 20
0.9565
 30
0.0
 10
44.3047
 20
0.8398
 30
0.0
 10
44.3047
 20
0.6997
 30
0.0
 10
44.3047
 20
0.6997
 30
0.0
 10
44.3047
 20
0.5614
 30
0.0
 10
44.3633
 20
0.4515
 30
0.0
 10
44.4801
 20
0.3689
 30
0.0
 10
44.4801
 20
0.3689
 30
0.0
 10
44.6287
 20
0.2659
 30
0.0
 10
44.9042
 20
0.2141
 30
0.0
 10
45.3056
 20
0.2141
 30
0.0
  0
SPLINE
  5
65
330
1F
100
AcDbEntity
  8
AXIS
 62
   250
100
AcDbSpline
210
0.0
220
0.0
230
1.0
 70
    11
 71
     3
 72
    64
 73
    60
 74
     0
 42
0.0000000001
 43
0.0000000001
 40
0.0
 40
0.0
 40
0.0
 40
0.0
 40
0.0625
 40
0.0625
 40
0.0625
 40
0.0625
 40
0.125
 40
0.125
 40
0.125
 40
0.125
 40
0.1875
 40
0.1875
 40
0.1875
 40
0.1875
 40
0.25
 40
0.25
 40
0.25
 40
0.25
 40
0.3125
 40
0.3125
 40
0.3125
 40
0.3125
 40
0.375
 40
0.375
 40
0.375
 40
0.375
 40
0.4375
 40
0.4375
 40
0.4375
 40
0.4375
 40
0.5
 40
0.5
 40
0.5
 40
0.5
 40
0.5625
 40
0.5625
 40
0.5625
 40
0.5625
 40
0.625
 40
0.625
 40
0.625
 40
0.625
 40
0.6875
 40
0.6875
 40
0.6875
 40
0.6875
 40
0.75
 40
0.75
 40
0.75
 40
0.75
 40
0.8125
 40
0.8125
 40
0.8125
 40
0.8125
 40
0.875
 40
0.875
 40
0.875
 40
0.875
 40
1.0
 40
1.0
 40
1.0
 40
1.0
 10
46.5115
 20
2.6378
 30
0.0
 10
46.5115
 20
2.6378
 30
0.0
 10
45.5909
 20
3.2851
 30
0.0
 10
45.5909
 20
3.2851
 30
0.0
 10
45.5909
 20
3.2851
 30
0.0
 10
45.5909
 20
3.2851
 30
0.0
 10
44.7403
 20
2.6861
 30
0.0
 10
44.7403
 20
2.6861
 30
0.0
 10
44.7403
 20
2.6861
 30
0.0
 10
44.7403
 20
2.6861
 30
0.0
 10
44.7403
 20
3.0613
 30
0.0
 10
44.7403
 20
3.0613
 30
0.0
 10
44.7403
 20
3.0613
 30
0.0
 10
44.7403
 20
3.0613
 30
0.0
 10
45.1553
 20
3.3335
 30
0.0
 10
45.1553
 20
3.3335
 30
0.0
 10
45.1553
 20
3.3335
 30
0.0
 10
45.2344
 20
3.3842
 30
0.0
 10
45.3005
 20
3.4257
 30
0.0
 10
45.354
 20
3.4565
 30
0.0
 10
45.354
 20
3.4565
 30
0.0
 10
45.2806
 20
3.5054
 30
0.0
 10
45.2157
 20
3.5504
 30
0.0
 10
45.1587
 20
3.592
 30
0.0
 10
45.1587
 20
3.592
 30
0.0
 10
45.1587
 20
3.592
 30
0.0
 10
44.7403
 20
3.8903
 30
0.0
 10
44.7403
 20
3.8903
 30
0.0
 10
44.7403
 20
3.8903
 30
0.0
 10
44.7403
 20
3.8903
 30
0.0
 10
44.7403
 20
4.249
 30
0.0
 10
44.7403
 20
4.249
 30
0.0
 10
44.7403
 20
4.249
 30
0.0
 10
44.7403
 20
4.249
 30
0.0
 10
45.5743
 20
3.637
 30
0.0
 10
45.5743
 20
3.637
 30
0.0
 10
45.5743
 20
3.637
 30
0.0
 10
45.5743
 20
3.637
 30
0.0
 10
46.5115
 20
4.2957
 30
0.0
 10
46.5115
 20
4.2957
 30
0.0
 10
46.5115
 20
4.2957
 30
0.0
 10
46.5115
 20
4.2957
 30
0.0
 10
46.5115
 20
3.9273
 30
0.0
 10
46.5115
 20
3.9273
 30
0.0
 10
46.5115
 20
3.9273
 30
0.0
 10
46.5115
 20
3.9273
 30
0.0
 10
45.9609
 20
3.5635
 30
0.0
 10
45.9609
 20
3.5635
 30
0.0
 10
45.9609
 20
3.5635
 30
0.0
 10
45.9609
 20
3.5635
 30
0.0
 10
45.8123
 20
3.4667
 30
0.0
 10
45.8123
 20
3.4667
 30
0.0
 10
45.8123
 20
3.4667
 30
0.0
 10
45.8123
 20
3.4667
 30
0.0
 10
46.5115
 20
3.0016
 30
0.0
 10
46.5115
 20
3.0016
 30
0.0
 10
46.5115
 20
3.0016
 30
0.0
 10
46.5115
 20
3.0016
 30
0.0
 10
46.5115
 20
2.6378
 30
0.0
 10
46.5115
 20
2.6378
 30
0.0
  0
SPLINE
  5
66
330
1F
100
AcDbEntity
  8
AXIS
 62
   250
100
AcDbSpline
210
0.0
220
0.0
230
1.0
 70
    11
 71
     3
 72
   124
 73
   120
 74
     0
 42
0.0000000001
 43
0.0000000001
 40
0.0
 40
0.0
 40
0.0
 40
0.0
 40
0.032258064516129
 40
0.032258064516129
 40
0.032258064516129
 40
0.032258064516129
 40
0.0645161290322581
 40
0.0645161290322581
 40
0.0645161290322581
 40
0.0645161290322581
 40
0.0967741935483871
 40
0.0967741935483871
 40
0.0967741935483871
 40
0.0967741935483871
 40
0.1290322580645161
 40
0.1290322580645161
 40
0.1290322580645161
 40
0.1290322580645161
 40
0.1612903225806452
 40
0.1612903225806452
 40
0.1612903225806452
 40
0.1612903225806452
 40
0.1935483870967742
 40
0.1935483870967742
 40
0.1935483870967742
 40
0.1935483870967742
 40
0.2258064516129032
 40
0.2258064516129032
 40
0.2258064516129032
 40
0.2258064516129032
 40
0.2580645161290323
 40
0.2580645161290323
 40
0.2580645161290323
 40
0.2580645161290323
 40
0.2903225806451613
 40
0.2903225806451613
 40
0.2903225806451613
 40
0.2903225806451613
 40
0.3225806451612903
 40
0.3225806451612903
 40
0.3225806451612903
 40
0.3225806451612903
 40
0.3548387096774194
 40
0.3548387096774194
 40
0.3548387096774194
 40
0.3548387096774194
 40
0.3870967741935484
 40
0.3870967741935484
 40
0.3870967741935484
 40
0.3870967741935484
 40
0.4193548387096774
 40
0.4193548387096774
 40
0.4193548387096774
 40
0.4193548387096774
 40
0.4516129032258064
 40
0.4516129032258064
 40
0.4516129032258064
 40
0.4516129032258064
 40
0.4838709677419355
 40
0.4838709677419355
 40
0.4838709677419355
 40
0.4838709677419355
 40
0.5161290322580645
 40
0.5161290322580645
 40
0.5161290322580645
 40
0.5161290322580645
 40
0.5483870967741935
 40
0.5483870967741935
 40
0.5483870967741935
 40
0.5483870967741935
 40
0.5806451612903226
 40
0.5806451612903226
 40
0.5806451612903226
 40
0.5806451612903226
 40
0.6129032258064516
 40
0.6129032258064516
 40
0.6129032258064516
 40
0.6129032258064516
 40
0.6451612903225806
 40
0.6451612903225806
 40
0.6451612903225806
 40
0.6451612903225806
 40
0.6774193548387096
 40
0.6774193548387096
 40
0.6774193548387096
 40
0.6774193548387096
 40
0.7096774193548387
 40
0.7096774193548387
 40
0.7096774193548387
 40
0.7096774193548387
 40
0.7419354838709677
 40
0.7419354838709677
 40
0.7419354838709677
 40
0.7419354838709677
 40
0.7741935483870968
 40
0.7741935483870968
 40
0.7741935483870968
 40
0.7741935483870968
 40
0.8064516129032258
 40
0.8064516129032258
 40
0.8064516129032258
 40
0.8064516129032258
 40
0.8387096774193549
 40
0.8387096774193549
 40
0.8387096774193549
 40
0.8387096774193549
 40
0.8709677419354839
 40
0.8709677419354839
 40
0.8709677419354839
 40
0.8709677419354839
 40
0.9032258064516129
 40
0.9032258064516129
 40
0.9032258064516129
 40
0.9032258064516129
 40
0.9354838709677419
 40
0.9354838709677419
 40
0.9354838709677419
 40
0.9354838709677419
 40
1.0
 40
1.0
 40
1.0
 40
1.0
 10
45.8659
 20
5.4134
 30
0.0
 10
45.8659
 20
5.4134
 30
0.0
 10
45.826
 20
5.7134
 30
0.0
 10
45.826
 20
5.7134
 30
0.0
 10
45.826
 20
5.7134
 30
0.0
 10
45.9962
 20
5.7482
 30
0.0
 10
46.1186
 20
5.8068
 30
0.0
 10
46.1938
 20
5.8894
 30
0.0
 10
46.1938
 20
5.8894
 30
0.0
 10
46.269
 20
5.9725
 30
0.0
 10
46.3065
 20
6.0733
 30
0.0
 10
46.3065
 20
6.1922
 30
0.0
 10
46.3065
 20
6.1922
 30
0.0
 10
46.3065
 20
6.3334
 30
0.0
 10
46.2576
 20
6.453
 30
0.0
 10
46.1596
 20
6.5504
 30
0.0
 10
46.1596
 20
6.5504
 30
0.0
 10
46.0617
 20
6.6472
 30
0.0
 10
45.9404
 20
6.6961
 30
0.0
 10
45.7958
 20
6.6961
 30
0.0
 10
45.7958
 20
6.6961
 30
0.0
 10
45.658
 20
6.6961
 30
0.0
 10
45.5442
 20
6.6511
 30
0.0
 10
45.4548
 20
6.5612
 30
0.0
 10
45.4548
 20
6.5612
 30
0.0
 10
45.3654
 20
6.4707
 30
0.0
 10
45.3204
 20
6.3562
 30
0.0
 10
45.3204
 20
6.2173
 30
0.0
 10
45.3204
 20
6.2173
 30
0.0
 10
45.3204
 20
6.1604
 30
0.0
 10
45.3318
 20
6.0898
 30
0.0
 10
45.354
 20
6.0055
 30
0.0
 10
45.354
 20
6.0055
 30
0.0
 10
45.354
 20
6.0055
 30
0.0
 10
45.0904
 20
6.0391
 30
0.0
 10
45.0904
 20
6.0391
 30
0.0
 10
45.0904
 20
6.0391
 30
0.0
 10
45.0927
 20
6.059
 30
0.0
 10
45.0938
 20
6.075
 30
0.0
 10
45.0938
 20
6.0875
 30
0.0
 10
45.0938
 20
6.0875
 30
0.0
 10
45.0938
 20
6.215
 30
0.0
 10
45.0602
 20
6.33
 30
0.0
 10
44.9936
 20
6.4325
 30
0.0
 10
44.9936
 20
6.4325
 30
0.0
 10
44.927
 20
6.535
 30
0.0
 10
44.8239
 20
6.5862
 30
0.0
 10
44.685
 20
6.5862
 30
0.0
 10
44.685
 20
6.5862
 30
0.0
 10
44.5751
 20
6.5862
 30
0.0
 10
44.4835
 20
6.5487
 30
0.0
 10
44.4117
 20
6.4741
 30
0.0
 10
44.4117
 20
6.4741
 30
0.0
 10
44.3394
 20
6.3995
 30
0.0
 10
44.303
 20
6.3033
 30
0.0
 10
44.303
 20
6.1854
 30
0.0
 10
44.303
 20
6.1854
 30
0.0
 10
44.303
 20
6.0687
 30
0.0
 10
44.34
 20
5.9713
 30
0.0
 10
44.4129
 20
5.8939
 30
0.0
 10
44.4129
 20
5.8939
 30
0.0
 10
44.4863
 20
5.8159
 30
0.0
 10
44.5968
 20
5.7658
 30
0.0
 10
44.7437
 20
5.7436
 30
0.0
 10
44.7437
 20
5.7436
 30
0.0
 10
44.7437
 20
5.7436
 30
0.0
 10
44.6901
 20
5.4436
 30
0.0
 10
44.6901
 20
5.4436
 30
0.0
 10
44.6901
 20
5.4436
 30
0.0
 10
44.4886
 20
5.48
 30
0.0
 10
44.3326
 20
5.5637
 30
0.0
 10
44.2221
 20
5.6935
 30
0.0
 10
44.2221
 20
5.6935
 30
0.0
 10
44.1117
 20
5.8239
 30
0.0
 10
44.0559
 20
5.9856
 30
0.0
 10
44.0559
 20
6.1792
 30
0.0
 10
44.0559
 20
6.1792
 30
0.0
 10
44.0559
 20
6.3124
 30
0.0
 10
44.0849
 20
6.4354
 30
0.0
 10
44.1419
 20
6.5475
 30
0.0
 10
44.1419
 20
6.5475
 30
0.0
 10
44.1994
 20
6.6597
 30
0.0
 10
44.2774
 20
6.7457
 30
0.0
 10
44.3764
 20
6.8054
 30
0.0
 10
44.3764
 20
6.8054
 30
0.0
 10
44.4755
 20
6.8646
 30
0.0
 10
44.5803
 20
6.8948
 30
0.0
 10
44.6919
 20
6.8948
 30
0.0
 10
44.6919
 20
6.8948
 30
0.0
 10
44.7972
 20
6.8948
 30
0.0
 10
44.8934
 20
6.8664
 30
0.0
 10
44.9805
 20
6.8094
 30
0.0
 10
44.9805
 20
6.8094
 30
0.0
 10
45.0671
 20
6.7525
 30
0.0
 10
45.136
 20
6.6688
 30
0.0
 10
45.1872
 20
6.5578
 30
0.0
 10
45.1872
 20
6.5578
 30
0.0
 10
45.2202
 20
6.7024
 30
0.0
 10
45.2897
 20
6.8145
 30
0.0
 10
45.395
 20
6.8948
 30
0.0
 10
45.395
 20
6.8948
 30
0.0
 10
45.4998
 20
6.9745
 30
0.0
 10
45.6313
 20
7.0144
 30
0.0
 10
45.789
 20
7.0144
 30
0.0
 10
45.789
 20
7.0144
 30
0.0
 10
46.0025
 20
7.0144
 30
0.0
 10
46.1836
 20
6.937
 30
0.0
 10
46.3322
 20
6.781
 30
0.0
 10
46.3322
 20
6.781
 30
0.0
 10
46.4808
 20
6.6255
 30
0.0
 10
46.5548
 20
6.4285
 30
0.0
 10
46.5548
 20
6.1905
 30
0.0
 10
46.5548
 20
6.1905
 30
0.0
 10
46.5548
 20
5.9759
 30
0.0
 10
46.491
 20
5.7977
 30
0.0
 10
46.3629
 20
5.6559
 30
0.0
 10
46.3629
 20
5.6559
 30
0.0
 10
46.2354
 20
5.5142
 30
0.0
 10
46.0697
 20
5.4333
 30
0.0
 10
45.8659
 20
5.4134
 30
0.0
  0
SPLINE
  5
67
330
1F
100
AcDbEntity
  8
AXIS
 62
   250
100
AcDbSpline
210
0.0
220
0.0
230
1.0
 70
    11
 71
     3
 72
    52
 73
    48
 74
     0
 42
0.0000000001
 43
0.0000000001
 40
0.0
 40
0.0
 40
0.0
 40
0.0
 40
0.0769230769230769
 40
0.0769230769230769
 40
0.0769230769230769
 40
0.0769230769230769
 40
0.1538461538461539
 40
0.1538461538461539
 40
0.1538461538461539
 40
0.1538461538461539
 40
0.2307692307692308
 40
0.2307692307692308
 40
0.2307692307692308
 40
0.2307692307692308
 40
0.3076923076923077
 40
0.3076923076923077
 40
0.3076923076923077
 40
0.3076923076923077
 40
0.3846153846153846
 40
0.3846153846153846
 40
0.3846153846153846
 40
0.3846153846153846
 40
0.4615384615384616
 40
0.4615384615384616
 40
0.4615384615384616
 40
0.4615384615384616
 40
0.5384615384615384
 40
0.5384615384615384
 40
0.5384615384615384
 40
0.5384615384615384
 40
0.6153846153846154
 40
0.6153846153846154
 40
0.6153846153846154
 40
0.6153846153846154
 40
0.6923076923076923
 40
0.6923076923076923
 40
0.6923076923076923
 40
0.6923076923076923
 40
0.7692307692307693
 40
0.7692307692307693
 40
0.7692307692307693
 40
0.7692307692307693
 40
0.8461538461538461
 40
0.8461538461538461
 40
0.8461538461538461
 40
0.8461538461538461
 40
1.0
 40
1.0
 40
1.0
 40
1.0
 10
45.3056
 20
7.3116
 30
0.0
 10
45.0164
 20
7.3116
 30
0.0
 10
44.7835
 20
7.3412
 30
0.0
 10
44.6076
 20
7.401
 30
0.0
 10
44.6076
 20
7.401
 30
0.0
 10
44.4311
 20
7.4602
 30
0.0
 10
44.295
 20
7.549
 30
0.0
 10
44.1994
 20
7.6663
 30
0.0
 10
44.1994
 20
7.6663
 30
0.0
 10
44.1037
 20
7.7836
 30
0.0
 10
44.0559
 20
7.931
 30
0.0
 10
44.0559
 20
8.1087
 30
0.0
 10
44.0559
 20
8.1087
 30
0.0
 10
44.0559
 20
8.2402
 30
0.0
 10
44.0827
 20
8.3552
 30
0.0
 10
44.1356
 20
8.4543
 30
0.0
 10
44.1356
 20
8.4543
 30
0.0
 10
44.188
 20
8.5533
 30
0.0
 10
44.2643
 20
8.6347
 30
0.0
 10
44.3639
 20
8.6996
 30
0.0
 10
44.3639
 20
8.6996
 30
0.0
 10
44.4635
 20
8.764
 30
0.0
 10
44.5848
 20
8.8147
 30
0.0
 10
44.7277
 20
8.8511
 30
0.0
 10
44.7277
 20
8.8511
 30
0.0
 10
44.8706
 20
8.8881
 30
0.0
 10
45.0631
 20
8.9063
 30
0.0
 10
45.3056
 20
8.9063
 30
0.0
 10
45.3056
 20
8.9063
 30
0.0
 10
45.5926
 20
8.9063
 30
0.0
 10
45.8237
 20
8.8767
 30
0.0
 10
46.0002
 20
8.8181
 30
0.0
 10
46.0002
 20
8.8181
 30
0.0
 10
46.1767
 20
8.7589
 30
0.0
 10
46.3128
 20
8.6706
 30
0.0
 10
46.409
 20
8.5533
 30
0.0
 10
46.409
 20
8.5533
 30
0.0
 10
46.5052
 20
8.436
 30
0.0
 10
46.5531
 20
8.288
 30
0.0
 10
46.5531
 20
8.1087
 30
0.0
 10
46.5531
 20
8.1087
 30
0.0
 10
46.5531
 20
7.8729
 30
0.0
 10
46.4688
 20
7.6879
 30
0.0
 10
46.2997
 20
7.5535
 30
0.0
 10
46.2997
 20
7.5535
 30
0.0
 10
46.0964
 20
7.3924
 30
0.0
 10
45.7645
 20
7.3116
 30
0.0
 10
45.3056
 20
7.3116
 30
0.0
  0
SPLINE
  5
68
330
1F
100
AcDbEntity
  8
AXIS
 62
   250
100
AcDbSpline
210
0.0
220
0.0
230
1.0
 70
    11
 71
     3
 72
    36
 73
    32
 74
     0
 42
0.0000000001
 43
0.0000000001
 40
0.0
 40
0.0
 40
0.0
 40
0.0
 40
0.1111111111111111
 40
0.1111111111111111
 40
0.1111111111111111
 40
0.1111111111111111
 40
0.2222222222222222
 40
0.2222222222222222
 40
0.2222222222222222
 40
0.2222222222222222
 40
0.3333333333333333
 40
0.3333333333333333
 40
0.3333333333333333
 40
0.3333333333333333
 40
0.4444444444444444
 40
0.4444444444444444
 40
0.4444444444444444
 40
0.4444444444444444
 40
0.5555555555555556
 40
0.5555555555555556
 40
0.5555555555555556
 40
0.5555555555555556
 40
0.6666666666666666
 40
0.6666666666666666
 40
0.6666666666666666
 40
0.6666666666666666
 40
0.7777777777777778
 40
0.7777777777777778
 40
0.7777777777777778
 40
0.7777777777777778
 40
1.0
 40
1.0
 40
1.0
 40
1.0
 10
45.3056
 20
7.6202
 30
0.0
 10
45.707
 20
7.6202
 30
0.0
 10
45.974
 20
7.6674
 30
0.0
 10
46.1073
 20
7.7614
 30
0.0
 10
46.1073
 20
7.7614
 30
0.0
 10
46.2399
 20
7.8553
 30
0.0
 10
46.3065
 20
7.9709
 30
0.0
 10
46.3065
 20
8.1087
 30
0.0
 10
46.3065
 20
8.1087
 30
0.0
 10
46.3065
 20
8.247
 30
0.0
 10
46.2394
 20
8.3626
 30
0.0
 10
46.1061
 20
8.4565
 30
0.0
 10
46.1061
 20
8.4565
 30
0.0
 10
45.9729
 20
8.5505
 30
0.0
 10
45.7059
 20
8.5977
 30
0.0
 10
45.3056
 20
8.5977
 30
0.0
 10
45.3056
 20
8.5977
 30
0.0
 10
44.9031
 20
8.5977
 30
0.0
 10
44.6355
 20
8.5505
 30
0.0
 10
44.5034
 20
8.4565
 30
0.0
 10
44.5034
 20
8.4565
 30
0.0
 10
44.3707
 20
8.3626
 30
0.0
 10
44.3047
 20
8.2459
 30
0.0
 10
44.3047
 20
8.1058
 30
0.0
 10
44.3047
 20
8.1058
 30
0.0
 10
44.3047
 20
7.9675
 30
0.0
 10
44.3633
 20
7.8576
 30
0.0
 10
44.4801
 20
7.775
 30
0.0
 10
44.4801
 20
7.775
 30
0.0
 10
44.6287
 20
7.672
 30
0.0
 10
44.9042
 20
7.6202
 30
0.0
 10
45.3056
 20
7.6202
 30
0.0
  0
SPLINE
  5
69
330
1F
100
AcDbEntity
  8
AXIS
 62
   250
100
AcDbSpline
210
0.0
220
0.0
230
1.0
 70
    11
 71
     3
 72
    52
 73
    48
 74
     0
 42
0.0000000001
 43
0.0000000001
 40
0.0
 40
0.0
 40
0.0
 40
0.0
 40
0.0769230769230769
 40
0.0769230769230769
 40
0.0769230769230769
 40
0.0769230769230769
 40
0.1538461538461539
 40
0.1538461538461539
 40
0.1538461538461539
 40
0.1538461538461539
 40
0.2307692307692308
 40
0.2307692307692308
 40
0.2307692307692308
 40
0.2307692307692308
 40
0.3076923076923077
 40
0.3076923076923077
 40
0.3076923076923077
 40
0.3076923076923077
 40
0.3846153846153846
 40
0.3846153846153846
 40
0.3846153846153846
 40
0.3846153846153846
 40
0.4615384615384616
 40
0.4615384615384616
 40
0.4615384615384616
 40
0.4615384615384616
 40
0.5384615384615384
 40
0.5384615384615384
 40
0.5384615384615384
 40
0.5384615384615384
 40
0.6153846153846154
 40
0.6153846153846154
 40
0.6153846153846154
 40
0.6153846153846154
 40
0.6923076923076923
 40
0.6923076923076923
 40
0.6923076923076923
 40
0.6923076923076923
 40
0.7692307692307693
 40
0.7692307692307693
 40
0.7692307692307693
 40
0.7692307692307693
 40
0.8461538461538461
 40
0.8461538461538461
 40
0.8461538461538461
 40
0.8461538461538461
 40
1.0
 40
1.0
 40
1.0
 40
1.0
 10
45.3056
 20
9.2115
 30
0.0
 10
45.0164
 20
9.2115
 30
0.0
 10
44.7835
 20
9.2411
 30
0.0
 10
44.6076
 20
9.3009
 30
0.0
 10
44.6076
 20
9.3009
 30
0.0
 10
44.4311
 20
9.3601
 30
0.0
 10
44.295
 20
9.4489
 30
0.0
 10
44.1994
 20
9.5662
 30
0.0
 10
44.1994
 20
9.5662
 30
0.0
 10
44.1037
 20
9.6835
 30
0.0
 10
44.0559
 20
9.8309
 30
0.0
 10
44.0559
 20
10.0086
 30
0.0
 10
44.0559
 20
10.0086
 30
0.0
 10
44.0559
 20
10.1401
 30
0.0
 10
44.0827
 20
10.2551
 30
0.0
 10
44.1356
 20
10.3542
 30
0.0
 10
44.1356
 20
10.3542
 30
0.0
 10
44.188
 20
10.4532
 30
0.0
 10
44.2643
 20
10.5346
 30
0.0
 10
44.3639
 20
10.5995
 30
0.0
 10
44.3639
 20
10.5995
 30
0.0
 10
44.4635
 20
10.6639
 30
0.0
 10
44.5848
 20
10.7146
 30
0.0
 10
44.7277
 20
10.751
 30
0.0
 10
44.7277
 20
10.751
 30
0.0
 10
44.8706
 20
10.788
 30
0.0
 10
45.0631
 20
10.8062
 30
0.0
 10
45.3056
 20
10.8062
 30
0.0
 10
45.3056
 20
10.8062
 30
0.0
 10
45.5926
 20
10.8062
 30
0.0
 10
45.8237
 20
10.7766
 30
0.0
 10
46.0002
 20
10.718
 30
0.0
 10
46.0002
 20
10.718
 30
0.0
 10
46.1767
 20
10.6588
 30
0.0
 10
46.3128
 20
10.5705
 30
0.0
 10
46.409
 20
10.4532
 30
0.0
 10
46.409
 20
10.4532
 30
0.0
 10
46.5052
 20
10.3359
 30
0.0
 10
46.5531
 20
10.1879
 30
0.0
 10
46.5531
 20
10.0086
 30
0.0
 10
46.5531
 20
10.0086
 30
0.0
 10
46.5531
 20
9.7728
 30
0.0
 10
46.4688
 20
9.5878
 30
0.0
 10
46.2997
 20
9.4534
 30
0.0
 10
46.2997
 20
9.4534
 30
0.0
 10
46.0964
 20
9.2923
 30
0.0
 10
45.7645
 20
9.2115
 30
0.0
 10
45.3056
 20
9.2115
 30
0.0
  0
SPLINE
  5
6A
330
1F
100
AcDbEntity
  8
AXIS
 62
   250
100
AcDbSpline
210
0.0
220
0.0
230
1.0
 70
    11
 71
     3
 72
    36
 73
    32
 74
     0
 42
0.0000000001
 43
0.0000000001
 40
0.0
 40
0.0
 40
0.0
 40
0.0
 40
0.1111111111111111
 40
0.1111111111111111
 40
0.1111111111111111
 40
0.1111111111111111
 40
0.2222222222222222
 40
0.2222222222222222
 40
0.2222222222222222
 40
0.2222222222222222
 40
0.3333333333333333
 40
0.3333333333333333
 40
0.3333333333333333
 40
0.3333333333333333
 40
0.4444444444444444
 40
0.4444444444444444
 40
0.4444444444444444
 40
0.4444444444444444
 40
0.5555555555555556
 40
0.5555555555555556
 40
0.5555555555555556
 40
0.5555555555555556
 40
0.6666666666666666
 40
0.6666666666666666
 40
0.6666666666666666
 40
0.6666666666666666
 40
0.7777777777777778
 40
0.7777777777777778
 40
0.7777777777777778
 40
0.7777777777777778
 40
1.0
 40
1.0
 40
1.0
 40
1.0
 10
45.3056
 20
9.5201
 30
0.0
 10
45.707
 20
9.5201
 30
0.0
 10
45.974
 20
9.5673
 30
0.0
 10
46.1073
 20
9.6613
 30
0.0
 10
46.1073
 20
9.6613
 30
0.0
 10
46.2399
 20
9.7552
 30
0.0
 10
46.3065
 20
9.8708
 30
0.0
 10
46.3065
 20
10.0086
 30
0.0
 10
46.3065
 20
10.0086
 30
0.0
 10
46.3065
 20
10.1469
 30
0.0
 10
46.2394
 20
10.2625
 30
0.0
 10
46.1061
 20
10.3564
 30
0.0
 10
46.1061
 20
10.3564
 30
0.0
 10
45.9729
 20
10.4504
 30
0.0
 10
45.7059
 20
10.4976
 30
0.0
 10
45.3056
 20
10.4976
 30
0.0
 10
45.3056
 20
10.4976
 30
0.0
 10
44.9031
 20
10.4976
 30
0.0
 10
44.6355
 20
10.4504
 30
0.0
 10
44.5034
 20
10.3564
 30
0.0
 10
44.5034
 20
10.3564
 30
0.0
 10
44.3707
 20
10.2625
 30
0.0
 10
44.3047
 20
10.1458
 30
0.0
 10
44.3047
 20
10.0057
 30
0.0
 10
44.3047
 20
10.0057
 30
0.0
 10
44.3047
 20
9.8674
 30
0.0
 10
44.3633
 20
9.7575
 30
0.0
 10
44.4801
 20
9.6749
 30
0.0
 10
44.4801
 20
9.6749
 30
0.0
 10
44.6287
 20
9.5719
 30
0.0
 10
44.9042
 20
9.5201
 30
0.0
 10
45.3056
 20
9.5201
 30
0.0
  0
SPLINE
  5
6B
330
1F
100
AcDbEntity
  8
AXIS
 62
   250
100
AcDbSpline
210
0.0
220
0.0
230
1.0
 70
    11
 71
     3
 72
   124
 73
   120
 74
     0
 42
0.0000000001
 43
0.0000000001
 40
0.0
 40
0.0
 40
0.0
 40
0.0
 40
0.032258064516129
 40
0.032258064516129
 40
0.032258064516129
 40
0.032258064516129
 40
0.0645161290322581
 40
0.0645161290322581
 40
0.0645161290322581
 40
0.0645161290322581
 40
0.0967741935483871
 40
0.0967741935483871
 40
0.0967741935483871
 40
0.0967741935483871
 40
0.1290322580645161
 40
0.1290322580645161
 40
0.1290322580645161
 40
0.1290322580645161
 40
0.1612903225806452
 40
0.1612903225806452
 40
0.1612903225806452
 40
0.1612903225806452
 40
0.1935483870967742
 40
0.1935483870967742
 40
0.1935483870967742
 40
0.1935483870967742
 40
0.2258064516129032
 40
0.2258064516129032
 40
0.2258064516129032
 40
0.2258064516129032
 40
0.2580645161290323
 40
0.2580645161290323
 40
0.2580645161290323
 40
0.2580645161290323
 40
0.2903225806451613
 40
0.2903225806451613
 40
0.2903225806451613
 40
0.2903225806451613
 40
0.3225806451612903
 40
0.3225806451612903
 40
0.3225806451612903
 40
0.3225806451612903
 40
0.3548387096774194
 40
0.3548387096774194
 40
0.3548387096774194
 40
0.3548387096774194
 40
0.3870967741935484
 40
0.3870967741935484
 40
0.3870967741935484
 40
0.3870967741935484
 40
0.4193548387096774
 40
0.4193548387096774
 40
0.4193548387096774
 40
0.4193548387096774
 40
0.4516129032258064
 40
0.4516129032258064
 40
0.4516129032258064
 40
0.4516129032258064
 40
0.4838709677419355
 40
0.4838709677419355
 40
0.4838709677419355
 40
0.4838709677419355
 40
0.5161290322580645
 40
0.5161290322580645
 40
0.5161290322580645
 40
0.5161290322580645
 40
0.5483870967741935
 40
0.5483870967741935
 40
0.5483870967741935
 40
0.5483870967741935
 40
0.5806451612903226
 40
0.5806451612903226
 40
0.5806451612903226
 40
0.5806451612903226
 40
0.6129032258064516
 40
0.6129032258064516
 40
0.6129032258064516
 40
0.6129032258064516
 40
0.6451612903225806
 40
0.6451612903225806
 40
0.6451612903225806
 40
0.6451612903225806
 40
0.6774193548387096
 40
0.6774193548387096
 40
0.6774193548387096
 40
0.6774193548387096
 40
0.7096774193548387
 40
0.7096774193548387
 40
0.7096774193548387
 40
0.7096774193548387
 40
0.7419354838709677
 40
0.7419354838709677
 40
0.7419354838709677
 40
0.7419354838709677
 40
0.7741935483870968
 40
0.7741935483870968
 40
0.7741935483870968
 40
0.7741935483870968
 40
0.8064516129032258
 40
0.8064516129032258
 40
0.8064516129032258
 40
0.8064516129032258
 40
0.8387096774193549
 40
0.8387096774193549
 40
0.8387096774193549
 40
0.8387096774193549
 40
0.8709677419354839
 40
0.8709677419354839
 40
0.8709677419354839
 40
0.8709677419354839
 40
0.9032258064516129
 40
0.9032258064516129
 40
0.9032258064516129
 40
0.9032258064516129
 40
0.9354838709677419
 40
0.9354838709677419
 40
0.9354838709677419
 40
0.9354838709677419
 40
1.0
 40
1.0
 40
1.0
 40
1.0
 10
-20.3005
 20
-33.4463
 30
0.0
 10
-20.3005
 20
-33.4463
 30
0.0
 10
-20.0005
 20
-33.4064
 30
0.0
 10
-20.0005
 20
-33.4064
 30
0.0
 10
-20.0005
 20
-33.4064
 30
0.0
 10
-19.9657
 20
-33.5766
 30
0.0
 10
-19.9071
 20
-33.699
 30
0.0
 10
-19.8245
 20
-33.7742
 30
0.0
 10
-19.8245
 20
-33.7742
 30
0.0
 10
-19.7414
 20
-33.8494
 30
0.0
 10
-19.6406
 20
-33.8869
 30
0.0
 10
-19.5217
 20
-33.8869
 30
0.0
 10
-19.5217
 20
-33.8869
 30
0.0
 10
-19.3805
 20
-33.8869
 30
0.0
 10
-19.2609
 20
-33.838
 30
0.0
 10
-19.1635
 20
-33.74
 30
0.0
 10
-19.1635
 20
-33.74
 30
0.0
 10
-19.0667
 20
-33.6421
 30
0.0
 10
-19.0178
 20
-33.5208
 30
0.0
 10
-19.0178
 20
-33.3762
 30
0.0
 10
-19.0178
 20
-33.3762
 30
0.0
 10
-19.0178
 20
-33.2384
 30
0.0
 10
-19.0628
 20
-33.1246
 30
0.0
 10
-19.1527
 20
-33.0352
 30
0.0
 10
-19.1527
 20
-33.0352
 30
0.0
 10
-19.2432
 20
-32.9458
 30
0.0
 10
-19.3577
 20
-32.9008
 30
0.0
 10
-19.4966
 20
-32.9008
 30
0.0
 10
-19.4966
 20
-32.9008
 30
0.0
 10
-19.5535
 20
-32.9008
 30
0.0
 10
-19.6241
 20
-32.9122
 30
0.0
 10
-19.7084
 20
-32.9344
 30
0.0
 10
-19.7084
 20
-32.9344
 30
0.0
 10
-19.7084
 20
-32.9344
 30
0.0
 10
-19.6748
 20
-32.6708
 30
0.0
 10
-19.6748
 20
-32.6708
 30
0.0
 10
-19.6748
 20
-32.6708
 30
0.0
 10
-19.6549
 20
-32.6731
 30
0.0
 10
-19.6389
 20
-32.6742
 30
0.0
 10
-19.6264
 20
-32.6742
 30
0.0
 10
-19.6264
 20
-32.6742
 30
0.0
 10
-19.4989
 20
-32.6742
 30
0.0
 10
-19.3839
 20
-32.6406
 30
0.0
 10
-19.2814
 20
-32.574
 30
0.0
 10
-19.2814
 20
-32.574
 30
0.0
 10
-19.1789
 20
-32.5074
 30
0.0
 10
-19.1277
 20
-32.4043
 30
0.0
 10
-19.1277
 20
-32.2654
 30
0.0
 10
-19.1277
 20
-32.2654
 30
0.0
 10
-19.1277
 20
-32.1555
 30
0.0
 10
-19.1652
 20
-32.0639
 30
0.0
 10
-19.2398
 20
-31.9921
 30
0.0
 10
-19.2398
 20
-31.9921
 30
0.0
 10
-19.3144
 20
-31.9198
 30
0.0
 10
-19.4106
 20
-31.8834
 30
0.0
 10
-19.5285
 20
-31.8834
 30
0.0
 10
-19.5285
 20
-31.8834
 30
0.0
 10
-19.6452
 20
-31.8834
 30
0.0
 10
-19.7426
 20
-31.9204
 30
0.0
 10
-19.82
 20
-31.9933
 30
0.0
 10
-19.82
 20
-31.9933
 30
0.0
 10
-19.898
 20
-32.0667
 30
0.0
 10
-19.9481
 20
-32.1772
 30
0.0
 10
-19.9703
 20
-32.3241
 30
0.0
 10
-19.9703
 20
-32.3241
 30
0.0
 10
-19.9703
 20
-32.3241
 30
0.0
 10
-20.2703
 20
-32.2705
 30
0.0
 10
-20.2703
 20
-32.2705
 30
0.0
 10
-20.2703
 20
-32.2705
 30
0.0
 10
-20.2339
 20
-32.069
 30
0.0
 10
-20.1502
 20
-31.913
 30
0.0
 10
-20.0204
 20
-31.8025
 30
0.0
 10
-20.0204
 20
-31.8025
 30
0.0
 10
-19.89
 20
-31.6921
 30
0.0
 10
-19.7283
 20
-31.6363
 30
0.0
 10
-19.5347
 20
-31.6363
 30
0.0
 10
-19.5347
 20
-31.6363
 30
0.0
 10
-19.4015
 20
-31.6363
 30
0.0
 10
-19.2785
 20
-31.6653
 30
0.0
 10
-19.1664
 20
-31.7223
 30
0.0
 10
-19.1664
 20
-31.7223
 30
0.0
 10
-19.0542
 20
-31.7798
 30
0.0
 10
-18.9682
 20
-31.8578
 30
0.0
 10
-18.9085
 20
-31.9568
 30
0.0
 10
-18.9085
 20
-31.9568
 30
0.0
 10
-18.8493
 20
-32.0559
 30
0.0
 10
-18.8191
 20
-32.1607
 30
0.0
 10
-18.8191
 20
-32.2723
 30
0.0
 10
-18.8191
 20
-32.2723
 30
0.0
 10
-18.8191
 20
-32.3776
 30
0.0
 10
-18.8475
 20
-32.4738
 30
0.0
 10
-18.9045
 20
-32.5609
 30
0.0
 10
-18.9045
 20
-32.5609
 30
0.0
 10
-18.9614
 20
-32.6475
 30
0.0
 10
-19.0451
 20
-32.7164
 30
0.0
 10
-19.1561
 20
-32.7676
 30
0.0
 10
-19.1561
 20
-32.7676
 30
0.0
 10
-19.0115
 20
-32.8006
 30
0.0
 10
-18.8994
 20
-32.8701
 30
0.0
 10
-18.8191
 20
-32.9754
 30
0.0
 10
-18.8191
 20
-32.9754
 30
0.0
 10
-18.7394
 20
-33.0802
 30
0.0
 10
-18.6995
 20
-33.2117
 30
0.0
 10
-18.6995
 20
-33.3694
 30
0.0
 10
-18.6995
 20
-33.3694
 30
0.0
 10
-18.6995
 20
-33.5829
 30
0.0
 10
-18.7769
 20
-33.764
 30
0.0
 10
-18.9329
 20
-33.9126
 30
0.0
 10
-18.9329
 20
-33.9126
 30
0.0
 10
-19.0884
 20
-34.0612
 30
0.0
 10
-19.2854
 20
-34.1352
 30
0.0
 10
-19.5234
 20
-34.1352
 30
0.0
 10
-19.5234
 20
-34.1352
 30
0.0
 10
-19.738
 20
-34.1352
 30
0.0
 10
-19.9162
 20
-34.0714
 30
0.0
 10
-20.058
 20
-33.9433
 30
0.0
 10
-20.058
 20
-33.9433
 30
0.0
 10
-20.1997
 20
-33.8158
 30
0.0
 10
-20.2806
 20
-33.6501
 30
0.0
 10
-20.3005
 20
-33.4463
 30
0.0
  0
SPLINE
  5
6C
330
1F
100
AcDbEntity
  8
AXIS
 62
   250
100
AcDbSpline
210
0.0
220
0.0
230
1.0
 70
    11
 71
     3
 72
    40
 73
    36
 74
     0
 42
0.0000000001
 43
0.0000000001
 40
0.0
 40
0.0
 40
0.0
 40
0.0
 40
0.1
 40
0.1
 40
0.1
 40
0.1
 40
0.2
 40
0.2
 40
0.2
 40
0.2
 40
0.3
 40
0.3
 40
0.3
 40
0.3
 40
0.4
 40
0.4
 40
0.4
 40
0.4
 40
0.5
 40
0.5
 40
0.5
 40
0.5
 40
0.6
 40
0.6
 40
0.6
 40
0.6
 40
0.7
 40
0.7
 40
0.7
 40
0.7
 40
0.8
 40
0.8
 40
0.8
 40
0.8
 40
1.0
 40
1.0
 40
1.0
 40
1.0
 10
-17.2716
 20
-34.0919
 30
0.0
 10
-17.2716
 20
-34.0919
 30
0.0
 10
-17.5717
 20
-34.0919
 30
0.0
 10
-17.5717
 20
-34.0919
 30
0.0
 10
-17.5717
 20
-34.0919
 30
0.0
 10
-17.5717
 20
-34.0919
 30
0.0
 10
-17.5717
 20
-32.1789
 30
0.0
 10
-17.5717
 20
-32.1789
 30
0.0
 10
-17.5717
 20
-32.1789
 30
0.0
 10
-17.644
 20
-32.2478
 30
0.0
 10
-17.7385
 20
-32.3167
 30
0.0
 10
-17.8558
 20
-32.3856
 30
0.0
 10
-17.8558
 20
-32.3856
 30
0.0
 10
-17.9736
 20
-32.4544
 30
0.0
 10
-18.0789
 20
-32.5063
 30
0.0
 10
-18.1723
 20
-32.5404
 30
0.0
 10
-18.1723
 20
-32.5404
 30
0.0
 10
-18.1723
 20
-32.5404
 30
0.0
 10
-18.1723
 20
-32.2506
 30
0.0
 10
-18.1723
 20
-32.2506
 30
0.0
 10
-18.1723
 20
-32.2506
 30
0.0
 10
-18.0044
 20
-32.1715
 30
0.0
 10
-17.8575
 20
-32.0758
 30
0.0
 10
-17.7316
 20
-31.9637
 30
0.0
 10
-17.7316
 20
-31.9637
 30
0.0
 10
-17.6064
 20
-31.8509
 30
0.0
 10
-17.517
 20
-31.7422
 30
0.0
 10
-17.4646
 20
-31.6363
 30
0.0
 10
-17.4646
 20
-31.6363
 30
0.0
 10
-17.4646
 20
-31.6363
 30
0.0
 10
-17.2716
 20
-31.6363
 30
0.0
 10
-17.2716
 20
-31.6363
 30
0.0
 10
-17.2716
 20
-31.6363
 30
0.0
 10
-17.2716
 20
-31.6363
 30
0.0
 10
-17.2716
 20
-34.0919
 30
0.0
 10
-17.2716
 20
-34.0919
 30
0.0
  0
SPLINE
  5
6D
330
1F
100
AcDbEntity
  8
AXIS
 62
   250
100
AcDbSpline
210
0.0
220
0.0
230
1.0
 70
    11
 71
     3
 72
    80
 73
    76
 74
     0
 42
0.0000000001
 43
0.0000000001
 40
0.0
 40
0.0
 40
0.0
 40
0.0
 40
0.05
 40
0.05
 40
0.05
 40
0.05
 40
0.1
 40
0.1
 40
0.1
 40
0.1
 40
0.15
 40
0.15
 40
0.15
 40
0.15
 40
0.2
 40
0.2
 40
0.2
 40
0.2
 40
0.25
 40
0.25
 40
0.25
 40
0.25
 40
0.3
 40
0.3
 40
0.3
 40
0.3
 40
0.35
 40
0.35
 40
0.35
 40
0.35
 40
0.4
 40
0.4
 40
0.4
 40
0.4
 40
0.45
 40
0.45
 40
0.45
 40
0.45
 40
0.5
 40
0.5
 40
0.5
 40
0.5
 40
0.55
 40
0.55
 40
0.55
 40
0.55
 40
0.6
 40
0.6
 40
0.6
 40
0.6
 40
0.65
 40
0.65
 40
0.65
 40
0.65
 40
0.7
 40
0.7
 40
0.7
 40
0.7
 40
0.75
 40
0.75
 40
0.75
 40
0.75
 40
0.8
 40
0.8
 40
0.8
 40
0.8
 40
0.85
 40
0.85
 40
0.85
 40
0.85
 40
0.9
 40
0.9
 40
0.9
 40
0.9
 40
1.0
 40
1.0
 40
1.0
 40
1.0
 10
-14.9447
 20
-32.2455
 30
0.0
 10
-14.9447
 20
-32.2455
 30
0.0
 10
-15.243
 20
-32.2688
 30
0.0
 10
-15.243
 20
-32.2688
 30
0.0
 10
-15.243
 20
-32.2688
 30
0.0
 10
-15.2698
 20
-32.151
 30
0.0
 10
-15.3074
 20
-32.065
 30
0.0
 10
-15.3563
 20
-32.0121
 30
0.0
 10
-15.3563
 20
-32.0121
 30
0.0
 10
-15.4377
 20
-31.9261
 30
0.0
 10
-15.538
 20
-31.8834
 30
0.0
 10
-15.6569
 20
-31.8834
 30
0.0
 10
-15.6569
 20
-31.8834
 30
0.0
 10
-15.7526
 20
-31.8834
 30
0.0
 10
-15.8363
 20
-31.9102
 30
0.0
 10
-15.9086
 20
-31.9637
 30
0.0
 10
-15.9086
 20
-31.9637
 30
0.0
 10
-16.0031
 20
-32.0326
 30
0.0
 10
-16.0777
 20
-32.1333
 30
0.0
 10
-16.1324
 20
-32.2654
 30
0.0
 10
-16.1324
 20
-32.2654
 30
0.0
 10
-16.1864
 20
-32.3975
 30
0.0
 10
-16.2149
 20
-32.586
 30
0.0
 10
-16.2172
 20
-32.8308
 30
0.0
 10
-16.2172
 20
-32.8308
 30
0.0
 10
-16.1449
 20
-32.7209
 30
0.0
 10
-16.0566
 20
-32.6389
 30
0.0
 10
-15.9519
 20
-32.5854
 30
0.0
 10
-15.9519
 20
-32.5854
 30
0.0
 10
-15.8477
 20
-32.5325
 30
0.0
 10
-15.7378
 20
-32.5057
 30
0.0
 10
-15.6234
 20
-32.5057
 30
0.0
 10
-15.6234
 20
-32.5057
 30
0.0
 10
-15.4229
 20
-32.5057
 30
0.0
 10
-15.2527
 20
-32.5791
 30
0.0
 10
-15.1121
 20
-32.7266
 30
0.0
 10
-15.1121
 20
-32.7266
 30
0.0
 10
-14.9714
 20
-32.8741
 30
0.0
 10
-14.9009
 20
-33.0642
 30
0.0
 10
-14.9009
 20
-33.2977
 30
0.0
 10
-14.9009
 20
-33.2977
 30
0.0
 10
-14.9009
 20
-33.4514
 30
0.0
 10
-14.9344
 20
-33.5937
 30
0.0
 10
-15.0005
 20
-33.7258
 30
0.0
 10
-15.0005
 20
-33.7258
 30
0.0
 10
-15.0665
 20
-33.8573
 30
0.0
 10
-15.1576
 20
-33.9587
 30
0.0
 10
-15.2732
 20
-34.0287
 30
0.0
 10
-15.2732
 20
-34.0287
 30
0.0
 10
-15.3888
 20
-34.0987
 30
0.0
 10
-15.5197
 20
-34.1335
 30
0.0
 10
-15.6666
 20
-34.1335
 30
0.0
 10
-15.6666
 20
-34.1335
 30
0.0
 10
-15.9171
 20
-34.1335
 30
0.0
 10
-16.121
 20
-34.0418
 30
0.0
 10
-16.2787
 20
-33.8573
 30
0.0
 10
-16.2787
 20
-33.8573
 30
0.0
 10
-16.437
 20
-33.6734
 30
0.0
 10
-16.5155
 20
-33.37
 30
0.0
 10
-16.5155
 20
-32.9475
 30
0.0
 10
-16.5155
 20
-32.9475
 30
0.0
 10
-16.5155
 20
-32.4749
 30
0.0
 10
-16.4284
 20
-32.1316
 30
0.0
 10
-16.2536
 20
-31.917
 30
0.0
 10
-16.2536
 20
-31.917
 30
0.0
 10
-16.1016
 20
-31.7302
 30
0.0
 10
-15.8966
 20
-31.6363
 30
0.0
 10
-15.6382
 20
-31.6363
 30
0.0
 10
-15.6382
 20
-31.6363
 30
0.0
 10
-15.4463
 20
-31.6363
 30
0.0
 10
-15.2886
 20
-31.6904
 30
0.0
 10
-15.1656
 20
-31.7986
 30
0.0
 10
-15.1656
 20
-31.7986
 30
0.0
 10
-15.0426
 20
-31.9062
 30
0.0
 10
-14.9692
 20
-32.0553
 30
0.0
 10
-14.9447
 20
-32.2455
 30
0.0
  0
SPLINE
  5
6E
330
1F
100
AcDbEntity
  8
AXIS
 62
   250
100
AcDbSpline
210
0.0
220
0.0
230
1.0
 70
    11
 71
     3
 72
    40
 73
    36
 74
     0
 42
0.0000000001
 43
0.0000000001
 40
0.0
 40
0.0
 40
0.0
 40
0.0
 40
0.1
 40
0.1
 40
0.1
 40
0.1
 40
0.2
 40
0.2
 40
0.2
 40
0.2
 40
0.3
 40
0.3
 40
0.3
 40
0.3
 40
0.4
 40
0.4
 40
0.4
 40
0.4
 40
0.5
 40
0.5
 40
0.5
 40
0.5
 40
0.6
 40
0.6
 40
0.6
 40
0.6
 40
0.7
 40
0.7
 40
0.7
 40
0.7
 40
0.8
 40
0.8
 40
0.8
 40
0.8
 40
1.0
 40
1.0
 40
1.0
 40
1.0
 10
-16.1705
 20
-33.2994
 30
0.0
 10
-16.1705
 20
-33.403
 30
0.0
 10
-16.1483
 20
-33.5021
 30
0.0
 10
-16.1045
 20
-33.5966
 30
0.0
 10
-16.1045
 20
-33.5966
 30
0.0
 10
-16.0606
 20
-33.6911
 30
0.0
 10
-15.9991
 20
-33.7628
 30
0.0
 10
-15.9206
 20
-33.8123
 30
0.0
 10
-15.9206
 20
-33.8123
 30
0.0
 10
-15.8414
 20
-33.8619
 30
0.0
 10
-15.7583
 20
-33.8869
 30
0.0
 10
-15.6718
 20
-33.8869
 30
0.0
 10
-15.6718
 20
-33.8869
 30
0.0
 10
-15.5448
 20
-33.8869
 30
0.0
 10
-15.436
 20
-33.8357
 30
0.0
 10
-15.3449
 20
-33.7332
 30
0.0
 10
-15.3449
 20
-33.7332
 30
0.0
 10
-15.2538
 20
-33.6307
 30
0.0
 10
-15.2083
 20
-33.4918
 30
0.0
 10
-15.2083
 20
-33.3164
 30
0.0
 10
-15.2083
 20
-33.3164
 30
0.0
 10
-15.2083
 20
-33.1473
 30
0.0
 10
-15.2533
 20
-33.0141
 30
0.0
 10
-15.3432
 20
-32.9168
 30
0.0
 10
-15.3432
 20
-32.9168
 30
0.0
 10
-15.4332
 20
-32.8194
 30
0.0
 10
-15.5465
 20
-32.771
 30
0.0
 10
-15.6831
 20
-32.771
 30
0.0
 10
-15.6831
 20
-32.771
 30
0.0
 10
-15.8192
 20
-32.771
 30
0.0
 10
-15.9342
 20
-32.8194
 30
0.0
 10
-16.0287
 20
-32.9168
 30
0.0
 10
-16.0287
 20
-32.9168
 30
0.0
 10
-16.1232
 20
-33.0141
 30
0.0
 10
-16.1705
 20
-33.1417
 30
0.0
 10
-16.1705
 20
-33.2994
 30
0.0
  0
SPLINE
  5
6F
330
1F
100
AcDbEntity
  8
AXIS
 62
   250
100
AcDbSpline
210
0.0
220
0.0
230
1.0
 70
    11
 71
     3
 72
   124
 73
   120
 74
     0
 42
0.0000000001
 43
0.0000000001
 40
0.0
 40
0.0
 40
0.0
 40
0.0
 40
0.032258064516129
 40
0.032258064516129
 40
0.032258064516129
 40
0.032258064516129
 40
0.0645161290322581
 40
0.0645161290322581
 40
0.0645161290322581
 40
0.0645161290322581
 40
0.0967741935483871
 40
0.0967741935483871
 40
0.0967741935483871
 40
0.0967741935483871
 40
0.1290322580645161
 40
0.1290322580645161
 40
0.1290322580645161
 40
0.1290322580645161
 40
0.1612903225806452
 40
0.1612903225806452
 40
0.1612903225806452
 40
0.1612903225806452
 40
0.1935483870967742
 40
0.1935483870967742
 40
0.1935483870967742
 40
0.1935483870967742
 40
0.2258064516129032
 40
0.2258064516129032
 40
0.2258064516129032
 40
0.2258064516129032
 40
0.2580645161290323
 40
0.2580645161290323
 40
0.2580645161290323
 40
0.2580645161290323
 40
0.2903225806451613
 40
0.2903225806451613
 40
0.2903225806451613
 40
0.2903225806451613
 40
0.3225806451612903
 40
0.3225806451612903
 40
0.3225806451612903
 40
0.3225806451612903
 40
0.3548387096774194
 40
0.3548387096774194
 40
0.3548387096774194
 40
0.3548387096774194
 40
0.3870967741935484
 40
0.3870967741935484
 40
0.3870967741935484
 40
0.3870967741935484
 40
0.4193548387096774
 40
0.4193548387096774
 40
0.4193548387096774
 40
0.4193548387096774
 40
0.4516129032258064
 40
0.4516129032258064
 40
0.4516129032258064
 40
0.4516129032258064
 40
0.4838709677419355
 40
0.4838709677419355
 40
0.4838709677419355
 40
0.4838709677419355
 40
0.5161290322580645
 40
0.5161290322580645
 40
0.5161290322580645
 40
0.5161290322580645
 40
0.5483870967741935
 40
0.5483870967741935
 40
0.5483870967741935
 40
0.5483870967741935
 40
0.5806451612903226
 40
0.5806451612903226
 40
0.5806451612903226
 40
0.5806451612903226
 40
0.6129032258064516
 40
0.6129032258064516
 40
0.6129032258064516
 40
0.6129032258064516
 40
0.6451612903225806
 40
0.6451612903225806
 40
0.6451612903225806
 40
0.6451612903225806
 40
0.6774193548387096
 40
0.6774193548387096
 40
0.6774193548387096
 40
0.6774193548387096
 40
0.7096774193548387
 40
0.7096774193548387
 40
0.7096774193548387
 40
0.7096774193548387
 40
0.7419354838709677
 40
0.7419354838709677
 40
0.7419354838709677
 40
0.7419354838709677
 40
0.7741935483870968
 40
0.7741935483870968
 40
0.7741935483870968
 40
0.7741935483870968
 40
0.8064516129032258
 40
0.8064516129032258
 40
0.8064516129032258
 40
0.8064516129032258
 40
0.8387096774193549
 40
0.8387096774193549
 40
0.8387096774193549
 40
0.8387096774193549
 40
0.8709677419354839
 40
0.8709677419354839
 40
0.8709677419354839
 40
0.8709677419354839
 40
0.9032258064516129
 40
0.9032258064516129
 40
0.9032258064516129
 40
0.9032258064516129
 40
0.9354838709677419
 40
0.9354838709677419
 40
0.9354838709677419
 40
0.9354838709677419
 40
1.0
 40
1.0
 40
1.0
 40
1.0
 10
24.0808
 20
4.0129
 30
0.0
 10
24.0808
 20
4.0129
 30
0.0
 10
24.0409
 20
4.3129
 30
0.0
 10
24.0409
 20
4.3129
 30
0.0
 10
24.0409
 20
4.3129
 30
0.0
 10
24.2111
 20
4.3477
 30
0.0
 10
24.3335
 20
4.4063
 30
0.0
 10
24.4087
 20
4.4889
 30
0.0
 10
24.4087
 20
4.4889
 30
0.0
 10
24.4839
 20
4.572
 30
0.0
 10
24.5214
 20
4.6728
 30
0.0
 10
24.5214
 20
4.7917
 30
0.0
 10
24.5214
 20
4.7917
 30
0.0
 10
24.5214
 20
4.9329
 30
0.0
 10
24.4725
 20
5.0525
 30
0.0
 10
24.3745
 20
5.1499
 30
0.0
 10
24.3745
 20
5.1499
 30
0.0
 10
24.2766
 20
5.2467
 30
0.0
 10
24.1553
 20
5.2956
 30
0.0
 10
24.0107
 20
5.2956
 30
0.0
 10
24.0107
 20
5.2956
 30
0.0
 10
23.8729
 20
5.2956
 30
0.0
 10
23.7591
 20
5.2506
 30
0.0
 10
23.6697
 20
5.1607
 30
0.0
 10
23.6697
 20
5.1607
 30
0.0
 10
23.5803
 20
5.0702
 30
0.0
 10
23.5353
 20
4.9557
 30
0.0
 10
23.5353
 20
4.8168
 30
0.0
 10
23.5353
 20
4.8168
 30
0.0
 10
23.5353
 20
4.7599
 30
0.0
 10
23.5467
 20
4.6893
 30
0.0
 10
23.5689
 20
4.605
 30
0.0
 10
23.5689
 20
4.605
 30
0.0
 10
23.5689
 20
4.605
 30
0.0
 10
23.3053
 20
4.6386
 30
0.0
 10
23.3053
 20
4.6386
 30
0.0
 10
23.3053
 20
4.6386
 30
0.0
 10
23.3076
 20
4.6585
 30
0.0
 10
23.3087
 20
4.6745
 30
0.0
 10
23.3087
 20
4.687
 30
0.0
 10
23.3087
 20
4.687
 30
0.0
 10
23.3087
 20
4.8145
 30
0.0
 10
23.2751
 20
4.9295
 30
0.0
 10
23.2085
 20
5.032
 30
0.0
 10
23.2085
 20
5.032
 30
0.0
 10
23.1419
 20
5.1345
 30
0.0
 10
23.0388
 20
5.1857
 30
0.0
 10
22.8999
 20
5.1857
 30
0.0
 10
22.8999
 20
5.1857
 30
0.0
 10
22.79
 20
5.1857
 30
0.0
 10
22.6984
 20
5.1482
 30
0.0
 10
22.6266
 20
5.0736
 30
0.0
 10
22.6266
 20
5.0736
 30
0.0
 10
22.5543
 20
4.999
 30
0.0
 10
22.5179
 20
4.9028
 30
0.0
 10
22.5179
 20
4.7849
 30
0.0
 10
22.5179
 20
4.7849
 30
0.0
 10
22.5179
 20
4.6682
 30
0.0
 10
22.5549
 20
4.5708
 30
0.0
 10
22.6278
 20
4.4934
 30
0.0
 10
22.6278
 20
4.4934
 30
0.0
 10
22.7012
 20
4.4154
 30
0.0
 10
22.8117
 20
4.3653
 30
0.0
 10
22.9586
 20
4.3431
 30
0.0
 10
22.9586
 20
4.3431
 30
0.0
 10
22.9586
 20
4.3431
 30
0.0
 10
22.905
 20
4.0431
 30
0.0
 10
22.905
 20
4.0431
 30
0.0
 10
22.905
 20
4.0431
 30
0.0
 10
22.7035
 20
4.0795
 30
0.0
 10
22.5475
 20
4.1632
 30
0.0
 10
22.437
 20
4.293
 30
0.0
 10
22.437
 20
4.293
 30
0.0
 10
22.3266
 20
4.4234
 30
0.0
 10
22.2708
 20
4.5851
 30
0.0
 10
22.2708
 20
4.7787
 30
0.0
 10
22.2708
 20
4.7787
 30
0.0
 10
22.2708
 20
4.9119
 30
0.0
 10
22.2998
 20
5.0349
 30
0.0
 10
22.3568
 20
5.147
 30
0.0
 10
22.3568
 20
5.147
 30
0.0
 10
22.4143
 20
5.2592
 30
0.0
 10
22.4923
 20
5.3452
 30
0.0
 10
22.5913
 20
5.4049
 30
0.0
 10
22.5913
 20
5.4049
 30
0.0
 10
22.6904
 20
5.4641
 30
0.0
 10
22.7952
 20
5.4943
 30
0.0
 10
22.9068
 20
5.4943
 30
0.0
 10
22.9068
 20
5.4943
 30
0.0
 10
23.0121
 20
5.4943
 30
0.0
 10
23.1083
 20
5.4659
 30
0.0
 10
23.1954
 20
5.4089
 30
0.0
 10
23.1954
 20
5.4089
 30
0.0
 10
23.282
 20
5.352
 30
0.0
 10
23.3509
 20
5.2683
 30
0.0
 10
23.4021
 20
5.1573
 30
0.0
 10
23.4021
 20
5.1573
 30
0.0
 10
23.4351
 20
5.3019
 30
0.0
 10
23.5046
 20
5.414
 30
0.0
 10
23.6099
 20
5.4943
 30
0.0
 10
23.6099
 20
5.4943
 30
0.0
 10
23.7147
 20
5.574
 30
0.0
 10
23.8462
 20
5.6139
 30
0.0
 10
24.0039
 20
5.6139
 30
0.0
 10
24.0039
 20
5.6139
 30
0.0
 10
24.2174
 20
5.6139
 30
0.0
 10
24.3985
 20
5.5365
 30
0.0
 10
24.5471
 20
5.3805
 30
0.0
 10
24.5471
 20
5.3805
 30
0.0
 10
24.6957
 20
5.225
 30
0.0
 10
24.7697
 20
5.028
 30
0.0
 10
24.7697
 20
4.79
 30
0.0
 10
24.7697
 20
4.79
 30
0.0
 10
24.7697
 20
4.5754
 30
0.0
 10
24.7059
 20
4.3972
 30
0.0
 10
24.5778
 20
4.2554
 30
0.0
 10
24.5778
 20
4.2554
 30
0.0
 10
24.4503
 20
4.1137
 30
0.0
 10
24.2846
 20
4.0328
 30
0.0
 10
24.0808
 20
4.0129
 30
0.0
  0
SPLINE
  5
70
330
1F
100
AcDbEntity
  8
AXIS
 62
   250
100
AcDbSpline
210
0.0
220
0.0
230
1.0
 70
    11
 71
     3
 72
    40
 73
    36
 74
     0
 42
0.0000000001
 43
0.0000000001
 40
0.0
 40
0.0
 40
0.0
 40
0.0
 40
0.1
 40
0.1
 40
0.1
 40
0.1
 40
0.2
 40
0.2
 40
0.2
 40
0.2
 40
0.3
 40
0.3
 40
0.3
 40
0.3
 40
0.4
 40
0.4
 40
0.4
 40
0.4
 40
0.5
 40
0.5
 40
0.5
 40
0.5
 40
0.6
 40
0.6
 40
0.6
 40
0.6
 40
0.7
 40
0.7
 40
0.7
 40
0.7
 40
0.8
 40
0.8
 40
0.8
 40
0.8
 40
1.0
 40
1.0
 40
1.0
 40
1.0
 10
24.7264
 20
7.0418
 30
0.0
 10
24.7264
 20
7.0418
 30
0.0
 10
24.7264
 20
6.7417
 30
0.0
 10
24.7264
 20
6.7417
 30
0.0
 10
24.7264
 20
6.7417
 30
0.0
 10
24.7264
 20
6.7417
 30
0.0
 10
22.8134
 20
6.7417
 30
0.0
 10
22.8134
 20
6.7417
 30
0.0
 10
22.8134
 20
6.7417
 30
0.0
 10
22.8823
 20
6.6694
 30
0.0
 10
22.9512
 20
6.5749
 30
0.0
 10
23.0201
 20
6.4576
 30
0.0
 10
23.0201
 20
6.4576
 30
0.0
 10
23.0889
 20
6.3398
 30
0.0
 10
23.1408
 20
6.2345
 30
0.0
 10
23.1749
 20
6.1411
 30
0.0
 10
23.1749
 20
6.1411
 30
0.0
 10
23.1749
 20
6.1411
 30
0.0
 10
22.8851
 20
6.1411
 30
0.0
 10
22.8851
 20
6.1411
 30
0.0
 10
22.8851
 20
6.1411
 30
0.0
 10
22.806
 20
6.309
 30
0.0
 10
22.7103
 20
6.4559
 30
0.0
 10
22.5982
 20
6.5818
 30
0.0
 10
22.5982
 20
6.5818
 30
0.0
 10
22.4854
 20
6.707
 30
0.0
 10
22.3767
 20
6.7964
 30
0.0
 10
22.2708
 20
6.8488
 30
0.0
 10
22.2708
 20
6.8488
 30
0.0
 10
22.2708
 20
6.8488
 30
0.0
 10
22.2708
 20
7.0418
 30
0.0
 10
22.2708
 20
7.0418
 30
0.0
 10
22.2708
 20
7.0418
 30
0.0
 10
22.2708
 20
7.0418
 30
0.0
 10
24.7264
 20
7.0418
 30
0.0
 10
24.7264
 20
7.0418
 30
0.0
  0
SPLINE
  5
71
330
1F
100
AcDbEntity
  8
AXIS
 62
   250
100
AcDbSpline
210
0.0
220
0.0
230
1.0
 70
    11
 71
     3
 72
    80
 73
    76
 74
     0
 42
0.0000000001
 43
0.0000000001
 40
0.0
 40
0.0
 40
0.0
 40
0.0
 40
0.05
 40
0.05
 40
0.05
 40
0.05
 40
0.1
 40
0.1
 40
0.1
 40
0.1
 40
0.15
 40
0.15
 40
0.15
 40
0.15
 40
0.2
 40
0.2
 40
0.2
 40
0.2
 40
0.25
 40
0.25
 40
0.25
 40
0.25
 40
0.3
 40
0.3
 40
0.3
 40
0.3
 40
0.35
 40
0.35
 40
0.35
 40
0.35
 40
0.4
 40
0.4
 40
0.4
 40
0.4
 40
0.45
 40
0.45
 40
0.45
 40
0.45
 40
0.5
 40
0.5
 40
0.5
 40
0.5
 40
0.55
 40
0.55
 40
0.55
 40
0.55
 40
0.6
 40
0.6
 40
0.6
 40
0.6
 40
0.65
 40
0.65
 40
0.65
 40
0.65
 40
0.7
 40
0.7
 40
0.7
 40
0.7
 40
0.75
 40
0.75
 40
0.75
 40
0.75
 40
0.8
 40
0.8
 40
0.8
 40
0.8
 40
0.85
 40
0.85
 40
0.85
 40
0.85
 40
0.9
 40
0.9
 40
0.9
 40
0.9
 40
1.0
 40
1.0
 40
1.0
 40
1.0
 10
22.88
 20
9.3687
 30
0.0
 10
22.88
 20
9.3687
 30
0.0
 10
22.9033
 20
9.0704
 30
0.0
 10
22.9033
 20
9.0704
 30
0.0
 10
22.9033
 20
9.0704
 30
0.0
 10
22.7855
 20
9.0436
 30
0.0
 10
22.6995
 20
9.006
 30
0.0
 10
22.6466
 20
8.9571
 30
0.0
 10
22.6466
 20
8.9571
 30
0.0
 10
22.5606
 20
8.8757
 30
0.0
 10
22.5179
 20
8.7754
 30
0.0
 10
22.5179
 20
8.6565
 30
0.0
 10
22.5179
 20
8.6565
 30
0.0
 10
22.5179
 20
8.5608
 30
0.0
 10
22.5447
 20
8.4771
 30
0.0
 10
22.5982
 20
8.4048
 30
0.0
 10
22.5982
 20
8.4048
 30
0.0
 10
22.6671
 20
8.3103
 30
0.0
 10
22.7678
 20
8.2357
 30
0.0
 10
22.8999
 20
8.181
 30
0.0
 10
22.8999
 20
8.181
 30
0.0
 10
23.032
 20
8.127
 30
0.0
 10
23.2205
 20
8.0985
 30
0.0
 10
23.4653
 20
8.0962
 30
0.0
 10
23.4653
 20
8.0962
 30
0.0
 10
23.3554
 20
8.1685
 30
0.0
 10
23.2734
 20
8.2568
 30
0.0
 10
23.2199
 20
8.3615
 30
0.0
 10
23.2199
 20
8.3615
 30
0.0
 10
23.167
 20
8.4657
 30
0.0
 10
23.1402
 20
8.5756
 30
0.0
 10
23.1402
 20
8.69
 30
0.0
 10
23.1402
 20
8.69
 30
0.0
 10
23.1402
 20
8.8905
 30
0.0
 10
23.2136
 20
9.0607
 30
0.0
 10
23.3611
 20
9.2013
 30
0.0
 10
23.3611
 20
9.2013
 30
0.0
 10
23.5086
 20
9.342
 30
0.0
 10
23.6987
 20
9.4125
 30
0.0
 10
23.9322
 20
9.4125
 30
0.0
 10
23.9322
 20
9.4125
 30
0.0
 10
24.0859
 20
9.4125
 30
0.0
 10
24.2282
 20
9.379
 30
0.0
 10
24.3603
 20
9.3129
 30
0.0
 10
24.3603
 20
9.3129
 30
0.0
 10
24.4918
 20
9.2469
 30
0.0
 10
24.5932
 20
9.1558
 30
0.0
 10
24.6632
 20
9.0402
 30
0.0
 10
24.6632
 20
9.0402
 30
0.0
 10
24.7332
 20
8.9246
 30
0.0
 10
24.768
 20
8.7937
 30
0.0
 10
24.768
 20
8.6468
 30
0.0
 10
24.768
 20
8.6468
 30
0.0
 10
24.768
 20
8.3963
 30
0.0
 10
24.6763
 20
8.1924
 30
0.0
 10
24.4918
 20
8.0347
 30
0.0
 10
24.4918
 20
8.0347
 30
0.0
 10
24.3079
 20
7.8764
 30
0.0
 10
24.0045
 20
7.7979
 30
0.0
 10
23.582
 20
7.7979
 30
0.0
 10
23.582
 20
7.7979
 30
0.0
 10
23.1094
 20
7.7979
 30
0.0
 10
22.7661
 20
7.885
 30
0.0
 10
22.5515
 20
8.0598
 30
0.0
 10
22.5515
 20
8.0598
 30
0.0
 10
22.3647
 20
8.2118
 30
0.0
 10
22.2708
 20
8.4168
 30
0.0
 10
22.2708
 20
8.6752
 30
0.0
 10
22.2708
 20
8.6752
 30
0.0
 10
22.2708
 20
8.8671
 30
0.0
 10
22.3249
 20
9.0248
 30
0.0
 10
22.4331
 20
9.1478
 30
0.0
 10
22.4331
 20
9.1478
 30
0.0
 10
22.5407
 20
9.2708
 30
0.0
 10
22.6898
 20
9.3442
 30
0.0
 10
22.88
 20
9.3687
 30
0.0
  0
SPLINE
  5
72
330
1F
100
AcDbEntity
  8
AXIS
 62
   250
100
AcDbSpline
210
0.0
220
0.0
230
1.0
 70
    11
 71
     3
 72
    40
 73
    36
 74
     0
 42
0.0000000001
 43
0.0000000001
 40
0.0
 40
0.0
 40
0.0
 40
0.0
 40
0.1
 40
0.1
 40
0.1
 40
0.1
 40
0.2
 40
0.2
 40
0.2
 40
0.2
 40
0.3
 40
0.3
 40
0.3
 40
0.3
 40
0.4
 40
0.4
 40
0.4
 40
0.4
 40
0.5
 40
0.5
 40
0.5
 40
0.5
 40
0.6
 40
0.6
 40
0.6
 40
0.6
 40
0.7
 40
0.7
 40
0.7
 40
0.7
 40
0.8
 40
0.8
 40
0.8
 40
0.8
 40
1.0
 40
1.0
 40
1.0
 40
1.0
 10
23.9339
 20
8.1429
 30
0.0
 10
24.0375
 20
8.1429
 30
0.0
 10
24.1366
 20
8.1651
 30
0.0
 10
24.2311
 20
8.2089
 30
0.0
 10
24.2311
 20
8.2089
 30
0.0
 10
24.3256
 20
8.2528
 30
0.0
 10
24.3973
 20
8.3143
 30
0.0
 10
24.4468
 20
8.3928
 30
0.0
 10
24.4468
 20
8.3928
 30
0.0
 10
24.4964
 20
8.472
 30
0.0
 10
24.5214
 20
8.5551
 30
0.0
 10
24.5214
 20
8.6416
 30
0.0
 10
24.5214
 20
8.6416
 30
0.0
 10
24.5214
 20
8.7686
 30
0.0
 10
24.4702
 20
8.8774
 30
0.0
 10
24.3677
 20
8.9685
 30
0.0
 10
24.3677
 20
8.9685
 30
0.0
 10
24.2652
 20
9.0596
 30
0.0
 10
24.1263
 20
9.1051
 30
0.0
 10
23.9509
 20
9.1051
 30
0.0
 10
23.9509
 20
9.1051
 30
0.0
 10
23.7818
 20
9.1051
 30
0.0
 10
23.6486
 20
9.0601
 30
0.0
 10
23.5513
 20
8.9702
 30
0.0
 10
23.5513
 20
8.9702
 30
0.0
 10
23.4539
 20
8.8802
 30
0.0
 10
23.4055
 20
8.7669
 30
0.0
 10
23.4055
 20
8.6303
 30
0.0
 10
23.4055
 20
8.6303
 30
0.0
 10
23.4055
 20
8.4942
 30
0.0
 10
23.4539
 20
8.3792
 30
0.0
 10
23.5513
 20
8.2847
 30
0.0
 10
23.5513
 20
8.2847
 30
0.0
 10
23.6486
 20
8.1902
 30
0.0
 10
23.7762
 20
8.1429
 30
0.0
 10
23.9339
 20
8.1429
 30
0.0
  0
SPLINE
  5
73
330
1F
100
AcDbEntity
  8
AXIS
 62
   250
100
AcDbSpline
210
0.0
220
0.0
230
1.0
 70
    11
 71
     3
 72
    20
 73
    16
 74
     0
 42
0.0000000001
 43
0.0000000001
 40
0.0
 40
0.0
 40
0.0
 40
0.0
 40
0.2
 40
0.2
 40
0.2
 40
0.2
 40
0.4
 40
0.4
 40
0.4
 40
0.4
 40
0.6
 40
0.6
 40
0.6
 40
0.6
 40
1.0
 40
1.0
 40
1.0
 40
1.0
 10
26.0526
 20
-26.0474
 30
0.0
 10
26.0526
 20
-26.0474
 30
0.0
 10
25.6255
 20
-29.0735
 30
0.0
 10
25.6255
 20
-29.0735
 30
0.0
 10
25.6255
 20
-29.0735
 30
0.0
 10
25.6255
 20
-29.0735
 30
0.0
 10
25.5307
 20
-29.0735
 30
0.0
 10
25.5307
 20
-29.0735
 30
0.0
 10
25.5307
 20
-29.0735
 30
0.0
 10
25.5307
 20
-29.0735
 30
0.0
 10
25.0752
 20
-26.0474
 30
0.0
 10
25.0752
 20
-26.0474
 30
0.0
 10
25.0752
 20
-26.0474
 30
0.0
 10
25.0752
 20
-26.0474
 30
0.0
 10
26.0526
 20
-26.0474
 30
0.0
 10
26.0526
 20
-26.0474
 30
0.0
  0
SPLINE
  5
74
330
1F
100
AcDbEntity
  8
AXIS
 62
   250
100
AcDbSpline
210
0.0
220
0.0
230
1.0
 70
    24
 71
     3
 72
     8
 73
     4
 74
     0
 42
0.0000000001
 43
0.0000000001
 40
0.0
 40
0.0
 40
0.0
 40
0.0
 40
1.0
 40
1.0
 40
1.0
 40
1.0
 10
-48.2337
 20
-36.0018
 30
0.0
 10
-48.2337
 20
-36.0018
 30
0.0
 10
-48.2337
 20
-30.0861
 30
0.0
 10
-48.2337
 20
-30.0861
 30
0.0
  0
SPLINE
  5
75
330
1F
100
AcDbEntity
  8
AXIS
 62
   250
100
AcDbSpline
210
0.0
220
0.0
230
1.0
 70
    24
 71
     3
 72
     8
 73
     4
 74
     0
 42
0.0000000001
 43
0.0000000001
 40
0.0
 40
0.0
 40
0.0
 40
0.0
 40
1.0
 40
1.0
 40
1.0
 40
1.0
 10
41.072
 20
-36.2372
 30
0.0
 10
41.072
 20
-36.2372
 30
0.0
 10
41.072
 20
-27.2771
 30
0.0
 10
41.072
 20
-27.2771
 30
0.0
  0
SPLINE
  5
76
330
1F
100
AcDbEntity
  8
AXIS
 62
   250
100
AcDbSpline
210
0.0
220
0.0
230
1.0
 70
    24
 71
     3
 72
     8
 73
     4
 74
     0
 42
0.0000000001
 43
0.0000000001
 40
0.0
 40
0.0
 40
0.0
 40
0.0
 40
1.0
 40
1.0
 40
1.0
 40
1.0
 10
31.3918
 20
-35.0334
 30
0.0
 10
31.3918
 20
-35.0334
 30
0.0
 10
45.9956
 20
-35.0334
 30
0.0
 10
45.9956
 20
-35.0334
 30
0.0
  0
SPLINE
  5
77
330
1F
100
AcDbEntity
  8
AXIS
 62
   250
100
AcDbSpline
210
0.0
220
0.0
230
1.0
 70
    11
 71
     3
 72
    20
 73
    16
 74
     0
 42
0.0000000001
 43
0.0000000001
 40
0.0
 40
0.0
 40
0.0
 40
0.0
 40
0.2
 40
0.2
 40
0.2
 40
0.2
 40
0.4
 40
0.4
 40
0.4
 40
0.4
 40
0.6
 40
0.6
 40
0.6
 40
0.6
 40
1.0
 40
1.0
 40
1.0
 40
1.0
 10
32.5421
 20
-34.5231
 30
0.0
 10
32.5421
 20
-34.5231
 30
0.0
 10
35.5682
 20
-34.9502
 30
0.0
 10
35.5682
 20
-34.9502
 30
0.0
 10
35.5682
 20
-34.9502
 30
0.0
 10
35.5682
 20
-34.9502
 30
0.0
 10
35.5682
 20
-35.0451
 30
0.0
 10
35.5682
 20
-35.0451
 30
0.0
 10
35.5682
 20
-35.0451
 30
0.0
 10
35.5682
 20
-35.0451
 30
0.0
 10
32.5421
 20
-35.5005
 30
0.0
 10
32.5421
 20
-35.5005
 30
0.0
 10
32.5421
 20
-35.5005
 30
0.0
 10
32.5421
 20
-35.5005
 30
0.0
 10
32.5421
 20
-34.5231
 30
0.0
 10
32.5421
 20
-34.5231
 30
0.0
  0
SPLINE
  5
78
330
1F
100
AcDbEntity
  8
AXIS
 62
   250
100
AcDbSpline
210
0.0
220
0.0
230
1.0
 70
    11
 71
     3
 72
    20
 73
    16
 74
     0
 42
0.0000000001
 43
0.0000000001
 40
0.0
 40
0.0
 40
0.0
 40
0.0
 40
0.2
 40
0.2
 40
0.2
 40
0.2
 40
0.4
 40
0.4
 40
0.4
 40
0.4
 40
0.6
 40
0.6
 40
0.6
 40
0.6
 40
1.0
 40
1.0
 40
1.0
 40
1.0
 10
44.2424
 20
-35.5431
 30
0.0
 10
44.2424
 20
-35.5431
 30
0.0
 10
41.2163
 20
-35.116
 30
0.0
 10
41.2163
 20
-35.116
 30
0.0
 10
41.2163
 20
-35.116
 30
0.0
 10
41.2163
 20
-35.116
 30
0.0
 10
41.2163
 20
-35.0212
 30
0.0
 10
41.2163
 20
-35.0212
 30
0.0
 10
41.2163
 20
-35.0212
 30
0.0
 10
41.2163
 20
-35.0212
 30
0.0
 10
44.2424
 20
-34.5657
 30
0.0
 10
44.2424
 20
-34.5657
 30
0.0
 10
44.2424
 20
-34.5657
 30
0.0
 10
44.2424
 20
-34.5657
 30
0.0
 10
44.2424
 20
-35.5431
 30
0.0
 10
44.2424
 20
-35.5431
 30
0.0
  0
SPLINE
  5
79
330
1F
100
AcDbEntity
  8
AXIS
 62
   250
100
AcDbSpline
210
0.0
220
0.0
230
1.0
 70
    11
 71
     3
 72
   124
 73
   120
 74
     0
 42
0.0000000001
 43
0.0000000001
 40
0.0
 40
0.0
 40
0.0
 40
0.0
 40
0.032258064516129
 40
0.032258064516129
 40
0.032258064516129
 40
0.032258064516129
 40
0.0645161290322581
 40
0.0645161290322581
 40
0.0645161290322581
 40
0.0645161290322581
 40
0.0967741935483871
 40
0.0967741935483871
 40
0.0967741935483871
 40
0.0967741935483871
 40
0.1290322580645161
 40
0.1290322580645161
 40
0.1290322580645161
 40
0.1290322580645161
 40
0.1612903225806452
 40
0.1612903225806452
 40
0.1612903225806452
 40
0.1612903225806452
 40
0.1935483870967742
 40
0.1935483870967742
 40
0.1935483870967742
 40
0.1935483870967742
 40
0.2258064516129032
 40
0.2258064516129032
 40
0.2258064516129032
 40
0.2258064516129032
 40
0.2580645161290323
 40
0.2580645161290323
 40
0.2580645161290323
 40
0.2580645161290323
 40
0.2903225806451613
 40
0.2903225806451613
 40
0.2903225806451613
 40
0.2903225806451613
 40
0.3225806451612903
 40
0.3225806451612903
 40
0.3225806451612903
 40
0.3225806451612903
 40
0.3548387096774194
 40
0.3548387096774194
 40
0.3548387096774194
 40
0.3548387096774194
 40
0.3870967741935484
 40
0.3870967741935484
 40
0.3870967741935484
 40
0.3870967741935484
 40
0.4193548387096774
 40
0.4193548387096774
 40
0.4193548387096774
 40
0.4193548387096774
 40
0.4516129032258064
 40
0.4516129032258064
 40
0.4516129032258064
 40
0.4516129032258064
 40
0.4838709677419355
 40
0.4838709677419355
 40
0.4838709677419355
 40
0.4838709677419355
 40
0.5161290322580645
 40
0.5161290322580645
 40
0.5161290322580645
 40
0.5161290322580645
 40
0.5483870967741935
 40
0.5483870967741935
 40
0.5483870967741935
 40
0.5483870967741935
 40
0.5806451612903226
 40
0.5806451612903226
 40
0.5806451612903226
 40
0.5806451612903226
 40
0.6129032258064516
 40
0.6129032258064516
 40
0.6129032258064516
 40
0.6129032258064516
 40
0.6451612903225806
 40
0.6451612903225806
 40
0.6451612903225806
 40
0.6451612903225806
 40
0.6774193548387096
 40
0.6774193548387096
 40
0.6774193548387096
 40
0.6774193548387096
 40
0.7096774193548387
 40
0.7096774193548387
 40
0.7096774193548387
 40
0.7096774193548387
 40
0.7419354838709677
 40
0.7419354838709677
 40
0.7419354838709677
 40
0.7419354838709677
 40
0.7741935483870968
 40
0.7741935483870968
 40
0.7741935483870968
 40
0.7741935483870968
 40
0.8064516129032258
 40
0.8064516129032258
 40
0.8064516129032258
 40
0.8064516129032258
 40
0.8387096774193549
 40
0.8387096774193549
 40
0.8387096774193549
 40
0.8387096774193549
 40
0.8709677419354839
 40
0.8709677419354839
 40
0.8709677419354839
 40
0.8709677419354839
 40
0.9032258064516129
 40
0.9032258064516129
 40
0.9032258064516129
 40
0.9032258064516129
 40
0.9354838709677419
 40
0.9354838709677419
 40
0.9354838709677419
 40
0.9354838709677419
 40
1.0
 40
1.0
 40
1.0
 40
1.0
 10
36.6588
 20
-33.7886
 30
0.0
 10
36.6588
 20
-33.7886
 30
0.0
 10
36.9588
 20
-33.7487
 30
0.0
 10
36.9588
 20
-33.7487
 30
0.0
 10
36.9588
 20
-33.7487
 30
0.0
 10
36.9936
 20
-33.9189
 30
0.0
 10
37.0522
 20
-34.0413
 30
0.0
 10
37.1348
 20
-34.1165
 30
0.0
 10
37.1348
 20
-34.1165
 30
0.0
 10
37.2179
 20
-34.1917
 30
0.0
 10
37.3187
 20
-34.2292
 30
0.0
 10
37.4376
 20
-34.2292
 30
0.0
 10
37.4376
 20
-34.2292
 30
0.0
 10
37.5788
 20
-34.2292
 30
0.0
 10
37.6984
 20
-34.1803
 30
0.0
 10
37.7958
 20
-34.0823
 30
0.0
 10
37.7958
 20
-34.0823
 30
0.0
 10
37.8926
 20
-33.9844
 30
0.0
 10
37.9415
 20
-33.8631
 30
0.0
 10
37.9415
 20
-33.7185
 30
0.0
 10
37.9415
 20
-33.7185
 30
0.0
 10
37.9415
 20
-33.5807
 30
0.0
 10
37.8965
 20
-33.4669
 30
0.0
 10
37.8066
 20
-33.3775
 30
0.0
 10
37.8066
 20
-33.3775
 30
0.0
 10
37.7161
 20
-33.2881
 30
0.0
 10
37.6016
 20
-33.2431
 30
0.0
 10
37.4627
 20
-33.2431
 30
0.0
 10
37.4627
 20
-33.2431
 30
0.0
 10
37.4058
 20
-33.2431
 30
0.0
 10
37.3352
 20
-33.2545
 30
0.0
 10
37.2509
 20
-33.2767
 30
0.0
 10
37.2509
 20
-33.2767
 30
0.0
 10
37.2509
 20
-33.2767
 30
0.0
 10
37.2845
 20
-33.0131
 30
0.0
 10
37.2845
 20
-33.0131
 30
0.0
 10
37.2845
 20
-33.0131
 30
0.0
 10
37.3044
 20
-33.0154
 30
0.0
 10
37.3204
 20
-33.0165
 30
0.0
 10
37.3329
 20
-33.0165
 30
0.0
 10
37.3329
 20
-33.0165
 30
0.0
 10
37.4604
 20
-33.0165
 30
0.0
 10
37.5754
 20
-32.9829
 30
0.0
 10
37.6779
 20
-32.9163
 30
0.0
 10
37.6779
 20
-32.9163
 30
0.0
 10
37.7804
 20
-32.8497
 30
0.0
 10
37.8316
 20
-32.7466
 30
0.0
 10
37.8316
 20
-32.6077
 30
0.0
 10
37.8316
 20
-32.6077
 30
0.0
 10
37.8316
 20
-32.4978
 30
0.0
 10
37.7941
 20
-32.4062
 30
0.0
 10
37.7195
 20
-32.3344
 30
0.0
 10
37.7195
 20
-32.3344
 30
0.0
 10
37.6449
 20
-32.2621
 30
0.0
 10
37.5487
 20
-32.2257
 30
0.0
 10
37.4308
 20
-32.2257
 30
0.0
 10
37.4308
 20
-32.2257
 30
0.0
 10
37.3141
 20
-32.2257
 30
0.0
 10
37.2167
 20
-32.2627
 30
0.0
 10
37.1393
 20
-32.3356
 30
0.0
 10
37.1393
 20
-32.3356
 30
0.0
 10
37.0613
 20
-32.409
 30
0.0
 10
37.0112
 20
-32.5195
 30
0.0
 10
36.989
 20
-32.6664
 30
0.0
 10
36.989
 20
-32.6664
 30
0.0
 10
36.989
 20
-32.6664
 30
0.0
 10
36.689
 20
-32.6128
 30
0.0
 10
36.689
 20
-32.6128
 30
0.0
 10
36.689
 20
-32.6128
 30
0.0
 10
36.7254
 20
-32.4113
 30
0.0
 10
36.8091
 20
-32.2553
 30
0.0
 10
36.9389
 20
-32.1448
 30
0.0
 10
36.9389
 20
-32.1448
 30
0.0
 10
37.0693
 20
-32.0344
 30
0.0
 10
37.231
 20
-31.9786
 30
0.0
 10
37.4246
 20
-31.9786
 30
0.0
 10
37.4246
 20
-31.9786
 30
0.0
 10
37.5578
 20
-31.9786
 30
0.0
 10
37.6808
 20
-32.0076
 30
0.0
 10
37.7929
 20
-32.0646
 30
0.0
 10
37.7929
 20
-32.0646
 30
0.0
 10
37.9051
 20
-32.1221
 30
0.0
 10
37.9911
 20
-32.2001
 30
0.0
 10
38.0508
 20
-32.2991
 30
0.0
 10
38.0508
 20
-32.2991
 30
0.0
 10
38.11
 20
-32.3982
 30
0.0
 10
38.1402
 20
-32.503
 30
0.0
 10
38.1402
 20
-32.6146
 30
0.0
 10
38.1402
 20
-32.6146
 30
0.0
 10
38.1402
 20
-32.7199
 30
0.0
 10
38.1118
 20
-32.8161
 30
0.0
 10
38.0548
 20
-32.9032
 30
0.0
 10
38.0548
 20
-32.9032
 30
0.0
 10
37.9979
 20
-32.9898
 30
0.0
 10
37.9142
 20
-33.0587
 30
0.0
 10
37.8032
 20
-33.1099
 30
0.0
 10
37.8032
 20
-33.1099
 30
0.0
 10
37.9478
 20
-33.1429
 30
0.0
 10
38.0599
 20
-33.2124
 30
0.0
 10
38.1402
 20
-33.3177
 30
0.0
 10
38.1402
 20
-33.3177
 30
0.0
 10
38.2199
 20
-33.4225
 30
0.0
 10
38.2598
 20
-33.554
 30
0.0
 10
38.2598
 20
-33.7117
 30
0.0
 10
38.2598
 20
-33.7117
 30
0.0
 10
38.2598
 20
-33.9252
 30
0.0
 10
38.1824
 20
-34.1063
 30
0.0
 10
38.0264
 20
-34.2549
 30
0.0
 10
38.0264
 20
-34.2549
 30
0.0
 10
37.8709
 20
-34.4035
 30
0.0
 10
37.6739
 20
-34.4775
 30
0.0
 10
37.4359
 20
-34.4775
 30
0.0
 10
37.4359
 20
-34.4775
 30
0.0
 10
37.2213
 20
-34.4775
 30
0.0
 10
37.0431
 20
-34.4137
 30
0.0
 10
36.9013
 20
-34.2856
 30
0.0
 10
36.9013
 20
-34.2856
 30
0.0
 10
36.7596
 20
-34.1581
 30
0.0
 10
36.6787
 20
-33.9924
 30
0.0
 10
36.6588
 20
-33.7886
 30
0.0
  0
SPLINE
  5
7A
330
1F
100
AcDbEntity
  8
AXIS
 62
   250
100
AcDbSpline
210
0.0
220
0.0
230
1.0
 70
    11
 71
     3
 72
    52
 73
    48
 74
     0
 42
0.0000000001
 43
0.0000000001
 40
0.0
 40
0.0
 40
0.0
 40
0.0
 40
0.0769230769230769
 40
0.0769230769230769
 40
0.0769230769230769
 40
0.0769230769230769
 40
0.1538461538461539
 40
0.1538461538461539
 40
0.1538461538461539
 40
0.1538461538461539
 40
0.2307692307692308
 40
0.2307692307692308
 40
0.2307692307692308
 40
0.2307692307692308
 40
0.3076923076923077
 40
0.3076923076923077
 40
0.3076923076923077
 40
0.3076923076923077
 40
0.3846153846153846
 40
0.3846153846153846
 40
0.3846153846153846
 40
0.3846153846153846
 40
0.4615384615384616
 40
0.4615384615384616
 40
0.4615384615384616
 40
0.4615384615384616
 40
0.5384615384615384
 40
0.5384615384615384
 40
0.5384615384615384
 40
0.5384615384615384
 40
0.6153846153846154
 40
0.6153846153846154
 40
0.6153846153846154
 40
0.6153846153846154
 40
0.6923076923076923
 40
0.6923076923076923
 40
0.6923076923076923
 40
0.6923076923076923
 40
0.7692307692307693
 40
0.7692307692307693
 40
0.7692307692307693
 40
0.7692307692307693
 40
0.8461538461538461
 40
0.8461538461538461
 40
0.8461538461538461
 40
0.8461538461538461
 40
1.0
 40
1.0
 40
1.0
 40
1.0
 10
38.557
 20
-33.2283
 30
0.0
 10
38.557
 20
-32.9391
 30
0.0
 10
38.5866
 20
-32.7062
 30
0.0
 10
38.6464
 20
-32.5303
 30
0.0
 10
38.6464
 20
-32.5303
 30
0.0
 10
38.7056
 20
-32.3538
 30
0.0
 10
38.7944
 20
-32.2177
 30
0.0
 10
38.9117
 20
-32.1221
 30
0.0
 10
38.9117
 20
-32.1221
 30
0.0
 10
39.029
 20
-32.0264
 30
0.0
 10
39.1764
 20
-31.9786
 30
0.0
 10
39.3541
 20
-31.9786
 30
0.0
 10
39.3541
 20
-31.9786
 30
0.0
 10
39.4856
 20
-31.9786
 30
0.0
 10
39.6006
 20
-32.0054
 30
0.0
 10
39.6997
 20
-32.0583
 30
0.0
 10
39.6997
 20
-32.0583
 30
0.0
 10
39.7987
 20
-32.1107
 30
0.0
 10
39.8801
 20
-32.187
 30
0.0
 10
39.945
 20
-32.2866
 30
0.0
 10
39.945
 20
-32.2866
 30
0.0
 10
40.0094
 20
-32.3862
 30
0.0
 10
40.0601
 20
-32.5075
 30
0.0
 10
40.0965
 20
-32.6504
 30
0.0
 10
40.0965
 20
-32.6504
 30
0.0
 10
40.1335
 20
-32.7933
 30
0.0
 10
40.1517
 20
-32.9858
 30
0.0
 10
40.1517
 20
-33.2283
 30
0.0
 10
40.1517
 20
-33.2283
 30
0.0
 10
40.1517
 20
-33.5153
 30
0.0
 10
40.1221
 20
-33.7464
 30
0.0
 10
40.0635
 20
-33.9229
 30
0.0
 10
40.0635
 20
-33.9229
 30
0.0
 10
40.0043
 20
-34.0994
 30
0.0
 10
39.916
 20
-34.2355
 30
0.0
 10
39.7987
 20
-34.3317
 30
0.0
 10
39.7987
 20
-34.3317
 30
0.0
 10
39.6814
 20
-34.4279
 30
0.0
 10
39.5334
 20
-34.4758
 30
0.0
 10
39.3541
 20
-34.4758
 30
0.0
 10
39.3541
 20
-34.4758
 30
0.0
 10
39.1183
 20
-34.4758
 30
0.0
 10
38.9333
 20
-34.3915
 30
0.0
 10
38.7989
 20
-34.2224
 30
0.0
 10
38.7989
 20
-34.2224
 30
0.0
 10
38.6378
 20
-34.0191
 30
0.0
 10
38.557
 20
-33.6872
 30
0.0
 10
38.557
 20
-33.2283
 30
0.0
  0
SPLINE
  5
7B
330
1F
100
AcDbEntity
  8
AXIS
 62
   250
100
AcDbSpline
210
0.0
220
0.0
230
1.0
 70
    11
 71
     3
 72
    36
 73
    32
 74
     0
 42
0.0000000001
 43
0.0000000001
 40
0.0
 40
0.0
 40
0.0
 40
0.0
 40
0.1111111111111111
 40
0.1111111111111111
 40
0.1111111111111111
 40
0.1111111111111111
 40
0.2222222222222222
 40
0.2222222222222222
 40
0.2222222222222222
 40
0.2222222222222222
 40
0.3333333333333333
 40
0.3333333333333333
 40
0.3333333333333333
 40
0.3333333333333333
 40
0.4444444444444444
 40
0.4444444444444444
 40
0.4444444444444444
 40
0.4444444444444444
 40
0.5555555555555556
 40
0.5555555555555556
 40
0.5555555555555556
 40
0.5555555555555556
 40
0.6666666666666666
 40
0.6666666666666666
 40
0.6666666666666666
 40
0.6666666666666666
 40
0.7777777777777778
 40
0.7777777777777778
 40
0.7777777777777778
 40
0.7777777777777778
 40
1.0
 40
1.0
 40
1.0
 40
1.0
 10
38.8656
 20
-33.2283
 30
0.0
 10
38.8656
 20
-33.6297
 30
0.0
 10
38.9128
 20
-33.8967
 30
0.0
 10
39.0068
 20
-34.03
 30
0.0
 10
39.0068
 20
-34.03
 30
0.0
 10
39.1007
 20
-34.1626
 30
0.0
 10
39.2163
 20
-34.2292
 30
0.0
 10
39.3541
 20
-34.2292
 30
0.0
 10
39.3541
 20
-34.2292
 30
0.0
 10
39.4924
 20
-34.2292
 30
0.0
 10
39.608
 20
-34.1621
 30
0.0
 10
39.7019
 20
-34.0288
 30
0.0
 10
39.7019
 20
-34.0288
 30
0.0
 10
39.7959
 20
-33.8956
 30
0.0
 10
39.8431
 20
-33.6286
 30
0.0
 10
39.8431
 20
-33.2283
 30
0.0
 10
39.8431
 20
-33.2283
 30
0.0
 10
39.8431
 20
-32.8258
 30
0.0
 10
39.7959
 20
-32.5582
 30
0.0
 10
39.7019
 20
-32.4261
 30
0.0
 10
39.7019
 20
-32.4261
 30
0.0
 10
39.608
 20
-32.2934
 30
0.0
 10
39.4913
 20
-32.2274
 30
0.0
 10
39.3512
 20
-32.2274
 30
0.0
 10
39.3512
 20
-32.2274
 30
0.0
 10
39.2129
 20
-32.2274
 30
0.0
 10
39.103
 20
-32.286
 30
0.0
 10
39.0204
 20
-32.4028
 30
0.0
 10
39.0204
 20
-32.4028
 30
0.0
 10
38.9174
 20
-32.5514
 30
0.0
 10
38.8656
 20
-32.8269
 30
0.0
 10
38.8656
 20
-33.2283
 30
0.0
  0
SPLINE
  5
7C
330
1F
100
AcDbEntity
  8
AXIS
 62
   250
100
AcDbSpline
210
0.0
220
0.0
230
1.0
 70
    24
 71
     3
 72
     8
 73
     4
 74
     0
 42
0.0000000001
 43
0.0000000001
 40
0.0
 40
0.0
 40
0.0
 40
0.0
 40
1.0
 40
1.0
 40
1.0
 40
1.0
 10
35.6452
 20
-36.1733
 30
0.0
 10
35.6452
 20
-36.1733
 30
0.0
 10
35.6452
 20
-30.2005
 30
0.0
 10
35.6452
 20
-30.2005
 30
0.0
  0
SPLINE
  5
7D
330
1F
100
AcDbEntity
  8
AXIS
 62
   250
100
AcDbSpline
210
0.0
220
0.0
230
1.0
 70
    24
 71
     3
 72
     8
 73
     4
 74
     0
 42
0.0000000001
 43
0.0000000001
 40
0.0
 40
0.0
 40
0.0
 40
0.0
 40
1.0
 40
1.0
 40
1.0
 40
1.0
 10
36.6336
 20
-28.9602
 30
0.0
 10
36.6336
 20
-28.9602
 30
0.0
 10
35.6383
 20
-28.9602
 30
0.0
 10
35.6383
 20
-28.9602
 30
0.0
  0
SPLINE
  5
7E
330
1F
100
AcDbEntity
  8
AXIS
 62
   250
100
AcDbSpline
210
0.0
220
0.0
230
1.0
 70
    24
 71
     3
 72
     8
 73
     4
 74
     0
 42
0.0000000001
 43
0.0000000001
 40
0.0
 40
0.0
 40
0.0
 40
0.0
 40
1.0
 40
1.0
 40
1.0
 40
1.0
 10
36.6472
 20
35.4266
 30
0.0
 10
36.6472
 20
35.4266
 30
0.0
 10
36.6472
 20
-28.5281
 30
0.0
 10
36.6472
 20
-28.5281
 30
0.0
  0
SPLINE
  5
7F
330
1F
100
AcDbEntity
  8
AXIS
 62
   250
100
AcDbSpline
210
0.0
220
0.0
230
1.0
 70
    24
 71
     3
 72
     8
 73
     4
 74
     0
 42
0.0000000001
 43
0.0000000001
 40
0.0
 40
0.0
 40
0.0
 40
0.0
 40
1.0
 40
1.0
 40
1.0
 40
1.0
 10
35.6247
 20
-28.5281
 30
0.0
 10
35.6247
 20
-28.5281
 30
0.0
 10
35.6247
 20
35.4266
 30
0.0
 10
35.6247
 20
35.4266
 30
0.0
  0
SPLINE
  5
80
330
1F
100
AcDbEntity
  8
AXIS
 62
   250
100
AcDbSpline
210
0.0
220
0.0
230
1.0
 70
    24
 71
     3
 72
     8
 73
     4
 74
     0
 42
0.0000000001
 43
0.0000000001
 40
0.0
 40
0.0
 40
0.0
 40
0.0
 40
1.0
 40
1.0
 40
1.0
 40
1.0
 10
35.6383
 20
35.8587
 30
0.0
 10
35.6383
 20
35.8587
 30
0.0
 10
36.6336
 20
35.8587
 30
0.0
 10
36.6336
 20
35.8587
 30
0.0
  0
SPLINE
  5
81
330
1F
100
AcDbEntity
  8
AXIS
 62
   250
100
AcDbSpline
210
0.0
220
0.0
230
1.0
 70
     8
 71
     3
 72
     8
 73
     4
 74
     0
 42
0.0000000001
 43
0.0000000001
 40
0.0
 40
0.0
 40
0.0
 40
0.0
 40
1.0
 40
1.0
 40
1.0
 40
1.0
 10
36.6336
 20
35.8587
 30
0.0
 10
36.6411
 20
35.8587
 30
0.0
 10
36.6472
 20
35.6652
 30
0.0
 10
36.6472
 20
35.4266
 30
0.0
  0
SPLINE
  5
82
330
1F
100
AcDbEntity
  8
AXIS
 62
   250
100
AcDbSpline
210
0.0
220
0.0
230
1.0
 70
     8
 71
     3
 72
     8
 73
     4
 74
     0
 42
0.0000000001
 43
0.0000000001
 40
0.0
 40
0.0
 40
0.0
 40
0.0
 40
1.0
 40
1.0
 40
1.0
 40
1.0
 10
35.6247
 20
35.4266
 30
0.0
 10
35.6247
 20
35.6652
 30
0.0
 10
35.6308
 20
35.8587
 30
0.0
 10
35.6383
 20
35.8587
 30
0.0
  0
SPLINE
  5
83
330
1F
100
AcDbEntity
  8
AXIS
 62
   250
100
AcDbSpline
210
0.0
220
0.0
230
1.0
 70
     8
 71
     3
 72
     8
 73
     4
 74
     0
 42
0.0000000001
 43
0.0000000001
 40
0.0
 40
0.0
 40
0.0
 40
0.0
 40
1.0
 40
1.0
 40
1.0
 40
1.0
 10
35.6383
 20
-28.9602
 30
0.0
 10
35.6308
 20
-28.9602
 30
0.0
 10
35.6247
 20
-28.7668
 30
0.0
 10
35.6247
 20
-28.5281
 30
0.0
  0
SPLINE
  5
84
330
1F
100
AcDbEntity
  8
AXIS
 62
   250
100
AcDbSpline
210
0.0
220
0.0
230
1.0
 70
     8
 71
     3
 72
     8
 73
     4
 74
     0
 42
0.0000000001
 43
0.0000000001
 40
0.0
 40
0.0
 40
0.0
 40
0.0
 40
1.0
 40
1.0
 40
1.0
 40
1.0
 10
36.6472
 20
-28.5281
 30
0.0
 10
36.6472
 20
-28.7668
 30
0.0
 10
36.6411
 20
-28.9602
 30
0.0
 10
36.6336
 20
-28.9602
 30
0.0
  0
SPLINE
  5
85
330
1F
100
AcDbEntity
  8
AXIS
 62
   250
100
AcDbSpline
210
0.0
220
0.0
230
1.0
 70
    24
 71
     3
 72
     8
 73
     4
 74
     0
 42
0.0000000001
 43
0.0000000001
 40
0.0
 40
0.0
 40
0.0
 40
0.0
 40
1.0
 40
1.0
 40
1.0
 40
1.0
 10
40.771
 20
-26.4169
 30
0.0
 10
40.771
 20
-26.4169
 30
0.0
 10
36.7284
 20
-26.4169
 30
0.0
 10
36.7284
 20
-26.4169
 30
0.0
  0
SPLINE
  5
86
330
1F
100
AcDbEntity
  8
AXIS
 62
   250
100
AcDbSpline
210
0.0
220
0.0
230
1.0
 70
    24
 71
     3
 72
     8
 73
     4
 74
     0
 42
0.0000000001
 43
0.0000000001
 40
0.0
 40
0.0
 40
0.0
 40
0.0
 40
1.0
 40
1.0
 40
1.0
 40
1.0
 10
40.9
 20
33.6471
 30
0.0
 10
40.9
 20
33.6471
 30
0.0
 10
40.9
 20
-26.5094
 30
0.0
 10
40.9
 20
-26.5094
 30
0.0
  0
SPLINE
  5
87
330
1F
100
AcDbEntity
  8
AXIS
 62
   250
100
AcDbSpline
210
0.0
220
0.0
230
1.0
 70
    24
 71
     3
 72
     8
 73
     4
 74
     0
 42
0.0000000001
 43
0.0000000001
 40
0.0
 40
0.0
 40
0.0
 40
0.0
 40
1.0
 40
1.0
 40
1.0
 40
1.0
 10
40.9805
 20
33.5835
 30
0.0
 10
40.9805
 20
33.5835
 30
0.0
 10
36.538
 20
33.5835
 30
0.0
 10
36.538
 20
33.5835
 30
0.0
  0
SPLINE
  5
88
330
1F
100
AcDbEntity
  8
AXIS
 62
   250
100
AcDbSpline
210
0.0
220
0.0
230
1.0
 70
    11
 71
     3
 72
    20
 73
    16
 74
     0
 42
0.0000000001
 43
0.0000000001
 40
0.0
 40
0.0
 40
0.0
 40
0.0
 40
0.2
 40
0.2
 40
0.2
 40
0.2
 40
0.4
 40
0.4
 40
0.4
 40
0.4
 40
0.6
 40
0.6
 40
0.6
 40
0.6
 40
1.0
 40
1.0
 40
1.0
 40
1.0
 10
46.8404
 20
30.4704
 30
0.0
 10
46.8404
 20
30.4704
 30
0.0
 10
47.2675
 20
33.4965
 30
0.0
 10
47.2675
 20
33.4965
 30
0.0
 10
47.2675
 20
33.4965
 30
0.0
 10
47.2675
 20
33.4965
 30
0.0
 10
47.3624
 20
33.4965
 30
0.0
 10
47.3624
 20
33.4965
 30
0.0
 10
47.3624
 20
33.4965
 30
0.0
 10
47.3624
 20
33.4965
 30
0.0
 10
47.8178
 20
30.4704
 30
0.0
 10
47.8178
 20
30.4704
 30
0.0
 10
47.8178
 20
30.4704
 30
0.0
 10
47.8178
 20
30.4704
 30
0.0
 10
46.8404
 20
30.4704
 30
0.0
 10
46.8404
 20
30.4704
 30
0.0
  0
SPLINE
  5
89
330
1F
100
AcDbEntity
  8
AXIS
 62
   250
100
AcDbSpline
210
0.0
220
0.0
230
1.0
 70
    11
 71
     3
 72
    20
 73
    16
 74
     0
 42
0.0000000001
 43
0.0000000001
 40
0.0
 40
0.0
 40
0.0
 40
0.0
 40
0.2
 40
0.2
 40
0.2
 40
0.2
 40
0.4
 40
0.4
 40
0.4
 40
0.4
 40
0.6
 40
0.6
 40
0.6
 40
0.6
 40
1.0
 40
1.0
 40
1.0
 40
1.0
 10
25.0939
 20
33.1015
 30
0.0
 10
25.0939
 20
33.1015
 30
0.0
 10
25.521
 20
36.1277
 30
0.0
 10
25.521
 20
36.1277
 30
0.0
 10
25.521
 20
36.1277
 30
0.0
 10
25.521
 20
36.1277
 30
0.0
 10
25.6158
 20
36.1277
 30
0.0
 10
25.6158
 20
36.1277
 30
0.0
 10
25.6158
 20
36.1277
 30
0.0
 10
25.6158
 20
36.1277
 30
0.0
 10
26.0713
 20
33.1015
 30
0.0
 10
26.0713
 20
33.1015
 30
0.0
 10
26.0713
 20
33.1015
 30
0.0
 10
26.0713
 20
33.1015
 30
0.0
 10
25.0939
 20
33.1015
 30
0.0
 10
25.0939
 20
33.1015
 30
0.0
  0
SPLINE
  5
8A
330
1F
100
AcDbEntity
  8
AXIS
 62
   250
100
AcDbSpline
210
0.0
220
0.0
230
1.0
 70
    24
 71
     3
 72
     8
 73
     4
 74
     0
 42
0.0000000001
 43
0.0000000001
 40
0.0
 40
0.0
 40
0.0
 40
0.0
 40
1.0
 40
1.0
 40
1.0
 40
1.0
 10
-45.0328
 20
-25.6919
 30
0.0
 10
-45.0328
 20
-25.6919
 30
0.0
 10
-45.0328
 20
4.1786
 30
0.0
 10
-45.0328
 20
4.1786
 30
0.0
  0
SPLINE
  5
8B
330
1F
100
AcDbEntity
  8
AXIS
 62
   250
100
AcDbSpline
210
0.0
220
0.0
230
1.0
 70
    24
 71
     3
 72
     8
 73
     4
 74
     0
 42
0.0000000001
 43
0.0000000001
 40
0.0
 40
0.0
 40
0.0
 40
0.0
 40
1.0
 40
1.0
 40
1.0
 40
1.0
 10
-45.0328
 20
3.9001
 30
0.0
 10
-45.0328
 20
3.9001
 30
0.0
 10
-45.0328
 20
32.5528
 30
0.0
 10
-45.0328
 20
32.5528
 30
0.0
  0
SPLINE
  5
8C
330
1F
100
AcDbEntity
  8
AXIS
 62
   250
100
AcDbSpline
210
0.0
220
0.0
230
1.0
 70
    24
 71
     3
 72
     8
 73
     4
 74
     0
 42
0.0000000001
 43
0.0000000001
 40
0.0
 40
0.0
 40
0.0
 40
0.0
 40
1.0
 40
1.0
 40
1.0
 40
1.0
 10
12.8705
 20
-25.6919
 30
0.0
 10
12.8705
 20
-25.6919
 30
0.0
 10
-16.6326
 20
-25.6919
 30
0.0
 10
-16.6326
 20
-25.6919
 30
0.0
  0
SPLINE
  5
8D
330
1F
100
AcDbEntity
  8
AXIS
 62
   250
100
AcDbSpline
210
0.0
220
0.0
230
1.0
 70
    24
 71
     3
 72
     8
 73
     4
 74
     0
 42
0.0000000001
 43
0.0000000001
 40
0.0
 40
0.0
 40
0.0
 40
0.0
 40
1.0
 40
1.0
 40
1.0
 40
1.0
 10
-16.5481
 20
-25.6919
 30
0.0
 10
-16.5481
 20
-25.6919
 30
0.0
 10
-45.0328
 20
-25.6919
 30
0.0
 10
-45.0328
 20
-25.6919
 30
0.0
  0
SPLINE
  5
8E
330
1F
100
AcDbEntity
  8
AXIS
 62
   250
100
AcDbSpline
210
0.0
220
0.0
230
1.0
 70
    24
 71
     3
 72
     8
 73
     4
 74
     0
 42
0.0000000001
 43
0.0000000001
 40
0.0
 40
0.0
 40
0.0
 40
0.0
 40
1.0
 40
1.0
 40
1.0
 40
1.0
 10
12.8705
 20
32.5528
 30
0.0
 10
12.8705
 20
32.5528
 30
0.0
 10
12.8705
 20
3.9001
 30
0.0
 10
12.8705
 20
3.9001
 30
0.0
  0
SPLINE
  5
8F
330
1F
100
AcDbEntity
  8
AXIS
 62
   250
100
AcDbSpline
210
0.0
220
0.0
230
1.0
 70
    24
 71
     3
 72
     8
 73
     4
 74
     0
 42
0.0000000001
 43
0.0000000001
 40
0.0
 40
0.0
 40
0.0
 40
0.0
 40
1.0
 40
1.0
 40
1.0
 40
1.0
 10
12.8705
 20
4.0874
 30
0.0
 10
12.8705
 20
4.0874
 30
0.0
 10
12.8705
 20
-25.6919
 30
0.0
 10
12.8705
 20
-25.6919
 30
0.0
  0
SPLINE
  5
90
330
1F
100
AcDbEntity
  8
AXIS
 62
   250
100
AcDbSpline
210
0.0
220
0.0
230
1.0
 70
    24
 71
     3
 72
     8
 73
     4
 74
     0
 42
0.0000000001
 43
0.0000000001
 40
0.0
 40
0.0
 40
0.0
 40
0.0
 40
1.0
 40
1.0
 40
1.0
 40
1.0
 10
-45.0328
 20
32.5528
 30
0.0
 10
-45.0328
 20
32.5528
 30
0.0
 10
-15.4985
 20
32.5528
 30
0.0
 10
-15.4985
 20
32.5528
 30
0.0
  0
SPLINE
  5
91
330
1F
100
AcDbEntity
  8
AXIS
 62
   250
100
AcDbSpline
210
0.0
220
0.0
230
1.0
 70
    24
 71
     3
 72
     8
 73
     4
 74
     0
 42
0.0000000001
 43
0.0000000001
 40
0.0
 40
0.0
 40
0.0
 40
0.0
 40
1.0
 40
1.0
 40
1.0
 40
1.0
 10
-15.6141
 20
32.5528
 30
0.0
 10
-15.6141
 20
32.5528
 30
0.0
 10
12.8705
 20
32.5528
 30
0.0
 10
12.8705
 20
32.5528
 30
0.0
  0
ENDSEC
  0
SECTION
  2
OBJECTS
  0
DICTIONARY
  5
C
330
0
100
AcDbDictionary
  3
ACAD_GROUP
350
D
  3
ACAD_LAYOUT
350
1A
  3
ACAD_MATERIAL
350
3B
  3
ACAD_MLEADERSTYLE
350
B4
  3
ACAD_MLINESTYLE
350
17
  3
ACAD_PLOTSETTINGS
350
19
  3
ACAD_VISUALSTYLE
350
2A
  3
ACDBHEADERROUNDTRIPXREC
350
92
  3
ACDBVARIABLEDICTIONARY
350
B2
  0
DICTIONARY
  5
D
102
{ACAD_REACTORS
330
C
102
}
330
C
100
AcDbDictionary
  0
DICTIONARY
  5
1A
102
{ACAD_REACTORS
330
C
102
}
330
C
100
AcDbDictionary
  0
DICTIONARY
  5
3B
102
{ACAD_REACTORS
330
C
102
}
330
C
100
AcDbDictionary
  3
BYBLOCK
350
3D
  3
BYLAYER
350
3C
  3
GLOBAL
350
3E
  0
DICTIONARY
  5
B4
102
{ACAD_REACTORS
330
C
102
}
330
C
100
AcDbDictionary
  0
DICTIONARY
  5
17
102
{ACAD_REACTORS
330
C
102
}
330
C
100
AcDbDictionary
  3
STANDARD
350
18
  0
DICTIONARY
  5
19
102
{ACAD_REACTORS
330
C
102
}
330
C
100
AcDbDictionary
  0
DICTIONARY
  5
2A
102
{ACAD_REACTORS
330
C
102
}
330
C
100
AcDbDictionary
  3
2DWIREFRAME
350
2F
  3
3D_HIDDEN
350
31
  3
3DWIREFRAME
350
30
  3
BASIC
350
32
  3
BRIGHTEN
350
36
  3
COLORCHANGE
350
3A
  3
CONCEPTUAL
350
34
  3
DIM
350
35
  3
FACEPATTERN
350
39
  3
FLAT
350
2B
  3
FLATWITHEDGES
350
2C
  3
GOURAUD
350
2D
  3
GOURAUDWITHEDGES
350
2E
  3
LINEPATTERN
350
38
  3
REALISTIC
350
33
  3
THICKEN
350
37
  0
DICTIONARY
  5
92
102
{ACAD_REACTORS
330
C
102
}
330
C
100
AcDbDictionary
  3
CEPSNTYPE
350
9B
  3
DIMSTYLEDATA
350
B1
  3
FINGERPRINTGUID
350
9C
  3
HYPERLINKBASE
350
95
  3
INSUNITS
350
9A
  3
LAYOUTDICT
350
97
  3
LWETCUNION
350
99
  3
PLOTSETDICT
350
98
  3
PSVPSCALE
350
9E
  3
PUCSBASE
350
A1
  3
PUCSORGBACK
350
A7
  3
PUCSORGBOTTOM
350
A3
  3
PUCSORGFRONT
350
A6
  3
PUCSORGLEFT
350
A4
  3
PUCSORGRIGHT
350
A5
  3
PUCSORGTOP
350
A2
  3
PUCSORTHOREF
350
9F
  3
PUCSORTHOVIEW
350
A0
  3
STYLESHEET
350
96
  3
TSTACKALIGN
350
93
  3
TSTACKSIZE
350
94
  3
UCSBASE
350
AA
  3
UCSORGBACK
350
B0
  3
UCSORGBOTTOM
350
AC
  3
UCSORGFRONT
350
AF
  3
UCSORGLEFT
350
AD
  3
UCSORGRIGHT
350
AE
  3
UCSORGTOP
350
AB
  3
UCSORTHOREF
350
A8
  3
UCSORTHOVIEW
350
A9
  3
VERSIONGUID
350
9D
  0
DICTIONARY
  5
B2
102
{ACAD_REACTORS
330
C
102
}
330
C
100
AcDbDictionary
  3
DIMASSOC
350
B5
  3
HIDETEXT
350
B6
  0
MATERIAL
  5
3D
102
{ACAD_REACTORS
330
3B
102
}
102
{ACAD_XDICTIONARY
360
B9
102
}
330
3B
100
AcDbMaterial
  1
ByBlock
  0
MATERIAL
  5
3C
102
{ACAD_REACTORS
330
3B
102
}
102
{ACAD_XDICTIONARY
360
B7
102
}
330
3B
100
AcDbMaterial
  1
ByLayer
  0
MATERIAL
  5
3E
102
{ACAD_REACTORS
330
3B
102
}
102
{ACAD_XDICTIONARY
360
BB
102
}
330
3B
100
AcDbMaterial
  1
Global
  0
MLINESTYLE
  5
18
102
{ACAD_REACTORS
330
17
102
}
330
17
100
AcDbMlineStyle
  2
Standard
 70
     0
  3

 62
   256
 51
90.0
 52
90.0
 71
     2
 49
0.5
 62
   256
  6
BYLAYER
 49
-0.5
 62
   256
  6
BYLAYER
  0
ACAD_PROXY_OBJECT
  5
2F
102
{ACAD_REACTORS
330
2A
102
}
330
2A
100
AcDbProxyObject
 90
      499
 91
      501
 93
      436
310
42CC9915DA5C99599C985B595049028333333333333E3BF0000000000000FB0107901411070040501600405405064090741402480A0340
1001
ACAD
1000
AcDbSavedByObjectVersion
1070
     0
  0
ACAD_PROXY_OBJECT
  5
31
102
{ACAD_REACTORS
330
2A
102
}
330
2A
100
AcDbProxyObject
 90
      499
 91
      501
 93
      500
310
424CD108121A5919195B90640502408333333333333E3BF0000000000000FB01079024090700405020000000000001110200405405064090740C02480A0340
1001
ACAD
1000
AcDbSavedByObjectVersion
1070
     0
  0
ACAD_PROXY_OBJECT
  5
30
102
{ACAD_REACTORS
330
2A
102
}
330
2A
100
AcDbProxyObject
 90
      499
 91
      501
 93
      436
310
42CCD915DA5C99599C985B595059028333333333333E3BF0000000000000FB0107901411070040501600405405064090741402480A0340
1001
ACAD
1000
AcDbSavedByObjectVersion
1070
     0
  0
ACAD_PROXY_OBJECT
  5
32
102
{ACAD_REACTORS
330
2A
102
}
330
2A
100
AcDbProxyObject
 90
      499
 91
      501
 93
      388
310
4150985CDA58D07406404333333333333E3BF0000000000000FB0107A41107004050150841D405064090741402480A0350
1001
ACAD
1000
AcDbSavedByObjectVersion
1070
     0
  0
ACAD_PROXY_OBJECT
  5
36
102
{ACAD_REACTORS
330
2A
102
}
330
2A
100
AcDbProxyObject
 90
      499
 91
      501
 93
      428
310
42109C9A59DA1D195B90C409028333333333333E3BF0000000000000FB010790141107004050150841D405064090741402480A029950
1001
ACAD
1000
AcDbSavedByObjectVersion
1070
     0
  0
ACAD_PROXY_OBJECT
  5
3A
102
{ACAD_REACTORS
330
2A
102
}
330
2A
100
AcDbProxyObject
 90
      499
 91
      501
 93
      452
310
42D0DBDB1BDC90DA185B99D95104090240C333333333333E3BF0000000000000FB0108901411070040501508421405064090741402480A0350
1001
ACAD
1000
AcDbSavedByObjectVersion
1070
     0
  0
ACAD_PROXY_OBJECT
  5
34
102
{ACAD_REACTORS
330
2A
102
}
330
2A
100
AcDbProxyObject
 90
      499
 91
      501
 93
      500
310
4290DBDB98D95C1D1D585B10940D028333333333333E3BF0000000000000FB0107902409070040501000000000000111010841D405064090740C02480A0340
1001
ACAD
1000
AcDbSavedByObjectVersion
1070
     0
  0
ACAD_PROXY_OBJECT
  5
35
102
{ACAD_REACTORS
330
2A
102
}
330
2A
100
AcDbProxyObject
 90
      499
 91
      501
 93
      412
310
40D11A5B50B409028333333333333E3BF0000000000000FB010790141107004050150841D405064090741402480A02677FFFFFD0
1001
ACAD
1000
AcDbSavedByObjectVersion
1070
     0
  0
ACAD_PROXY_OBJECT
  5
39
102
{ACAD_REACTORS
330
2A
102
}
330
2A
100
AcDbProxyObject
 90
      499
 91
      501
 93
      444
310
42D19858D95C185D1D195C9B90F409028333333333333E3BF0000000000000FB010790141107004050150841D405064090741402480A0350
1001
ACAD
1000
AcDbSavedByObjectVersion
1070
     0
  0
ACAD_PROXY_OBJECT
  5
2B
102
{ACAD_REACTORS
330
2A
102
}
330
2A
100
AcDbProxyObject
 90
      499
 91
      501
 93
      388
310
41119B185D240901404333333333333E3BF0000000000000F9010740A41107004050150841D405064090741402480A1B50
1001
ACAD
1000
AcDbSavedByObjectVersion
1070
     0
  0
ACAD_PROXY_OBJECT
  5
2C
102
{ACAD_REACTORS
330
2A
102
}
330
2A
100
AcDbProxyObject
 90
      499
 91
      501
 93
      476
310
43519B185D15DA5D1A115919D95CD0140901404333333333333E3BF0000000000000F9010740901411070040501600405405064090741402480A1B50
1001
ACAD
1000
AcDbSavedByObjectVersion
1070
     0
  0
ACAD_PROXY_OBJECT
  5
2D
102
{ACAD_REACTORS
330
2A
102
}
330
2A
100
AcDbProxyObject
 90
      499
 91
      501
 93
      412
310
41D1DBDD5C985D5910240902404333333333333E3BF0000000000000F9010740A411070040501641D405064090741402480A1B50
1001
ACAD
1000
AcDbSavedByObjectVersion
1070
     0
  0
ACAD_PROXY_OBJECT
  5
2E
102
{ACAD_REACTORS
330
2A
102
}
330
2A
100
AcDbProxyObject
 90
      499
 91
      501
 93
      500
310
4411DBDD5C985D5915DA5D1A115919D95CD0340902404333333333333E3BF0000000000000F9010740901411070040501600405405064090741402480A1B50
1001
ACAD
1000
AcDbSavedByObjectVersion
1070
     0
  0
ACAD_PROXY_OBJECT
  5
38
102
{ACAD_REACTORS
330
2A
102
}
330
2A
100
AcDbProxyObject
 90
      499
 91
      501
 93
      444
310
42D31A5B995C185D1D195C9B90E409028333333333333E3BF0000000000000FB010790141107004050750841D405064090741402483A0350
1001
ACAD
1000
AcDbSavedByObjectVersion
1070
     0
  0
ACAD_PROXY_OBJECT
  5
33
102
{ACAD_REACTORS
330
2A
102
}
330
2A
100
AcDbProxyObject
 90
      499
 91
      501
 93
      420
310
425499585B1A5CDD1A58D08409028333333333333E3BF0000000000000FB01079019070040501508421405064090741402480A1B40
1001
ACAD
1000
AcDbSavedByObjectVersion
1070
     0
  0
ACAD_PROXY_OBJECT
  5
37
102
{ACAD_REACTORS
330
2A
102
}
330
2A
100
AcDbProxyObject
 90
      499
 91
      501
 93
      412
310
41D51A1A58DAD95B90D409028333333333333E3BF0000000000000FB010790141107004050150C41D405064090741402480A0350
1001
ACAD
1000
AcDbSavedByObjectVersion
1070
     0
  0
XRECORD
  5
9B
102
{ACAD_REACTORS
330
92
102
}
330
92
100
AcDbXrecord
 90
        0
  0
XRECORD
  5
B1
102
{ACAD_REACTORS
330
92
102
}
330
92
100
AcDbXrecord
1000
DSTYLE
1002
{
1070
   340
340
11
1002
}
  0
XRECORD
  5
9C
102
{ACAD_REACTORS
330
92
102
}
330
92
100
AcDbXrecord
  1
{F75E99D8-2328-48B4-9DBC-58FAE862A52C}
  0
XRECORD
  5
95
102
{ACAD_REACTORS
330
92
102
}
330
92
100
AcDbXrecord
  1

  0
XRECORD
  5
9A
102
{ACAD_REACTORS
330
92
102
}
330
92
100
AcDbXrecord
 90
        4
  0
XRECORD
  5
97
102
{ACAD_REACTORS
330
92
102
}
330
92
100
AcDbXrecord
340
1A
  0
XRECORD
  5
99
102
{ACAD_REACTORS
330
92
102
}
330
92
100
AcDbXrecord
 90
    10781
  0
XRECORD
  5
98
102
{ACAD_REACTORS
330
92
102
}
330
92
100
AcDbXrecord
340
19
  0
XRECORD
  5
9E
102
{ACAD_REACTORS
330
92
102
}
330
92
100
AcDbXrecord
 40
0.0
  0
XRECORD
  5
A1
102
{ACAD_REACTORS
330
92
102
}
330
92
100
AcDbXrecord
340
0
  0
XRECORD
  5
A7
102
{ACAD_REACTORS
330
92
102
}
330
92
100
AcDbXrecord
 10
0.0
 20
0.0
 30
0.0
  0
XRECORD
  5
A3
102
{ACAD_REACTORS
330
92
102
}
330
92
100
AcDbXrecord
 10
0.0
 20
0.0
 30
0.0
  0
XRECORD
  5
A6
102
{ACAD_REACTORS
330
92
102
}
330
92
100
AcDbXrecord
 10
0.0
 20
0.0
 30
0.0
  0
XRECORD
  5
A4
102
{ACAD_REACTORS
330
92
102
}
330
92
100
AcDbXrecord
 10
0.0
 20
0.0
 30
0.0
  0
XRECORD
  5
A5
102
{ACAD_REACTORS
330
92
102
}
330
92
100
AcDbXrecord
 10
0.0
 20
0.0
 30
0.0
  0
XRECORD
  5
A2
102
{ACAD_REACTORS
330
92
102
}
330
92
100
AcDbXrecord
 10
0.0
 20
0.0
 30
0.0
  0
XRECORD
  5
9F
102
{ACAD_REACTORS
330
92
102
}
330
92
100
AcDbXrecord
340
0
  0
XRECORD
  5
A0
102
{ACAD_REACTORS
330
92
102
}
330
92
100
AcDbXrecord
 70
     0
  0
XRECORD
  5
96
102
{ACAD_REACTORS
330
92
102
}
330
92
100
AcDbXrecord
  1

  0
XRECORD
  5
93
102
{ACAD_REACTORS
330
92
102
}
330
92
100
AcDbXrecord
 90
        1
  0
XRECORD
  5
94
102
{ACAD_REACTORS
330
92
102
}
330
92
100
AcDbXrecord
 90
       70
  0
XRECORD
  5
AA
102
{ACAD_REACTORS
330
92
102
}
330
92
100
AcDbXrecord
340
0
  0
XRECORD
  5
B0
102
{ACAD_REACTORS
330
92
102
}
330
92
100
AcDbXrecord
 10
0.0
 20
0.0
 30
0.0
  0
XRECORD
  5
AC
102
{ACAD_REACTORS
330
92
102
}
330
92
100
AcDbXrecord
 10
0.0
 20
0.0
 30
0.0
  0
XRECORD
  5
AF
102
{ACAD_REACTORS
330
92
102
}
330
92
100
AcDbXrecord
 10
0.0
 20
0.0
 30
0.0
  0
XRECORD
  5
AD
102
{ACAD_REACTORS
330
92
102
}
330
92
100
AcDbXrecord
 10
0.0
 20
0.0
 30
0.0
  0
XRECORD
  5
AE
102
{ACAD_REACTORS
330
92
102
}
330
92
100
AcDbXrecord
 10
0.0
 20
0.0
 30
0.0
  0
XRECORD
  5
AB
102
{ACAD_REACTORS
330
92
102
}
330
92
100
AcDbXrecord
 10
0.0
 20
0.0
 30
0.0
  0
XRECORD
  5
A8
102
{ACAD_REACTORS
330
92
102
}
330
92
100
AcDbXrecord
340
0
  0
XRECORD
  5
A9
102
{ACAD_REACTORS
330
92
102
}
330
92
100
AcDbXrecord
 70
     0
  0
XRECORD
  5
9D
102
{ACAD_REACTORS
330
92
102
}
330
92
100
AcDbXrecord
  1
{FAEB1C32-E019-11D5-929B-00C0DF256EC4}
  0
DICTIONARYVAR
  5
B5
102
{ACAD_REACTORS
330
B2
102
}
330
B2
100
DictionaryVariables
280
     0
  1
2
  0
DICTIONARYVAR
  5
B6
102
{ACAD_REACTORS
330
B2
102
}
330
B2
100
DictionaryVariables
280
     0
  1
1
  0
DICTIONARY
  5
B9
330
3D
100
AcDbDictionary
280
     1
  3
ACAD_XREC_ROUNDTRIP
360
BA
  0
DICTIONARY
  5
B7
330
3C
100
AcDbDictionary
280
     1
  3
ACAD_XREC_ROUNDTRIP
360
B8
  0
DICTIONARY
  5
BB
330
3E
100
AcDbDictionary
280
     1
  3
ACAD_XREC_ROUNDTRIP
360
BC
  0
XRECORD
  5
BA
102
{ACAD_REACTORS
330
B9
102
}
330
B9
100
AcDbXrecord
102
MATERIAL
148
0.0
149
0.0
149
0.0
 93
        0
 94
      127
282
     0
 72
     1
 77
     1
171
     1
175
     1
179
     1
273
     0
  0
XRECORD
  5
B8
102
{ACAD_REACTORS
330
B7
102
}
330
B7
100
AcDbXrecord
102
MATERIAL
148
0.0
149
0.0
149
0.0
 93
        0
 94
      127
282
     0
 72
     1
 77
     1
171
     1
175
     1
179
     1
273
     0
  0
XRECORD
  5
BC
102
{ACAD_REACTORS
330
BB
102
}
330
BB
100
AcDbXrecord
102
MATERIAL
148
0.0
149
0.0
149
0.0
 93
        0
 94
      127
282
     0
 72
     1
 77
     1
171
     1
175
     1
179
     1
273
     0
  0
ENDSEC
  0
EOF
