  0
SECTION
  2
HEADER
  9
$ACADVER
  1
AC1014
  9
$ACADMAINTVER
 70
     9
  9
$DWGCODEPAGE
  3
ANSI_1250
  9
$INSBASE
 10
0.0
 20
0.0
 30
0.0
  9
$EXTMIN
 10
-29.6537
 20
-18.4462
 30
0.0
  9
$EXTMAX
 10
30.26
 20
18.3647
 30
0.0
  9
$LIMMIN
 10
0.0
 20
0.0
  9
$LIMMAX
 10
12.0
 20
9.0
  9
$ORTHOMODE
 70
     0
  9
$REGENMODE
 70
     1
  9
$FILLMODE
 70
     1
  9
$QTEXTMODE
 70
     0
  9
$MIRRTEXT
 70
     1
  9
$DRAGMODE
 70
     2
  9
$LTSCALE
 40
1.0
  9
$OSMODE
 70
    37
  9
$ATTMODE
 70
     1
  9
$TEXTSIZE
 40
0.2
  9
$TRACEWID
 40
0.05
  9
$TEXTSTYLE
  7
STANDARD
  9
$CLAYER
  8
0
  9
$CELTYPE
  6
BYLAYER
  9
$CECOLOR
 62
   256
  9
$CELTSCALE
 40
1.0
  9
$DELOBJ
 70
     1
  9
$DISPSILH
 70
     0
  9
$DIMSCALE
 40
1.0
  9
$DIMASZ
 40
0.18
  9
$DIMEXO
 40
0.0625
  9
$DIMDLI
 40
0.38
  9
$DIMRND
 40
0.0
  9
$DIMDLE
 40
0.0
  9
$DIMEXE
 40
0.18
  9
$DIMTP
 40
0.0
  9
$DIMTM
 40
0.0
  9
$DIMTXT
 40
0.18
  9
$DIMCEN
 40
0.09
  9
$DIMTSZ
 40
0.0
  9
$DIMTOL
 70
     0
  9
$DIMLIM
 70
     0
  9
$DIMTIH
 70
     1
  9
$DIMTOH
 70
     1
  9
$DIMSE1
 70
     0
  9
$DIMSE2
 70
     0
  9
$DIMTAD
 70
     0
  9
$DIMZIN
 70
     0
  9
$DIMBLK
  1

  9
$DIMASO
 70
     1
  9
$DIMSHO
 70
     1
  9
$DIMPOST
  1

  9
$DIMAPOST
  1

  9
$DIMALT
 70
     0
  9
$DIMALTD
 70
     2
  9
$DIMALTF
 40
25.4
  9
$DIMLFAC
 40
1.0
  9
$DIMTOFL
 70
     0
  9
$DIMTVP
 40
0.0
  9
$DIMTIX
 70
     0
  9
$DIMSOXD
 70
     0
  9
$DIMSAH
 70
     0
  9
$DIMBLK1
  1

  9
$DIMBLK2
  1

  9
$DIMSTYLE
  2
STANDARD
  9
$DIMCLRD
 70
     0
  9
$DIMCLRE
 70
     0
  9
$DIMCLRT
 70
     0
  9
$DIMTFAC
 40
1.0
  9
$DIMGAP
 40
0.09
  9
$DIMJUST
 70
     0
  9
$DIMSD1
 70
     0
  9
$DIMSD2
 70
     0
  9
$DIMTOLJ
 70
     1
  9
$DIMTZIN
 70
     0
  9
$DIMALTZ
 70
     0
  9
$DIMALTTZ
 70
     0
  9
$DIMFIT
 70
     3
  9
$DIMUPT
 70
     0
  9
$DIMUNIT
 70
     2
  9
$DIMDEC
 70
     4
  9
$DIMTDEC
 70
     4
  9
$DIMALTU
 70
     2
  9
$DIMALTTD
 70
     2
  9
$DIMTXSTY
  7
STANDARD
  9
$DIMAUNIT
 70
     0
  9
$LUNITS
 70
     2
  9
$LUPREC
 70
     4
  9
$SKETCHINC
 40
0.1
  9
$FILLETRAD
 40
0.5
  9
$AUNITS
 70
     0
  9
$AUPREC
 70
     0
  9
$MENU
  1
.
  9
$ELEVATION
 40
0.0
  9
$PELEVATION
 40
0.0
  9
$THICKNESS
 40
0.0
  9
$LIMCHECK
 70
     0
  9
$CHAMFERA
 40
0.5
  9
$CHAMFERB
 40
0.5
  9
$CHAMFERC
 40
1.0
  9
$CHAMFERD
 40
0.0
  9
$SKPOLY
 70
     0
  9
$TDCREATE
 40
2456220.56722669
  9
$TDUPDATE
 40
2456220.567226701
  9
$TDINDWG
 40
0.0000000116
  9
$TDUSRTIMER
 40
0.0000000116
  9
$USRTIMER
 70
     1
  9
$ANGBASE
 50
0.0
  9
$ANGDIR
 70
     0
  9
$PDMODE
 70
     0
  9
$PDSIZE
 40
0.0
  9
$PLINEWID
 40
0.0
  9
$COORDS
 70
     1
  9
$SPLFRAME
 70
     0
  9
$SPLINETYPE
 70
     6
  9
$SPLINESEGS
 70
     8
  9
$ATTDIA
 70
     0
  9
$ATTREQ
 70
     1
  9
$HANDLING
 70
     1
  9
$HANDSEED
  5
A9
  9
$SURFTAB1
 70
     6
  9
$SURFTAB2
 70
     6
  9
$SURFTYPE
 70
     6
  9
$SURFU
 70
     6
  9
$SURFV
 70
     6
  9
$UCSNAME
  2

  9
$UCSORG
 10
0.0
 20
0.0
 30
0.0
  9
$UCSXDIR
 10
1.0
 20
0.0
 30
0.0
  9
$UCSYDIR
 10
0.0
 20
1.0
 30
0.0
  9
$PUCSNAME
  2

  9
$PUCSORG
 10
0.0
 20
0.0
 30
0.0
  9
$PUCSXDIR
 10
1.0
 20
0.0
 30
0.0
  9
$PUCSYDIR
 10
0.0
 20
1.0
 30
0.0
  9
$USERI1
 70
     0
  9
$USERI2
 70
     0
  9
$USERI3
 70
     0
  9
$USERI4
 70
     0
  9
$USERI5
 70
     0
  9
$USERR1
 40
0.0
  9
$USERR2
 40
0.0
  9
$USERR3
 40
0.0
  9
$USERR4
 40
0.0
  9
$USERR5
 40
0.0
  9
$WORLDVIEW
 70
     1
  9
$SHADEDGE
 70
     3
  9
$SHADEDIF
 70
    70
  9
$TILEMODE
 70
     1
  9
$MAXACTVP
 70
    64
  9
$PINSBASE
 10
0.0
 20
0.0
 30
0.0
  9
$PLIMCHECK
 70
     0
  9
$PEXTMIN
 10
1.000000000000000E+20
 20
1.000000000000000E+20
 30
1.000000000000000E+20
  9
$PEXTMAX
 10
-1.000000000000000E+20
 20
-1.000000000000000E+20
 30
-1.000000000000000E+20
  9
$PLIMMIN
 10
0.0
 20
0.0
  9
$PLIMMAX
 10
12.0
 20
9.0
  9
$UNITMODE
 70
     0
  9
$VISRETAIN
 70
     1
  9
$PLINEGEN
 70
     0
  9
$PSLTSCALE
 70
     1
  9
$TREEDEPTH
 70
  3020
  9
$PICKSTYLE
 70
     1
  9
$CMLSTYLE
  2
STANDARD
  9
$CMLJUST
 70
     0
  9
$CMLSCALE
 40
1.0
  9
$PROXYGRAPHICS
 70
     1
  9
$MEASUREMENT
 70
     0
  0
ENDSEC
  0
SECTION
  2
CLASSES
  0
CLASS
  1
ACDBDICTIONARYWDFLT
  2
AcDbDictionaryWithDefault
  3
ObjectDBX Classes
 90
        0
280
     0
281
     0
  0
CLASS
  1
VISUALSTYLE
  2
AcDbVisualStyle
  3
ObjectDBX Classes
 90
     4095
280
     0
281
     0
  0
CLASS
  1
MATERIAL
  2
AcDbMaterial
  3
ObjectDBX Classes
 90
     1153
280
     0
281
     0
  0
CLASS
  1
DICTIONARYVAR
  2
AcDbDictionaryVar
  3
ObjectDBX Classes
 90
        0
280
     0
281
     0
  0
CLASS
  1
XRECORD
  2
AcDbXrecord
  3
AutoCAD 2000
 90
        0
280
     0
281
     0
  0
CLASS
  1
LWPOLYLINE
  2
AcDbPolyline
  3
AutoCAD 2000
 90
        0
280
     0
281
     1
  0
CLASS
  1
HATCH
  2
AcDbHatch
  3
AutoCAD 2000
 90
        0
280
     0
281
     1
  0
CLASS
  1
ACDBPLACEHOLDER
  2
AcDbPlaceHolder
  3
ObjectDBX Classes
 90
        0
280
     0
281
     0
  0
CLASS
  1
LAYOUT
  2
AcDbLayout
  3
ObjectDBX Classes
 90
        0
280
     0
281
     0
  0
ENDSEC
  0
SECTION
  2
TABLES
  0
TABLE
  2
VPORT
  5
8
330
0
100
AcDbSymbolTable
 70
     1
  0
VPORT
  5
29
330
8
100
AcDbSymbolTableRecord
100
AcDbViewportTableRecord
  2
*ACTIVE
 70
     0
 10
0.0
 20
0.0
 11
1.0
 21
1.0
 12
10.42990654205607
 22
4.5
 13
0.0
 23
0.0
 14
0.5
 24
0.5
 15
0.5
 25
0.5
 16
0.0
 26
0.0
 36
1.0
 17
0.0
 27
0.0
 37
0.0
 40
9.0
 41
1.972972972850329
 42
50.0
 43
0.0
 44
0.0
 50
0.0
 51
0.0
 71
     0
 72
   100
 73
     1
 74
     3
 75
     0
 76
     0
 77
     0
 78
     0
  0
ENDTAB
  0
TABLE
  2
LTYPE
  5
5
330
0
100
AcDbSymbolTable
 70
     1
  0
LTYPE
  5
14
330
5
100
AcDbSymbolTableRecord
100
AcDbLinetypeTableRecord
  2
BYBLOCK
 70
     0
  3

 72
    65
 73
     0
 40
0.0
  0
LTYPE
  5
15
330
5
100
AcDbSymbolTableRecord
100
AcDbLinetypeTableRecord
  2
BYLAYER
 70
     0
  3

 72
    65
 73
     0
 40
0.0
  0
LTYPE
  5
16
330
5
100
AcDbSymbolTableRecord
100
AcDbLinetypeTableRecord
  2
CONTINUOUS
 70
     0
  3
Solid line
 72
    65
 73
     0
 40
0.0
  0
ENDTAB
  0
TABLE
  2
LAYER
  5
2
330
0
100
AcDbSymbolTable
 70
     2
  0
LAYER
  5
10
330
2
100
AcDbSymbolTableRecord
100
AcDbLayerTableRecord
  2
0
 70
     0
 62
     7
  6
CONTINUOUS
  0
LAYER
  5
40
330
2
100
AcDbSymbolTableRecord
100
AcDbLayerTableRecord
  2
AXIS
 70
     0
 62
     7
  6
CONTINUOUS
  0
ENDTAB
  0
TABLE
  2
STYLE
  5
3
330
0
100
AcDbSymbolTable
 70
     1
  0
STYLE
  5
11
330
3
100
AcDbSymbolTableRecord
100
AcDbTextStyleTableRecord
  2
STANDARD
 70
     0
 40
0.0
 41
1.0
 50
0.0
 71
     0
 42
0.2
  3
txt
  4

  0
ENDTAB
  0
TABLE
  2
VIEW
  5
6
330
0
100
AcDbSymbolTable
 70
     0
  0
ENDTAB
  0
TABLE
  2
UCS
  5
7
330
0
100
AcDbSymbolTable
 70
     0
  0
ENDTAB
  0
TABLE
  2
APPID
  5
9
330
0
100
AcDbSymbolTable
 70
     2
  0
APPID
  5
12
330
9
100
AcDbSymbolTableRecord
100
AcDbRegAppTableRecord
  2
ACAD
 70
     0
  0
APPID
  5
3F
330
9
100
AcDbSymbolTableRecord
100
AcDbRegAppTableRecord
  2
ODA
 70
     0
  0
ENDTAB
  0
TABLE
  2
DIMSTYLE
  5
A
330
0
100
AcDbSymbolTable
 70
     1
  0
DIMSTYLE
105
27
330
A
100
AcDbSymbolTableRecord
100
AcDbDimStyleTableRecord
  2
STANDARD
 70
     0
  3

  4

  5

  6

  7

 40
1.0
 41
0.18
 42
0.0625
 43
0.38
 44
0.18
 45
0.0
 46
0.0
 47
0.0
 48
0.0
140
0.18
141
0.09
142
0.0
143
25.4
144
1.0
145
0.0
146
1.0
147
0.09
 71
     0
 72
     0
 73
     1
 74
     1
 75
     0
 76
     0
 77
     0
 78
     0
170
     0
171
     2
172
     0
173
     0
174
     0
175
     0
176
     0
177
     0
178
     0
270
     2
271
     4
272
     4
273
     2
274
     2
340
11
275
     0
280
     0
281
     0
282
     0
283
     1
284
     0
285
     0
286
     0
287
     3
288
     0
  0
ENDTAB
  0
TABLE
  2
BLOCK_RECORD
  5
1
330
0
100
AcDbSymbolTable
 70
     1
  0
BLOCK_RECORD
  5
1F
330
1
100
AcDbSymbolTableRecord
100
AcDbBlockTableRecord
  2
*MODEL_SPACE
  0
BLOCK_RECORD
  5
1B
330
1
100
AcDbSymbolTableRecord
100
AcDbBlockTableRecord
  2
*PAPER_SPACE
  0
ENDTAB
  0
ENDSEC
  0
SECTION
  2
BLOCKS
  0
BLOCK
  5
20
330
1F
100
AcDbEntity
  8
0
100
AcDbBlockBegin
  2
*MODEL_SPACE
 70
     0
 10
0.0
 20
0.0
 30
0.0
  3
*MODEL_SPACE
  1

  0
ENDBLK
  5
21
330
1F
100
AcDbEntity
  8
0
100
AcDbBlockEnd
  0
BLOCK
  5
1C
330
1B
100
AcDbEntity
 67
     1
  8
0
100
AcDbBlockBegin
  2
*PAPER_SPACE
 70
     0
 10
0.0
 20
0.0
 30
0.0
  3
*PAPER_SPACE
  1

  0
ENDBLK
  5
1D
330
1B
100
AcDbEntity
 67
     1
  8
0
100
AcDbBlockEnd
  0
ENDSEC
  0
SECTION
  2
ENTITIES
  0
SPLINE
  5
41
330
1F
100
AcDbEntity
  8
AXIS
 62
   250
100
AcDbSpline
210
0.0
220
0.0
230
1.0
 70
    11
 71
     3
 72
    36
 73
    32
 74
     0
 42
0.0000000001
 43
0.0000000001
 40
0.0
 40
0.0
 40
0.0
 40
0.0
 40
0.1111111111111111
 40
0.1111111111111111
 40
0.1111111111111111
 40
0.1111111111111111
 40
0.2222222222222222
 40
0.2222222222222222
 40
0.2222222222222222
 40
0.2222222222222222
 40
0.3333333333333333
 40
0.3333333333333333
 40
0.3333333333333333
 40
0.3333333333333333
 40
0.4444444444444444
 40
0.4444444444444444
 40
0.4444444444444444
 40
0.4444444444444444
 40
0.5555555555555556
 40
0.5555555555555556
 40
0.5555555555555556
 40
0.5555555555555556
 40
0.6666666666666666
 40
0.6666666666666666
 40
0.6666666666666666
 40
0.6666666666666666
 40
0.7777777777777778
 40
0.7777777777777778
 40
0.7777777777777778
 40
0.7777777777777778
 40
1.0
 40
1.0
 40
1.0
 40
1.0
 10
-18.6776
 20
4.2754
 30
0.0
 10
-18.6776
 20
4.2754
 30
0.0
 10
9.2424
 20
4.2754
 30
0.0
 10
9.2424
 20
4.2754
 30
0.0
 10
9.2424
 20
4.2754
 30
0.0
 10
9.3534
 20
4.2754
 30
0.0
 10
9.4442
 20
4.1845
 30
0.0
 10
9.4442
 20
4.0732
 30
0.0
 10
9.4442
 20
4.0732
 30
0.0
 10
9.4442
 20
4.0732
 30
0.0
 10
9.4442
 20
-4.3891
 30
0.0
 10
9.4442
 20
-4.3891
 30
0.0
 10
9.4442
 20
-4.3891
 30
0.0
 10
9.4442
 20
-4.5004
 30
0.0
 10
9.3534
 20
-4.5914
 30
0.0
 10
9.2424
 20
-4.5914
 30
0.0
 10
9.2424
 20
-4.5914
 30
0.0
 10
9.2424
 20
-4.5914
 30
0.0
 10
-18.6776
 20
-4.5914
 30
0.0
 10
-18.6776
 20
-4.5914
 30
0.0
 10
-18.6776
 20
-4.5914
 30
0.0
 10
-18.7886
 20
-4.5914
 30
0.0
 10
-18.8794
 20
-4.5004
 30
0.0
 10
-18.8794
 20
-4.3891
 30
0.0
 10
-18.8794
 20
-4.3891
 30
0.0
 10
-18.8794
 20
-4.3891
 30
0.0
 10
-18.8794
 20
4.0732
 30
0.0
 10
-18.8794
 20
4.0732
 30
0.0
 10
-18.8794
 20
4.0732
 30
0.0
 10
-18.8794
 20
4.1845
 30
0.0
 10
-18.7886
 20
4.2754
 30
0.0
 10
-18.6776
 20
4.2754
 30
0.0
  0
SPLINE
  5
42
330
1F
100
AcDbEntity
  8
AXIS
 62
   250
100
AcDbSpline
210
0.0
220
0.0
230
1.0
 70
    24
 71
     3
 72
     8
 73
     4
 74
     0
 42
0.0000000001
 43
0.0000000001
 40
0.0
 40
0.0
 40
0.0
 40
0.0
 40
1.0
 40
1.0
 40
1.0
 40
1.0
 10
3.1982
 20
-4.2705
 30
0.0
 10
3.1982
 20
-4.2705
 30
0.0
 10
3.2028
 20
-4.5827
 30
0.0
 10
3.2028
 20
-4.5827
 30
0.0
  0
SPLINE
  5
43
330
1F
100
AcDbEntity
  8
AXIS
 62
   250
100
AcDbSpline
210
0.0
220
0.0
230
1.0
 70
    24
 71
     3
 72
     8
 73
     4
 74
     0
 42
0.0000000001
 43
0.0000000001
 40
0.0
 40
0.0
 40
0.0
 40
0.0
 40
1.0
 40
1.0
 40
1.0
 40
1.0
 10
0.8508
 20
-4.2012
 30
0.0
 10
0.8508
 20
-4.2012
 30
0.0
 10
0.8554
 20
-4.5963
 30
0.0
 10
0.8554
 20
-4.5963
 30
0.0
  0
SPLINE
  5
44
330
1F
100
AcDbEntity
  8
AXIS
 62
   250
100
AcDbSpline
210
0.0
220
0.0
230
1.0
 70
    24
 71
     3
 72
     8
 73
     4
 74
     0
 42
0.0000000001
 43
0.0000000001
 40
0.0
 40
0.0
 40
0.0
 40
0.0
 40
1.0
 40
1.0
 40
1.0
 40
1.0
 10
-7.7231
 20
-4.3
 30
0.0
 10
-7.7231
 20
-4.3
 30
0.0
 10
-7.7185
 20
-4.5878
 30
0.0
 10
-7.7185
 20
-4.5878
 30
0.0
  0
SPLINE
  5
45
330
1F
100
AcDbEntity
  8
AXIS
 62
   250
100
AcDbSpline
210
0.0
220
0.0
230
1.0
 70
    24
 71
     3
 72
     8
 73
     4
 74
     0
 42
0.0000000001
 43
0.0000000001
 40
0.0
 40
0.0
 40
0.0
 40
0.0
 40
1.0
 40
1.0
 40
1.0
 40
1.0
 10
-9.7097
 20
-4.2903
 30
0.0
 10
-9.7097
 20
-4.2903
 30
0.0
 10
-9.7052
 20
-4.5781
 30
0.0
 10
-9.7052
 20
-4.5781
 30
0.0
  0
SPLINE
  5
46
330
1F
100
AcDbEntity
  8
AXIS
 62
   250
100
AcDbSpline
210
0.0
220
0.0
230
1.0
 70
    11
 71
     3
 72
    36
 73
    32
 74
     0
 42
0.0000000001
 43
0.0000000001
 40
0.0
 40
0.0
 40
0.0
 40
0.0
 40
0.1111111111111111
 40
0.1111111111111111
 40
0.1111111111111111
 40
0.1111111111111111
 40
0.2222222222222222
 40
0.2222222222222222
 40
0.2222222222222222
 40
0.2222222222222222
 40
0.3333333333333333
 40
0.3333333333333333
 40
0.3333333333333333
 40
0.3333333333333333
 40
0.4444444444444444
 40
0.4444444444444444
 40
0.4444444444444444
 40
0.4444444444444444
 40
0.5555555555555556
 40
0.5555555555555556
 40
0.5555555555555556
 40
0.5555555555555556
 40
0.6666666666666666
 40
0.6666666666666666
 40
0.6666666666666666
 40
0.6666666666666666
 40
0.7777777777777778
 40
0.7777777777777778
 40
0.7777777777777778
 40
0.7777777777777778
 40
1.0
 40
1.0
 40
1.0
 40
1.0
 10
0.9046
 20
4.0037
 30
0.0
 10
0.9046
 20
4.0037
 30
0.0
 10
9.1366
 20
4.0037
 30
0.0
 10
9.1366
 20
4.0037
 30
0.0
 10
9.1366
 20
4.0037
 30
0.0
 10
9.1695
 20
4.0037
 30
0.0
 10
9.1962
 20
3.9186
 30
0.0
 10
9.1962
 20
3.8144
 30
0.0
 10
9.1962
 20
3.8144
 30
0.0
 10
9.1962
 20
3.8144
 30
0.0
 10
9.1962
 20
-4.0991
 30
0.0
 10
9.1962
 20
-4.0991
 30
0.0
 10
9.1962
 20
-4.0991
 30
0.0
 10
9.1962
 20
-4.2033
 30
0.0
 10
9.1695
 20
-4.2884
 30
0.0
 10
9.1366
 20
-4.2884
 30
0.0
 10
9.1366
 20
-4.2884
 30
0.0
 10
9.1366
 20
-4.2884
 30
0.0
 10
0.9046
 20
-4.2884
 30
0.0
 10
0.9046
 20
-4.2884
 30
0.0
 10
0.9046
 20
-4.2884
 30
0.0
 10
0.8717
 20
-4.2884
 30
0.0
 10
0.845
 20
-4.2033
 30
0.0
 10
0.845
 20
-4.0991
 30
0.0
 10
0.845
 20
-4.0991
 30
0.0
 10
0.845
 20
-4.0991
 30
0.0
 10
0.845
 20
3.8144
 30
0.0
 10
0.845
 20
3.8144
 30
0.0
 10
0.845
 20
3.8144
 30
0.0
 10
0.845
 20
3.9186
 30
0.0
 10
0.8717
 20
4.0037
 30
0.0
 10
0.9046
 20
4.0037
 30
0.0
  0
SPLINE
  5
47
330
1F
100
AcDbEntity
  8
AXIS
 62
   250
100
AcDbSpline
210
0.0
220
0.0
230
1.0
 70
    11
 71
     3
 72
    36
 73
    32
 74
     0
 42
0.0000000001
 43
0.0000000001
 40
0.0
 40
0.0
 40
0.0
 40
0.0
 40
0.1111111111111111
 40
0.1111111111111111
 40
0.1111111111111111
 40
0.1111111111111111
 40
0.2222222222222222
 40
0.2222222222222222
 40
0.2222222222222222
 40
0.2222222222222222
 40
0.3333333333333333
 40
0.3333333333333333
 40
0.3333333333333333
 40
0.3333333333333333
 40
0.4444444444444444
 40
0.4444444444444444
 40
0.4444444444444444
 40
0.4444444444444444
 40
0.5555555555555556
 40
0.5555555555555556
 40
0.5555555555555556
 40
0.5555555555555556
 40
0.6666666666666666
 40
0.6666666666666666
 40
0.6666666666666666
 40
0.6666666666666666
 40
0.7777777777777778
 40
0.7777777777777778
 40
0.7777777777777778
 40
0.7777777777777778
 40
1.0
 40
1.0
 40
1.0
 40
1.0
 10
-18.488
 20
4.0134
 30
0.0
 10
-18.488
 20
4.0134
 30
0.0
 10
0.5626
 20
4.0134
 30
0.0
 10
0.5626
 20
4.0134
 30
0.0
 10
0.5626
 20
4.0134
 30
0.0
 10
0.6391
 20
4.0134
 30
0.0
 10
0.7009
 20
3.928
 30
0.0
 10
0.7009
 20
3.8237
 30
0.0
 10
0.7009
 20
3.8237
 30
0.0
 10
0.7009
 20
3.8237
 30
0.0
 10
0.7009
 20
-4.1117
 30
0.0
 10
0.7009
 20
-4.1117
 30
0.0
 10
0.7009
 20
-4.1117
 30
0.0
 10
0.7009
 20
-4.216
 30
0.0
 10
0.6391
 20
-4.3014
 30
0.0
 10
0.5626
 20
-4.3014
 30
0.0
 10
0.5626
 20
-4.3014
 30
0.0
 10
0.5626
 20
-4.3014
 30
0.0
 10
-18.488
 20
-4.3014
 30
0.0
 10
-18.488
 20
-4.3014
 30
0.0
 10
-18.488
 20
-4.3014
 30
0.0
 10
-18.5646
 20
-4.3014
 30
0.0
 10
-18.6263
 20
-4.216
 30
0.0
 10
-18.6263
 20
-4.1117
 30
0.0
 10
-18.6263
 20
-4.1117
 30
0.0
 10
-18.6263
 20
-4.1117
 30
0.0
 10
-18.6263
 20
3.8237
 30
0.0
 10
-18.6263
 20
3.8237
 30
0.0
 10
-18.6263
 20
3.8237
 30
0.0
 10
-18.6263
 20
3.928
 30
0.0
 10
-18.5646
 20
4.0134
 30
0.0
 10
-18.488
 20
4.0134
 30
0.0
  0
SPLINE
  5
48
330
1F
100
AcDbEntity
  8
AXIS
 62
   250
100
AcDbSpline
210
0.0
220
0.0
230
1.0
 70
    11
 71
     3
 72
    36
 73
    32
 74
     0
 42
0.0000000001
 43
0.0000000001
 40
0.0
 40
0.0
 40
0.0
 40
0.0
 40
0.1111111111111111
 40
0.1111111111111111
 40
0.1111111111111111
 40
0.1111111111111111
 40
0.2222222222222222
 40
0.2222222222222222
 40
0.2222222222222222
 40
0.2222222222222222
 40
0.3333333333333333
 40
0.3333333333333333
 40
0.3333333333333333
 40
0.3333333333333333
 40
0.4444444444444444
 40
0.4444444444444444
 40
0.4444444444444444
 40
0.4444444444444444
 40
0.5555555555555556
 40
0.5555555555555556
 40
0.5555555555555556
 40
0.5555555555555556
 40
0.6666666666666666
 40
0.6666666666666666
 40
0.6666666666666666
 40
0.6666666666666666
 40
0.7777777777777778
 40
0.7777777777777778
 40
0.7777777777777778
 40
0.7777777777777778
 40
1.0
 40
1.0
 40
1.0
 40
1.0
 10
-25.1093
 20
13.6105
 30
0.0
 10
-25.1093
 20
13.6105
 30
0.0
 10
15.6773
 20
13.6105
 30
0.0
 10
15.6773
 20
13.6105
 30
0.0
 10
15.6773
 20
13.6105
 30
0.0
 10
15.7698
 20
13.6105
 30
0.0
 10
15.8455
 20
13.5345
 30
0.0
 10
15.8455
 20
13.4416
 30
0.0
 10
15.8455
 20
13.4416
 30
0.0
 10
15.8455
 20
13.4416
 30
0.0
 10
15.8455
 20
-13.7536
 30
0.0
 10
15.8455
 20
-13.7536
 30
0.0
 10
15.8455
 20
-13.7536
 30
0.0
 10
15.8455
 20
-13.8465
 30
0.0
 10
15.7698
 20
-13.9225
 30
0.0
 10
15.6773
 20
-13.9225
 30
0.0
 10
15.6773
 20
-13.9225
 30
0.0
 10
15.6773
 20
-13.9225
 30
0.0
 10
-25.1093
 20
-13.9225
 30
0.0
 10
-25.1093
 20
-13.9225
 30
0.0
 10
-25.1093
 20
-13.9225
 30
0.0
 10
-25.2018
 20
-13.9225
 30
0.0
 10
-25.2775
 20
-13.8465
 30
0.0
 10
-25.2775
 20
-13.7536
 30
0.0
 10
-25.2775
 20
-13.7536
 30
0.0
 10
-25.2775
 20
-13.7536
 30
0.0
 10
-25.2775
 20
13.4416
 30
0.0
 10
-25.2775
 20
13.4416
 30
0.0
 10
-25.2775
 20
13.4416
 30
0.0
 10
-25.2775
 20
13.5345
 30
0.0
 10
-25.2018
 20
13.6105
 30
0.0
 10
-25.1093
 20
13.6105
 30
0.0
  0
SPLINE
  5
49
330
1F
100
AcDbEntity
  8
AXIS
 62
   250
100
AcDbSpline
210
0.0
220
0.0
230
1.0
 70
    11
 71
     3
 72
    36
 73
    32
 74
     0
 42
0.0000000001
 43
0.0000000001
 40
0.0
 40
0.0
 40
0.0
 40
0.0
 40
0.1111111111111111
 40
0.1111111111111111
 40
0.1111111111111111
 40
0.1111111111111111
 40
0.2222222222222222
 40
0.2222222222222222
 40
0.2222222222222222
 40
0.2222222222222222
 40
0.3333333333333333
 40
0.3333333333333333
 40
0.3333333333333333
 40
0.3333333333333333
 40
0.4444444444444444
 40
0.4444444444444444
 40
0.4444444444444444
 40
0.4444444444444444
 40
0.5555555555555556
 40
0.5555555555555556
 40
0.5555555555555556
 40
0.5555555555555556
 40
0.6666666666666666
 40
0.6666666666666666
 40
0.6666666666666666
 40
0.6666666666666666
 40
0.7777777777777778
 40
0.7777777777777778
 40
0.7777777777777778
 40
0.7777777777777778
 40
1.0
 40
1.0
 40
1.0
 40
1.0
 10
-24.2957
 20
12.7803
 30
0.0
 10
-24.2957
 20
12.7803
 30
0.0
 10
14.8595
 20
12.7803
 30
0.0
 10
14.8595
 20
12.7803
 30
0.0
 10
14.8595
 20
12.7803
 30
0.0
 10
14.9483
 20
12.7803
 30
0.0
 10
15.0209
 20
12.709
 30
0.0
 10
15.0209
 20
12.6215
 30
0.0
 10
15.0209
 20
12.6215
 30
0.0
 10
15.0209
 20
12.6215
 30
0.0
 10
15.0209
 20
-12.9167
 30
0.0
 10
15.0209
 20
-12.9167
 30
0.0
 10
15.0209
 20
-12.9167
 30
0.0
 10
15.0209
 20
-13.0042
 30
0.0
 10
14.9483
 20
-13.0754
 30
0.0
 10
14.8595
 20
-13.0754
 30
0.0
 10
14.8595
 20
-13.0754
 30
0.0
 10
14.8595
 20
-13.0754
 30
0.0
 10
-24.2957
 20
-13.0754
 30
0.0
 10
-24.2957
 20
-13.0754
 30
0.0
 10
-24.2957
 20
-13.0754
 30
0.0
 10
-24.3845
 20
-13.0754
 30
0.0
 10
-24.4572
 20
-13.0042
 30
0.0
 10
-24.4572
 20
-12.9167
 30
0.0
 10
-24.4572
 20
-12.9167
 30
0.0
 10
-24.4572
 20
-12.9167
 30
0.0
 10
-24.4572
 20
12.6215
 30
0.0
 10
-24.4572
 20
12.6215
 30
0.0
 10
-24.4572
 20
12.6215
 30
0.0
 10
-24.4572
 20
12.709
 30
0.0
 10
-24.3845
 20
12.7803
 30
0.0
 10
-24.2957
 20
12.7803
 30
0.0
  0
SPLINE
  5
4A
330
1F
100
AcDbEntity
  8
AXIS
 62
   250
100
AcDbSpline
210
0.0
220
0.0
230
1.0
 70
    11
 71
     3
 72
    36
 73
    32
 74
     0
 42
0.0000000001
 43
0.0000000001
 40
0.0
 40
0.0
 40
0.0
 40
0.0
 40
0.1111111111111111
 40
0.1111111111111111
 40
0.1111111111111111
 40
0.1111111111111111
 40
0.2222222222222222
 40
0.2222222222222222
 40
0.2222222222222222
 40
0.2222222222222222
 40
0.3333333333333333
 40
0.3333333333333333
 40
0.3333333333333333
 40
0.3333333333333333
 40
0.4444444444444444
 40
0.4444444444444444
 40
0.4444444444444444
 40
0.4444444444444444
 40
0.5555555555555556
 40
0.5555555555555556
 40
0.5555555555555556
 40
0.5555555555555556
 40
0.6666666666666666
 40
0.6666666666666666
 40
0.6666666666666666
 40
0.6666666666666666
 40
0.7777777777777778
 40
0.7777777777777778
 40
0.7777777777777778
 40
0.7777777777777778
 40
1.0
 40
1.0
 40
1.0
 40
1.0
 10
-24.5358
 20
13.0266
 30
0.0
 10
-24.5358
 20
13.0266
 30
0.0
 10
15.0995
 20
13.0266
 30
0.0
 10
15.0995
 20
13.0266
 30
0.0
 10
15.0995
 20
13.0266
 30
0.0
 10
15.1894
 20
13.0266
 30
0.0
 10
15.2629
 20
12.9539
 30
0.0
 10
15.2629
 20
12.8647
 30
0.0
 10
15.2629
 20
12.8647
 30
0.0
 10
15.2629
 20
12.8647
 30
0.0
 10
15.2629
 20
-13.1767
 30
0.0
 10
15.2629
 20
-13.1767
 30
0.0
 10
15.2629
 20
-13.1767
 30
0.0
 10
15.2629
 20
-13.2659
 30
0.0
 10
15.1894
 20
-13.3386
 30
0.0
 10
15.0995
 20
-13.3386
 30
0.0
 10
15.0995
 20
-13.3386
 30
0.0
 10
15.0995
 20
-13.3386
 30
0.0
 10
-24.5358
 20
-13.3386
 30
0.0
 10
-24.5358
 20
-13.3386
 30
0.0
 10
-24.5358
 20
-13.3386
 30
0.0
 10
-24.6257
 20
-13.3386
 30
0.0
 10
-24.6992
 20
-13.2659
 30
0.0
 10
-24.6992
 20
-13.1767
 30
0.0
 10
-24.6992
 20
-13.1767
 30
0.0
 10
-24.6992
 20
-13.1767
 30
0.0
 10
-24.6992
 20
12.8647
 30
0.0
 10
-24.6992
 20
12.8647
 30
0.0
 10
-24.6992
 20
12.8647
 30
0.0
 10
-24.6992
 20
12.9539
 30
0.0
 10
-24.6257
 20
13.0266
 30
0.0
 10
-24.5358
 20
13.0266
 30
0.0
  0
SPLINE
  5
4B
330
1F
100
AcDbEntity
  8
AXIS
 62
   250
100
AcDbSpline
210
0.0
220
0.0
230
1.0
 70
    11
 71
     3
 72
    20
 73
    16
 74
     0
 42
0.0000000001
 43
0.0000000001
 40
0.0
 40
0.0
 40
0.0
 40
0.0
 40
0.2
 40
0.2
 40
0.2
 40
0.2
 40
0.4
 40
0.4
 40
0.4
 40
0.4
 40
0.6
 40
0.6
 40
0.6
 40
0.6
 40
1.0
 40
1.0
 40
1.0
 40
1.0
 10
25.6308
 20
12.9533
 30
0.0
 10
25.6308
 20
12.9533
 30
0.0
 10
26.1334
 20
12.9533
 30
0.0
 10
26.1334
 20
12.9533
 30
0.0
 10
26.1334
 20
12.9533
 30
0.0
 10
26.1334
 20
12.9533
 30
0.0
 10
26.1334
 20
-13.2529
 30
0.0
 10
26.1334
 20
-13.2529
 30
0.0
 10
26.1334
 20
-13.2529
 30
0.0
 10
26.1334
 20
-13.2529
 30
0.0
 10
25.6308
 20
-13.2529
 30
0.0
 10
25.6308
 20
-13.2529
 30
0.0
 10
25.6308
 20
-13.2529
 30
0.0
 10
25.6308
 20
-13.2529
 30
0.0
 10
25.6308
 20
12.9533
 30
0.0
 10
25.6308
 20
12.9533
 30
0.0
  0
SPLINE
  5
4C
330
1F
100
AcDbEntity
  8
AXIS
100
AcDbSpline
210
0.0
220
0.0
230
1.0
 70
    24
 71
     3
 72
     8
 73
     4
 74
     0
 42
0.0000000001
 43
0.0000000001
 40
0.0
 40
0.0
 40
0.0
 40
0.0
 40
1.0
 40
1.0
 40
1.0
 40
1.0
 10
25.5537
 20
-4.5621
 30
0.0
 10
25.5537
 20
-4.5621
 30
0.0
 10
25.5537
 20
-4.1896
 30
0.0
 10
25.5537
 20
-4.1896
 30
0.0
  0
SPLINE
  5
4D
330
1F
100
AcDbEntity
  8
AXIS
100
AcDbSpline
210
0.0
220
0.0
230
1.0
 70
    24
 71
     3
 72
     8
 73
     4
 74
     0
 42
0.0000000001
 43
0.0000000001
 40
0.0
 40
0.0
 40
0.0
 40
0.0
 40
1.0
 40
1.0
 40
1.0
 40
1.0
 10
25.5555
 20
3.8818
 30
0.0
 10
25.5555
 20
3.8818
 30
0.0
 10
25.5555
 20
4.2431
 30
0.0
 10
25.5555
 20
4.2431
 30
0.0
  0
SPLINE
  5
4E
330
1F
100
AcDbEntity
  8
AXIS
 62
     7
100
AcDbSpline
210
0.0
220
0.0
230
1.0
 70
    11
 71
     3
 72
   132
 73
   128
 74
     0
 42
0.0000000001
 43
0.0000000001
 40
0.0
 40
0.0
 40
0.0
 40
0.0
 40
0.0303030303030303
 40
0.0303030303030303
 40
0.0303030303030303
 40
0.0303030303030303
 40
0.0606060606060606
 40
0.0606060606060606
 40
0.0606060606060606
 40
0.0606060606060606
 40
0.0909090909090909
 40
0.0909090909090909
 40
0.0909090909090909
 40
0.0909090909090909
 40
0.1212121212121212
 40
0.1212121212121212
 40
0.1212121212121212
 40
0.1212121212121212
 40
0.1515151515151515
 40
0.1515151515151515
 40
0.1515151515151515
 40
0.1515151515151515
 40
0.1818181818181818
 40
0.1818181818181818
 40
0.1818181818181818
 40
0.1818181818181818
 40
0.2121212121212121
 40
0.2121212121212121
 40
0.2121212121212121
 40
0.2121212121212121
 40
0.2424242424242424
 40
0.2424242424242424
 40
0.2424242424242424
 40
0.2424242424242424
 40
0.2727272727272727
 40
0.2727272727272727
 40
0.2727272727272727
 40
0.2727272727272727
 40
0.303030303030303
 40
0.303030303030303
 40
0.303030303030303
 40
0.303030303030303
 40
0.3333333333333333
 40
0.3333333333333333
 40
0.3333333333333333
 40
0.3333333333333333
 40
0.3636363636363636
 40
0.3636363636363636
 40
0.3636363636363636
 40
0.3636363636363636
 40
0.3939393939393939
 40
0.3939393939393939
 40
0.3939393939393939
 40
0.3939393939393939
 40
0.4242424242424243
 40
0.4242424242424243
 40
0.4242424242424243
 40
0.4242424242424243
 40
0.4545454545454545
 40
0.4545454545454545
 40
0.4545454545454545
 40
0.4545454545454545
 40
0.4848484848484849
 40
0.4848484848484849
 40
0.4848484848484849
 40
0.4848484848484849
 40
0.5151515151515151
 40
0.5151515151515151
 40
0.5151515151515151
 40
0.5151515151515151
 40
0.5454545454545454
 40
0.5454545454545454
 40
0.5454545454545454
 40
0.5454545454545454
 40
0.5757575757575758
 40
0.5757575757575758
 40
0.5757575757575758
 40
0.5757575757575758
 40
0.6060606060606061
 40
0.6060606060606061
 40
0.6060606060606061
 40
0.6060606060606061
 40
0.6363636363636364
 40
0.6363636363636364
 40
0.6363636363636364
 40
0.6363636363636364
 40
0.6666666666666666
 40
0.6666666666666666
 40
0.6666666666666666
 40
0.6666666666666666
 40
0.696969696969697
 40
0.696969696969697
 40
0.696969696969697
 40
0.696969696969697
 40
0.7272727272727273
 40
0.7272727272727273
 40
0.7272727272727273
 40
0.7272727272727273
 40
0.7575757575757576
 40
0.7575757575757576
 40
0.7575757575757576
 40
0.7575757575757576
 40
0.7878787878787878
 40
0.7878787878787878
 40
0.7878787878787878
 40
0.7878787878787878
 40
0.8181818181818182
 40
0.8181818181818182
 40
0.8181818181818182
 40
0.8181818181818182
 40
0.8484848484848485
 40
0.8484848484848485
 40
0.8484848484848485
 40
0.8484848484848485
 40
0.8787878787878788
 40
0.8787878787878788
 40
0.8787878787878788
 40
0.8787878787878788
 40
0.9090909090909091
 40
0.9090909090909091
 40
0.9090909090909091
 40
0.9090909090909091
 40
0.9393939393939394
 40
0.9393939393939394
 40
0.9393939393939394
 40
0.9393939393939394
 40
1.0
 40
1.0
 40
1.0
 40
1.0
 10
24.0313
 20
-5.7909
 30
0.0
 10
24.0313
 20
-5.7909
 30
0.0
 10
24.0313
 20
-3.7187
 30
0.0
 10
24.0313
 20
-3.7187
 30
0.0
 10
24.0313
 20
-3.7187
 30
0.0
 10
24.0313
 20
-3.7187
 30
0.0
 10
25.3824
 20
-3.7056
 30
0.0
 10
25.3824
 20
-3.7056
 30
0.0
 10
25.3824
 20
-3.7056
 30
0.0
 10
25.3824
 20
-3.7056
 30
0.0
 10
25.4559
 20
-3.691
 30
0.0
 10
25.4559
 20
-3.691
 30
0.0
 10
25.4559
 20
-3.691
 30
0.0
 10
25.4559
 20
-3.691
 30
0.0
 10
25.5049
 20
-3.6471
 30
0.0
 10
25.5049
 20
-3.6471
 30
0.0
 10
25.5049
 20
-3.6471
 30
0.0
 10
25.5049
 20
-3.6471
 30
0.0
 10
25.513
 20
-3.5666
 30
0.0
 10
25.513
 20
-3.5666
 30
0.0
 10
25.513
 20
-3.5666
 30
0.0
 10
25.513
 20
-3.5666
 30
0.0
 10
25.5738
 20
-2.165
 30
0.0
 10
25.5738
 20
-2.165
 30
0.0
 10
25.5738
 20
-2.165
 30
0.0
 10
25.5738
 20
-2.165
 30
0.0
 10
25.5919
 20
-0.3269
 30
0.0
 10
25.5919
 20
-0.3269
 30
0.0
 10
25.5919
 20
-0.3269
 30
0.0
 10
25.5919
 20
-0.3269
 30
0.0
 10
25.5556
 20
1.2671
 30
0.0
 10
25.5556
 20
1.2671
 30
0.0
 10
25.5556
 20
1.2671
 30
0.0
 10
25.5556
 20
1.2671
 30
0.0
 10
25.5054
 20
3.2743
 30
0.0
 10
25.5054
 20
3.2743
 30
0.0
 10
25.5054
 20
3.2743
 30
0.0
 10
25.5054
 20
3.2743
 30
0.0
 10
25.4795
 20
3.3438
 30
0.0
 10
25.4795
 20
3.3438
 30
0.0
 10
25.4795
 20
3.3438
 30
0.0
 10
25.4795
 20
3.3438
 30
0.0
 10
25.3933
 20
3.3979
 30
0.0
 10
25.3933
 20
3.3979
 30
0.0
 10
25.3933
 20
3.3979
 30
0.0
 10
25.3933
 20
3.3979
 30
0.0
 10
24.3847
 20
3.4133
 30
0.0
 10
24.3847
 20
3.4133
 30
0.0
 10
24.3847
 20
3.4133
 30
0.0
 10
24.3847
 20
3.4133
 30
0.0
 10
24.3933
 20
3.9153
 30
0.0
 10
24.3933
 20
3.9153
 30
0.0
 10
24.3933
 20
3.9153
 30
0.0
 10
24.3933
 20
3.9153
 30
0.0
 10
25.8071
 20
3.8844
 30
0.0
 10
25.8071
 20
3.8844
 30
0.0
 10
25.8071
 20
3.8844
 30
0.0
 10
25.8071
 20
3.8844
 30
0.0
 10
25.9019
 20
3.8458
 30
0.0
 10
25.9019
 20
3.8458
 30
0.0
 10
25.9019
 20
3.8458
 30
0.0
 10
25.9019
 20
3.8458
 30
0.0
 10
25.9967
 20
3.8149
 30
0.0
 10
25.9967
 20
3.8149
 30
0.0
 10
25.9967
 20
3.8149
 30
0.0
 10
25.9967
 20
3.8149
 30
0.0
 10
26.0226
 20
3.7222
 30
0.0
 10
26.0226
 20
3.7222
 30
0.0
 10
26.0226
 20
3.7222
 30
0.0
 10
26.0226
 20
3.7222
 30
0.0
 10
26.0485
 20
3.6064
 30
0.0
 10
26.0485
 20
3.6064
 30
0.0
 10
26.0485
 20
3.6064
 30
0.0
 10
26.0485
 20
3.6064
 30
0.0
 10
26.0696
 20
3.4526
 30
0.0
 10
26.0696
 20
3.4526
 30
0.0
 10
26.0696
 20
3.4526
 30
0.0
 10
26.0696
 20
3.4526
 30
0.0
 10
26.0776
 20
2.3714
 30
0.0
 10
26.0776
 20
2.3714
 30
0.0
 10
26.0776
 20
2.3714
 30
0.0
 10
26.0776
 20
2.3714
 30
0.0
 10
26.1133
 20
1.1204
 30
0.0
 10
26.1133
 20
1.1204
 30
0.0
 10
26.1133
 20
1.1204
 30
0.0
 10
26.1133
 20
1.1204
 30
0.0
 10
26.1014
 20
-0.5048
 30
0.0
 10
26.1014
 20
-0.5048
 30
0.0
 10
26.1014
 20
-0.5048
 30
0.0
 10
26.1014
 20
-0.5048
 30
0.0
 10
26.0889
 20
-1.8104
 30
0.0
 10
26.0889
 20
-1.8104
 30
0.0
 10
26.0889
 20
-1.8104
 30
0.0
 10
26.0889
 20
-1.8104
 30
0.0
 10
26.0798
 20
-2.906
 30
0.0
 10
26.0798
 20
-2.906
 30
0.0
 10
26.0798
 20
-2.906
 30
0.0
 10
26.0798
 20
-2.906
 30
0.0
 10
26.0594
 20
-4.0118
 30
0.0
 10
26.0594
 20
-4.0118
 30
0.0
 10
26.0594
 20
-4.0118
 30
0.0
 10
26.0594
 20
-4.0118
 30
0.0
 10
25.9783
 20
-4.1359
 30
0.0
 10
25.9783
 20
-4.1359
 30
0.0
 10
25.9783
 20
-4.1359
 30
0.0
 10
25.9783
 20
-4.1359
 30
0.0
 10
25.8399
 20
-4.1914
 30
0.0
 10
25.8399
 20
-4.1914
 30
0.0
 10
25.8399
 20
-4.1914
 30
0.0
 10
25.8399
 20
-4.1914
 30
0.0
 10
24.5794
 20
-4.2
 30
0.0
 10
24.5794
 20
-4.2
 30
0.0
 10
24.5794
 20
-4.2
 30
0.0
 10
24.5794
 20
-4.2
 30
0.0
 10
24.4413
 20
-4.2381
 30
0.0
 10
24.4413
 20
-4.2381
 30
0.0
 10
24.4413
 20
-4.2381
 30
0.0
 10
24.4413
 20
-4.2381
 30
0.0
 10
24.3887
 20
-4.3455
 30
0.0
 10
24.3887
 20
-4.3455
 30
0.0
 10
24.3887
 20
-4.3455
 30
0.0
 10
24.3887
 20
-4.3455
 30
0.0
 10
24.3812
 20
-5.7693
 30
0.0
 10
24.3812
 20
-5.7693
 30
0.0
 10
24.3812
 20
-5.7693
 30
0.0
 10
24.3812
 20
-5.7693
 30
0.0
 10
24.0313
 20
-5.7909
 30
0.0
 10
24.0313
 20
-5.7909
 30
0.0
  0
SPLINE
  5
4F
330
1F
100
AcDbEntity
  8
AXIS
 62
     7
100
AcDbSpline
210
0.0
220
0.0
230
1.0
 70
    11
 71
     3
 72
    52
 73
    48
 74
     0
 42
0.0000000001
 43
0.0000000001
 40
0.0
 40
0.0
 40
0.0
 40
0.0
 40
0.0769230769230769
 40
0.0769230769230769
 40
0.0769230769230769
 40
0.0769230769230769
 40
0.1538461538461539
 40
0.1538461538461539
 40
0.1538461538461539
 40
0.1538461538461539
 40
0.2307692307692308
 40
0.2307692307692308
 40
0.2307692307692308
 40
0.2307692307692308
 40
0.3076923076923077
 40
0.3076923076923077
 40
0.3076923076923077
 40
0.3076923076923077
 40
0.3846153846153846
 40
0.3846153846153846
 40
0.3846153846153846
 40
0.3846153846153846
 40
0.4615384615384616
 40
0.4615384615384616
 40
0.4615384615384616
 40
0.4615384615384616
 40
0.5384615384615384
 40
0.5384615384615384
 40
0.5384615384615384
 40
0.5384615384615384
 40
0.6153846153846154
 40
0.6153846153846154
 40
0.6153846153846154
 40
0.6153846153846154
 40
0.6923076923076923
 40
0.6923076923076923
 40
0.6923076923076923
 40
0.6923076923076923
 40
0.7692307692307693
 40
0.7692307692307693
 40
0.7692307692307693
 40
0.7692307692307693
 40
0.8461538461538461
 40
0.8461538461538461
 40
0.8461538461538461
 40
0.8461538461538461
 40
1.0
 40
1.0
 40
1.0
 40
1.0
 10
25.8288
 20
-13.8162
 30
0.0
 10
25.8288
 20
-13.8162
 30
0.0
 10
23.2756
 20
-13.9067
 30
0.0
 10
23.2756
 20
-13.9067
 30
0.0
 10
23.2756
 20
-13.9067
 30
0.0
 10
23.2756
 20
-13.9067
 30
0.0
 10
23.287
 20
-13.4226
 30
0.0
 10
23.287
 20
-13.4226
 30
0.0
 10
23.287
 20
-13.4226
 30
0.0
 10
23.287
 20
-13.4226
 30
0.0
 10
25.1399
 20
-13.3297
 30
0.0
 10
25.1399
 20
-13.3297
 30
0.0
 10
25.1399
 20
-13.3297
 30
0.0
 10
25.1399
 20
-13.3297
 30
0.0
 10
25.1402
 20
-4.9658
 30
0.0
 10
25.1402
 20
-4.9658
 30
0.0
 10
25.1402
 20
-4.9658
 30
0.0
 10
25.1402
 20
-4.9658
 30
0.0
 10
24.3839
 20
-4.9528
 30
0.0
 10
24.3839
 20
-4.9528
 30
0.0
 10
24.3839
 20
-4.9528
 30
0.0
 10
24.3839
 20
-4.9528
 30
0.0
 10
24.371
 20
-4.5233
 30
0.0
 10
24.371
 20
-4.5233
 30
0.0
 10
24.371
 20
-4.5233
 30
0.0
 10
24.371
 20
-4.5233
 30
0.0
 10
25.4863
 20
-4.5363
 30
0.0
 10
25.4863
 20
-4.5363
 30
0.0
 10
25.4863
 20
-4.5363
 30
0.0
 10
25.4863
 20
-4.5363
 30
0.0
 10
25.4877
 20
-13.3864
 30
0.0
 10
25.4877
 20
-13.3864
 30
0.0
 10
25.4877
 20
-13.3864
 30
0.0
 10
25.4877
 20
-13.3864
 30
0.0
 10
26.1731
 20
-13.3809
 30
0.0
 10
26.1731
 20
-13.3809
 30
0.0
 10
26.1731
 20
-13.3809
 30
0.0
 10
26.1731
 20
-13.3809
 30
0.0
 10
26.1623
 20
-13.6291
 30
0.0
 10
26.1623
 20
-13.6291
 30
0.0
 10
26.1623
 20
-13.6291
 30
0.0
 10
26.1623
 20
-13.6291
 30
0.0
 10
26.0689
 20
-13.7954
 30
0.0
 10
26.0689
 20
-13.7954
 30
0.0
 10
26.0689
 20
-13.7954
 30
0.0
 10
26.0689
 20
-13.7954
 30
0.0
 10
25.8288
 20
-13.8162
 30
0.0
 10
25.8288
 20
-13.8162
 30
0.0
  0
SPLINE
  5
50
330
1F
100
AcDbEntity
  8
AXIS
 62
     7
100
AcDbSpline
210
0.0
220
0.0
230
1.0
 70
    11
 71
     3
 72
    72
 73
    68
 74
     0
 42
0.0000000001
 43
0.0000000001
 40
0.0
 40
0.0
 40
0.0
 40
0.0
 40
0.0555555555555556
 40
0.0555555555555556
 40
0.0555555555555556
 40
0.0555555555555556
 40
0.1111111111111111
 40
0.1111111111111111
 40
0.1111111111111111
 40
0.1111111111111111
 40
0.1666666666666667
 40
0.1666666666666667
 40
0.1666666666666667
 40
0.1666666666666667
 40
0.2222222222222222
 40
0.2222222222222222
 40
0.2222222222222222
 40
0.2222222222222222
 40
0.2777777777777778
 40
0.2777777777777778
 40
0.2777777777777778
 40
0.2777777777777778
 40
0.3333333333333333
 40
0.3333333333333333
 40
0.3333333333333333
 40
0.3333333333333333
 40
0.3888888888888889
 40
0.3888888888888889
 40
0.3888888888888889
 40
0.3888888888888889
 40
0.4444444444444444
 40
0.4444444444444444
 40
0.4444444444444444
 40
0.4444444444444444
 40
0.5
 40
0.5
 40
0.5
 40
0.5
 40
0.5555555555555556
 40
0.5555555555555556
 40
0.5555555555555556
 40
0.5555555555555556
 40
0.6111111111111112
 40
0.6111111111111112
 40
0.6111111111111112
 40
0.6111111111111112
 40
0.6666666666666666
 40
0.6666666666666666
 40
0.6666666666666666
 40
0.6666666666666666
 40
0.7222222222222222
 40
0.7222222222222222
 40
0.7222222222222222
 40
0.7222222222222222
 40
0.7777777777777778
 40
0.7777777777777778
 40
0.7777777777777778
 40
0.7777777777777778
 40
0.8333333333333334
 40
0.8333333333333334
 40
0.8333333333333334
 40
0.8333333333333334
 40
0.8888888888888888
 40
0.8888888888888888
 40
0.8888888888888888
 40
0.8888888888888888
 40
1.0
 40
1.0
 40
1.0
 40
1.0
 10
25.8678
 20
13.5358
 30
0.0
 10
25.8678
 20
13.5358
 30
0.0
 10
23.2756
 20
13.6263
 30
0.0
 10
23.2756
 20
13.6263
 30
0.0
 10
23.2756
 20
13.6263
 30
0.0
 10
23.2756
 20
13.6263
 30
0.0
 10
23.2763
 20
13.1079
 30
0.0
 10
23.2763
 20
13.1079
 30
0.0
 10
23.2763
 20
13.1079
 30
0.0
 10
23.2763
 20
13.1079
 30
0.0
 10
25.1835
 20
13.0519
 30
0.0
 10
25.1835
 20
13.0519
 30
0.0
 10
25.1835
 20
13.0519
 30
0.0
 10
25.1835
 20
13.0519
 30
0.0
 10
25.2025
 20
4.7025
 30
0.0
 10
25.2025
 20
4.7025
 30
0.0
 10
25.2025
 20
4.7025
 30
0.0
 10
25.2025
 20
4.7025
 30
0.0
 10
24.7053
 20
4.6804
 30
0.0
 10
24.7053
 20
4.6804
 30
0.0
 10
24.7053
 20
4.6804
 30
0.0
 10
24.7053
 20
4.6804
 30
0.0
 10
24.7163
 20
4.5365
 30
0.0
 10
24.7163
 20
4.5365
 30
0.0
 10
24.7163
 20
4.5365
 30
0.0
 10
24.7163
 20
4.5365
 30
0.0
 10
23.1806
 20
4.5254
 30
0.0
 10
23.1806
 20
4.5254
 30
0.0
 10
23.1806
 20
4.5254
 30
0.0
 10
23.1806
 20
4.5254
 30
0.0
 10
23.1806
 20
4.1158
 30
0.0
 10
23.1806
 20
4.1158
 30
0.0
 10
23.1806
 20
4.1158
 30
0.0
 10
23.1806
 20
4.1158
 30
0.0
 10
23.4568
 20
3.8722
 30
0.0
 10
23.4568
 20
3.8722
 30
0.0
 10
23.4568
 20
3.8722
 30
0.0
 10
23.4568
 20
3.8722
 30
0.0
 10
23.5562
 20
3.8722
 30
0.0
 10
23.5562
 20
3.8722
 30
0.0
 10
23.5562
 20
3.8722
 30
0.0
 10
23.5562
 20
3.8722
 30
0.0
 10
23.5451
 20
4.1711
 30
0.0
 10
23.5451
 20
4.1711
 30
0.0
 10
23.5451
 20
4.1711
 30
0.0
 10
23.5451
 20
4.1711
 30
0.0
 10
25.545
 20
4.1711
 30
0.0
 10
25.545
 20
4.1711
 30
0.0
 10
25.545
 20
4.1711
 30
0.0
 10
25.545
 20
4.1711
 30
0.0
 10
25.545
 20
13.0615
 30
0.0
 10
25.545
 20
13.0615
 30
0.0
 10
25.545
 20
13.0615
 30
0.0
 10
25.545
 20
13.0615
 30
0.0
 10
26.1859
 20
13.0463
 30
0.0
 10
26.1859
 20
13.0463
 30
0.0
 10
26.1859
 20
13.0463
 30
0.0
 10
26.1859
 20
13.0463
 30
0.0
 10
26.1689
 20
13.2852
 30
0.0
 10
26.1689
 20
13.2852
 30
0.0
 10
26.1689
 20
13.2852
 30
0.0
 10
26.1689
 20
13.2852
 30
0.0
 10
26.0571
 20
13.4797
 30
0.0
 10
26.0571
 20
13.4797
 30
0.0
 10
26.0571
 20
13.4797
 30
0.0
 10
26.0571
 20
13.4797
 30
0.0
 10
25.8678
 20
13.5358
 30
0.0
 10
25.8678
 20
13.5358
 30
0.0
  0
SPLINE
  5
51
330
1F
100
AcDbEntity
  8
AXIS
100
AcDbSpline
210
0.0
220
0.0
230
1.0
 70
    24
 71
     3
 72
     8
 73
     4
 74
     0
 42
0.0000000001
 43
0.0000000001
 40
0.0
 40
0.0
 40
0.0
 40
0.0
 40
1.0
 40
1.0
 40
1.0
 40
1.0
 10
23.2755
 20
-13.6544
 30
0.0
 10
23.2755
 20
-13.6544
 30
0.0
 10
23.2755
 20
13.1699
 30
0.0
 10
23.2755
 20
13.1699
 30
0.0
  0
SPLINE
  5
52
330
1F
100
AcDbEntity
  8
AXIS
 62
   250
100
AcDbSpline
210
0.0
220
0.0
230
1.0
 70
    11
 71
     3
 72
    20
 73
    16
 74
     0
 42
0.0000000001
 43
0.0000000001
 40
0.0
 40
0.0
 40
0.0
 40
0.0
 40
0.2
 40
0.2
 40
0.2
 40
0.2
 40
0.4
 40
0.4
 40
0.4
 40
0.4
 40
0.6
 40
0.6
 40
0.6
 40
0.6
 40
1.0
 40
1.0
 40
1.0
 40
1.0
 10
-26.907
 20
-10.8382
 30
0.0
 10
-26.907
 20
-10.8382
 30
0.0
 10
-27.3304
 20
-13.8384
 30
0.0
 10
-27.3304
 20
-13.8384
 30
0.0
 10
-27.3304
 20
-13.8384
 30
0.0
 10
-27.3304
 20
-13.8384
 30
0.0
 10
-27.4244
 20
-13.8384
 30
0.0
 10
-27.4244
 20
-13.8384
 30
0.0
 10
-27.4244
 20
-13.8384
 30
0.0
 10
-27.4244
 20
-13.8384
 30
0.0
 10
-27.876
 20
-10.8382
 30
0.0
 10
-27.876
 20
-10.8382
 30
0.0
 10
-27.876
 20
-10.8382
 30
0.0
 10
-27.876
 20
-10.8382
 30
0.0
 10
-26.907
 20
-10.8382
 30
0.0
 10
-26.907
 20
-10.8382
 30
0.0
  0
SPLINE
  5
53
330
1F
100
AcDbEntity
  8
AXIS
 62
   250
100
AcDbSpline
210
0.0
220
0.0
230
1.0
 70
    11
 71
     3
 72
    20
 73
    16
 74
     0
 42
0.0000000001
 43
0.0000000001
 40
0.0
 40
0.0
 40
0.0
 40
0.0
 40
0.2
 40
0.2
 40
0.2
 40
0.2
 40
0.4
 40
0.4
 40
0.4
 40
0.4
 40
0.6
 40
0.6
 40
0.6
 40
0.6
 40
1.0
 40
1.0
 40
1.0
 40
1.0
 10
-27.8312
 20
10.4806
 30
0.0
 10
-27.8312
 20
10.4806
 30
0.0
 10
-27.4078
 20
13.4809
 30
0.0
 10
-27.4078
 20
13.4809
 30
0.0
 10
-27.4078
 20
13.4809
 30
0.0
 10
-27.4078
 20
13.4809
 30
0.0
 10
-27.3137
 20
13.4809
 30
0.0
 10
-27.3137
 20
13.4809
 30
0.0
 10
-27.3137
 20
13.4809
 30
0.0
 10
-27.3137
 20
13.4809
 30
0.0
 10
-26.8622
 20
10.4806
 30
0.0
 10
-26.8622
 20
10.4806
 30
0.0
 10
-26.8622
 20
10.4806
 30
0.0
 10
-26.8622
 20
10.4806
 30
0.0
 10
-27.8312
 20
10.4806
 30
0.0
 10
-27.8312
 20
10.4806
 30
0.0
  0
SPLINE
  5
54
330
1F
100
AcDbEntity
  8
AXIS
 62
   250
100
AcDbSpline
210
0.0
220
0.0
230
1.0
 70
    11
 71
     3
 72
    20
 73
    16
 74
     0
 42
0.0000000001
 43
0.0000000001
 40
0.0
 40
0.0
 40
0.0
 40
0.0
 40
0.2
 40
0.2
 40
0.2
 40
0.2
 40
0.4
 40
0.4
 40
0.4
 40
0.4
 40
0.6
 40
0.6
 40
0.6
 40
0.6
 40
1.0
 40
1.0
 40
1.0
 40
1.0
 10
14.2137
 20
-1.486
 30
0.0
 10
14.2137
 20
-1.486
 30
0.0
 10
13.7902
 20
-4.487
 30
0.0
 10
13.7902
 20
-4.487
 30
0.0
 10
13.7902
 20
-4.487
 30
0.0
 10
13.7902
 20
-4.487
 30
0.0
 10
13.6961
 20
-4.487
 30
0.0
 10
13.6961
 20
-4.487
 30
0.0
 10
13.6961
 20
-4.487
 30
0.0
 10
13.6961
 20
-4.487
 30
0.0
 10
13.2444
 20
-1.486
 30
0.0
 10
13.2444
 20
-1.486
 30
0.0
 10
13.2444
 20
-1.486
 30
0.0
 10
13.2444
 20
-1.486
 30
0.0
 10
14.2137
 20
-1.486
 30
0.0
 10
14.2137
 20
-1.486
 30
0.0
  0
SPLINE
  5
55
330
1F
100
AcDbEntity
  8
AXIS
 62
   250
100
AcDbSpline
210
0.0
220
0.0
230
1.0
 70
    11
 71
     3
 72
    20
 73
    16
 74
     0
 42
0.0000000001
 43
0.0000000001
 40
0.0
 40
0.0
 40
0.0
 40
0.0
 40
0.2
 40
0.2
 40
0.2
 40
0.2
 40
0.4
 40
0.4
 40
0.4
 40
0.4
 40
0.6
 40
0.6
 40
0.6
 40
0.6
 40
1.0
 40
1.0
 40
1.0
 40
1.0
 10
13.2661
 20
1.1585
 30
0.0
 10
13.2661
 20
1.1585
 30
0.0
 10
13.6895
 20
4.159
 30
0.0
 10
13.6895
 20
4.159
 30
0.0
 10
13.6895
 20
4.159
 30
0.0
 10
13.6895
 20
4.159
 30
0.0
 10
13.7836
 20
4.159
 30
0.0
 10
13.7836
 20
4.159
 30
0.0
 10
13.7836
 20
4.159
 30
0.0
 10
13.7836
 20
4.159
 30
0.0
 10
14.2352
 20
1.1585
 30
0.0
 10
14.2352
 20
1.1585
 30
0.0
 10
14.2352
 20
1.1585
 30
0.0
 10
14.2352
 20
1.1585
 30
0.0
 10
13.2661
 20
1.1585
 30
0.0
 10
13.2661
 20
1.1585
 30
0.0
  0
SPLINE
  5
56
330
1F
100
AcDbEntity
  8
AXIS
 62
   250
100
AcDbSpline
210
0.0
220
0.0
230
1.0
 70
    11
 71
     3
 72
    20
 73
    16
 74
     0
 42
0.0000000001
 43
0.0000000001
 40
0.0
 40
0.0
 40
0.0
 40
0.0
 40
0.2
 40
0.2
 40
0.2
 40
0.2
 40
0.4
 40
0.4
 40
0.4
 40
0.4
 40
0.6
 40
0.6
 40
0.6
 40
0.6
 40
1.0
 40
1.0
 40
1.0
 40
1.0
 10
6.2552
 20
-16.736
 30
0.0
 10
6.2552
 20
-16.736
 30
0.0
 10
9.2567
 20
-17.1596
 30
0.0
 10
9.2567
 20
-17.1596
 30
0.0
 10
9.2567
 20
-17.1596
 30
0.0
 10
9.2567
 20
-17.1596
 30
0.0
 10
9.2567
 20
-17.2537
 30
0.0
 10
9.2567
 20
-17.2537
 30
0.0
 10
9.2567
 20
-17.2537
 30
0.0
 10
9.2567
 20
-17.2537
 30
0.0
 10
6.2552
 20
-17.7055
 30
0.0
 10
6.2552
 20
-17.7055
 30
0.0
 10
6.2552
 20
-17.7055
 30
0.0
 10
6.2552
 20
-17.7055
 30
0.0
 10
6.2552
 20
-16.736
 30
0.0
 10
6.2552
 20
-16.736
 30
0.0
  0
SPLINE
  5
57
330
1F
100
AcDbEntity
  8
AXIS
 62
   250
100
AcDbSpline
210
0.0
220
0.0
230
1.0
 70
    11
 71
     3
 72
    20
 73
    16
 74
     0
 42
0.0000000001
 43
0.0000000001
 40
0.0
 40
0.0
 40
0.0
 40
0.0
 40
0.2
 40
0.2
 40
0.2
 40
0.2
 40
0.4
 40
0.4
 40
0.4
 40
0.4
 40
0.6
 40
0.6
 40
0.6
 40
0.6
 40
1.0
 40
1.0
 40
1.0
 40
1.0
 10
-15.7609
 20
-17.6678
 30
0.0
 10
-15.7609
 20
-17.6678
 30
0.0
 10
-18.7615
 20
-17.2443
 30
0.0
 10
-18.7615
 20
-17.2443
 30
0.0
 10
-18.7615
 20
-17.2443
 30
0.0
 10
-18.7615
 20
-17.2443
 30
0.0
 10
-18.7615
 20
-17.1503
 30
0.0
 10
-18.7615
 20
-17.1503
 30
0.0
 10
-18.7615
 20
-17.1503
 30
0.0
 10
-18.7615
 20
-17.1503
 30
0.0
 10
-15.7609
 20
-16.6986
 30
0.0
 10
-15.7609
 20
-16.6986
 30
0.0
 10
-15.7609
 20
-16.6986
 30
0.0
 10
-15.7609
 20
-16.6986
 30
0.0
 10
-15.7609
 20
-17.6678
 30
0.0
 10
-15.7609
 20
-17.6678
 30
0.0
  0
SPLINE
  5
58
330
1F
100
AcDbEntity
  8
AXIS
 62
   250
100
AcDbSpline
210
0.0
220
0.0
230
1.0
 70
    11
 71
     3
 72
    20
 73
    16
 74
     0
 42
0.0000000001
 43
0.0000000001
 40
0.0
 40
0.0
 40
0.0
 40
0.0
 40
0.2
 40
0.2
 40
0.2
 40
0.2
 40
0.4
 40
0.4
 40
0.4
 40
0.4
 40
0.6
 40
0.6
 40
0.6
 40
0.6
 40
1.0
 40
1.0
 40
1.0
 40
1.0
 10
12.7725
 20
16.4064
 30
0.0
 10
12.7725
 20
16.4064
 30
0.0
 10
15.7755
 20
15.9826
 30
0.0
 10
15.7755
 20
15.9826
 30
0.0
 10
15.7755
 20
15.9826
 30
0.0
 10
15.7755
 20
15.9826
 30
0.0
 10
15.7755
 20
15.8885
 30
0.0
 10
15.7755
 20
15.8885
 30
0.0
 10
15.7755
 20
15.8885
 30
0.0
 10
15.7755
 20
15.8885
 30
0.0
 10
12.7725
 20
15.4365
 30
0.0
 10
12.7725
 20
15.4365
 30
0.0
 10
12.7725
 20
15.4365
 30
0.0
 10
12.7725
 20
15.4365
 30
0.0
 10
12.7725
 20
16.4064
 30
0.0
 10
12.7725
 20
16.4064
 30
0.0
  0
SPLINE
  5
59
330
1F
100
AcDbEntity
  8
AXIS
 62
   250
100
AcDbSpline
210
0.0
220
0.0
230
1.0
 70
    11
 71
     3
 72
    20
 73
    16
 74
     0
 42
0.0000000001
 43
0.0000000001
 40
0.0
 40
0.0
 40
0.0
 40
0.0
 40
0.2
 40
0.2
 40
0.2
 40
0.2
 40
0.4
 40
0.4
 40
0.4
 40
0.4
 40
0.6
 40
0.6
 40
0.6
 40
0.6
 40
1.0
 40
1.0
 40
1.0
 40
1.0
 10
-22.1954
 20
15.4585
 30
0.0
 10
-22.1954
 20
15.4585
 30
0.0
 10
-25.1954
 20
15.8818
 30
0.0
 10
-25.1954
 20
15.8818
 30
0.0
 10
-25.1954
 20
15.8818
 30
0.0
 10
-25.1954
 20
15.8818
 30
0.0
 10
-25.1954
 20
15.9759
 30
0.0
 10
-25.1954
 20
15.9759
 30
0.0
 10
-25.1954
 20
15.9759
 30
0.0
 10
-25.1954
 20
15.9759
 30
0.0
 10
-22.1954
 20
16.4274
 30
0.0
 10
-22.1954
 20
16.4274
 30
0.0
 10
-22.1954
 20
16.4274
 30
0.0
 10
-22.1954
 20
16.4274
 30
0.0
 10
-22.1954
 20
15.4585
 30
0.0
 10
-22.1954
 20
15.4585
 30
0.0
  0
SPLINE
  5
5A
330
1F
100
AcDbEntity
  8
AXIS
 62
   250
100
AcDbSpline
210
0.0
220
0.0
230
1.0
 70
    11
 71
     3
 72
    20
 73
    16
 74
     0
 42
0.0000000001
 43
0.0000000001
 40
0.0
 40
0.0
 40
0.0
 40
0.0
 40
0.2
 40
0.2
 40
0.2
 40
0.2
 40
0.4
 40
0.4
 40
0.4
 40
0.4
 40
0.6
 40
0.6
 40
0.6
 40
0.6
 40
1.0
 40
1.0
 40
1.0
 40
1.0
 10
20.1978
 20
-17.3949
 30
0.0
 10
20.1978
 20
-17.3949
 30
0.0
 10
23.1995
 20
-17.8185
 30
0.0
 10
23.1995
 20
-17.8185
 30
0.0
 10
23.1995
 20
-17.8185
 30
0.0
 10
23.1995
 20
-17.8185
 30
0.0
 10
23.1995
 20
-17.9126
 30
0.0
 10
23.1995
 20
-17.9126
 30
0.0
 10
23.1995
 20
-17.9126
 30
0.0
 10
23.1995
 20
-17.9126
 30
0.0
 10
20.1978
 20
-18.3644
 30
0.0
 10
20.1978
 20
-18.3644
 30
0.0
 10
20.1978
 20
-18.3644
 30
0.0
 10
20.1978
 20
-18.3644
 30
0.0
 10
20.1978
 20
-17.3949
 30
0.0
 10
20.1978
 20
-17.3949
 30
0.0
  0
SPLINE
  5
5B
330
1F
100
AcDbEntity
  8
AXIS
 62
   250
100
AcDbSpline
210
0.0
220
0.0
230
1.0
 70
    11
 71
     3
 72
    20
 73
    16
 74
     0
 42
0.0000000001
 43
0.0000000001
 40
0.0
 40
0.0
 40
0.0
 40
0.0
 40
0.2
 40
0.2
 40
0.2
 40
0.2
 40
0.4
 40
0.4
 40
0.4
 40
0.4
 40
0.6
 40
0.6
 40
0.6
 40
0.6
 40
1.0
 40
1.0
 40
1.0
 40
1.0
 10
29.3425
 20
-18.3452
 30
0.0
 10
29.3425
 20
-18.3452
 30
0.0
 10
26.3403
 20
-17.9216
 30
0.0
 10
26.3403
 20
-17.9216
 30
0.0
 10
26.3403
 20
-17.9216
 30
0.0
 10
26.3403
 20
-17.9216
 30
0.0
 10
26.3403
 20
-17.8275
 30
0.0
 10
26.3403
 20
-17.8275
 30
0.0
 10
26.3403
 20
-17.8275
 30
0.0
 10
26.3403
 20
-17.8275
 30
0.0
 10
29.3425
 20
-17.3756
 30
0.0
 10
29.3425
 20
-17.3756
 30
0.0
 10
29.3425
 20
-17.3756
 30
0.0
 10
29.3425
 20
-17.3756
 30
0.0
 10
29.3425
 20
-18.3452
 30
0.0
 10
29.3425
 20
-18.3452
 30
0.0
  0
SPLINE
  5
5C
330
1F
100
AcDbEntity
  8
AXIS
 62
   250
100
AcDbSpline
210
0.0
220
0.0
230
1.0
 70
    24
 71
     3
 72
     8
 73
     4
 74
     0
 42
0.0000000001
 43
0.0000000001
 40
0.0
 40
0.0
 40
0.0
 40
0.0
 40
1.0
 40
1.0
 40
1.0
 40
1.0
 10
-25.7883
 20
-13.8911
 30
0.0
 10
-25.7883
 20
-13.8911
 30
0.0
 10
-27.6168
 20
-13.8911
 30
0.0
 10
-27.6168
 20
-13.8911
 30
0.0
  0
SPLINE
  5
5D
330
1F
100
AcDbEntity
  8
AXIS
 62
   250
100
AcDbSpline
210
0.0
220
0.0
230
1.0
 70
    24
 71
     3
 72
     8
 73
     4
 74
     0
 42
0.0000000001
 43
0.0000000001
 40
0.0
 40
0.0
 40
0.0
 40
0.0
 40
1.0
 40
1.0
 40
1.0
 40
1.0
 10
-25.746
 20
13.5801
 30
0.0
 10
-25.746
 20
13.5801
 30
0.0
 10
-27.6168
 20
13.5801
 30
0.0
 10
-27.6168
 20
13.5801
 30
0.0
  0
SPLINE
  5
5E
330
1F
100
AcDbEntity
  8
AXIS
 62
   250
100
AcDbSpline
210
0.0
220
0.0
230
1.0
 70
    24
 71
     3
 72
     8
 73
     4
 74
     0
 42
0.0000000001
 43
0.0000000001
 40
0.0
 40
0.0
 40
0.0
 40
0.0
 40
1.0
 40
1.0
 40
1.0
 40
1.0
 10
-27.379
 20
13.5801
 30
0.0
 10
-27.379
 20
13.5801
 30
0.0
 10
-27.379
 20
-13.4644
 30
0.0
 10
-27.379
 20
-13.4644
 30
0.0
  0
SPLINE
  5
5F
330
1F
100
AcDbEntity
  8
AXIS
 62
   250
100
AcDbSpline
210
0.0
220
0.0
230
1.0
 70
    24
 71
     3
 72
     8
 73
     4
 74
     0
 42
0.0000000001
 43
0.0000000001
 40
0.0
 40
0.0
 40
0.0
 40
0.0
 40
1.0
 40
1.0
 40
1.0
 40
1.0
 10
-18.8328
 20
-4.8919
 30
0.0
 10
-18.8328
 20
-4.8919
 30
0.0
 10
-18.8328
 20
-17.6017
 30
0.0
 10
-18.8328
 20
-17.6017
 30
0.0
  0
SPLINE
  5
60
330
1F
100
AcDbEntity
  8
AXIS
 62
   250
100
AcDbSpline
210
0.0
220
0.0
230
1.0
 70
    24
 71
     3
 72
     8
 73
     4
 74
     0
 42
0.0000000001
 43
0.0000000001
 40
0.0
 40
0.0
 40
0.0
 40
0.0
 40
1.0
 40
1.0
 40
1.0
 40
1.0
 10
9.3409
 20
-4.84
 30
0.0
 10
9.3409
 20
-4.84
 30
0.0
 10
9.3409
 20
-17.6577
 30
0.0
 10
9.3409
 20
-17.6577
 30
0.0
  0
SPLINE
  5
61
330
1F
100
AcDbEntity
  8
AXIS
 62
   250
100
AcDbSpline
210
0.0
220
0.0
230
1.0
 70
    24
 71
     3
 72
     8
 73
     4
 74
     0
 42
0.0000000001
 43
0.0000000001
 40
0.0
 40
0.0
 40
0.0
 40
0.0
 40
1.0
 40
1.0
 40
1.0
 40
1.0
 10
8.7024
 20
-17.1932
 30
0.0
 10
8.7024
 20
-17.1932
 30
0.0
 10
-17.8825
 20
-17.1932
 30
0.0
 10
-17.8825
 20
-17.1932
 30
0.0
  0
SPLINE
  5
62
330
1F
100
AcDbEntity
  8
AXIS
 62
   250
100
AcDbSpline
210
0.0
220
0.0
230
1.0
 70
    24
 71
     3
 72
     8
 73
     4
 74
     0
 42
0.0000000001
 43
0.0000000001
 40
0.0
 40
0.0
 40
0.0
 40
0.0
 40
1.0
 40
1.0
 40
1.0
 40
1.0
 10
15.8465
 20
13.367
 30
0.0
 10
15.8465
 20
13.367
 30
0.0
 10
15.8465
 20
16.1791
 30
0.0
 10
15.8465
 20
16.1791
 30
0.0
  0
SPLINE
  5
63
330
1F
100
AcDbEntity
  8
AXIS
 62
   250
100
AcDbSpline
210
0.0
220
0.0
230
1.0
 70
    24
 71
     3
 72
     8
 73
     4
 74
     0
 42
0.0000000001
 43
0.0000000001
 40
0.0
 40
0.0
 40
0.0
 40
0.0
 40
1.0
 40
1.0
 40
1.0
 40
1.0
 10
-25.2769
 20
13.9723
 30
0.0
 10
-25.2769
 20
13.9723
 30
0.0
 10
-25.2769
 20
16.1791
 30
0.0
 10
-25.2769
 20
16.1791
 30
0.0
  0
SPLINE
  5
64
330
1F
100
AcDbEntity
  8
AXIS
 62
   250
100
AcDbSpline
210
0.0
220
0.0
230
1.0
 70
    24
 71
     3
 72
     8
 73
     4
 74
     0
 42
0.0000000001
 43
0.0000000001
 40
0.0
 40
0.0
 40
0.0
 40
0.0
 40
1.0
 40
1.0
 40
1.0
 40
1.0
 10
15.8465
 20
15.9412
 30
0.0
 10
15.8465
 20
15.9412
 30
0.0
 10
-24.8836
 20
15.9412
 30
0.0
 10
-24.8836
 20
15.9412
 30
0.0
  0
SPLINE
  5
65
330
1F
100
AcDbEntity
  8
AXIS
 62
   250
100
AcDbSpline
210
0.0
220
0.0
230
1.0
 70
    24
 71
     3
 72
     8
 73
     4
 74
     0
 42
0.0000000001
 43
0.0000000001
 40
0.0
 40
0.0
 40
0.0
 40
0.0
 40
1.0
 40
1.0
 40
1.0
 40
1.0
 10
9.6798
 20
4.2484
 30
0.0
 10
9.6798
 20
4.2484
 30
0.0
 10
14.2414
 20
4.2484
 30
0.0
 10
14.2414
 20
4.2484
 30
0.0
  0
SPLINE
  5
66
330
1F
100
AcDbEntity
  8
AXIS
 62
   250
100
AcDbSpline
210
0.0
220
0.0
230
1.0
 70
    24
 71
     3
 72
     8
 73
     4
 74
     0
 42
0.0000000001
 43
0.0000000001
 40
0.0
 40
0.0
 40
0.0
 40
0.0
 40
1.0
 40
1.0
 40
1.0
 40
1.0
 10
9.6698
 20
-4.58
 30
0.0
 10
9.6698
 20
-4.58
 30
0.0
 10
14.2656
 20
-4.58
 30
0.0
 10
14.2656
 20
-4.58
 30
0.0
  0
SPLINE
  5
67
330
1F
100
AcDbEntity
  8
AXIS
 62
   250
100
AcDbSpline
210
0.0
220
0.0
230
1.0
 70
    24
 71
     3
 72
     8
 73
     4
 74
     0
 42
0.0000000001
 43
0.0000000001
 40
0.0
 40
0.0
 40
0.0
 40
0.0
 40
1.0
 40
1.0
 40
1.0
 40
1.0
 10
13.7639
 20
3.2505
 30
0.0
 10
13.7639
 20
3.2505
 30
0.0
 10
13.7639
 20
-4.1965
 30
0.0
 10
13.7639
 20
-4.1965
 30
0.0
  0
SPLINE
  5
68
330
1F
100
AcDbEntity
  8
AXIS
 62
   250
100
AcDbSpline
210
0.0
220
0.0
230
1.0
 70
    24
 71
     3
 72
     8
 73
     4
 74
     0
 42
0.0000000001
 43
0.0000000001
 40
0.0
 40
0.0
 40
0.0
 40
0.0
 40
1.0
 40
1.0
 40
1.0
 40
1.0
 10
23.2716
 20
-14.1912
 30
0.0
 10
23.2716
 20
-14.1912
 30
0.0
 10
23.2716
 20
-18.1285
 30
0.0
 10
23.2716
 20
-18.1285
 30
0.0
  0
SPLINE
  5
69
330
1F
100
AcDbEntity
  8
AXIS
 62
   250
100
AcDbSpline
210
0.0
220
0.0
230
1.0
 70
    24
 71
     3
 72
     8
 73
     4
 74
     0
 42
0.0000000001
 43
0.0000000001
 40
0.0
 40
0.0
 40
0.0
 40
0.0
 40
1.0
 40
1.0
 40
1.0
 40
1.0
 10
26.2254
 20
-14.0936
 30
0.0
 10
26.2254
 20
-14.0936
 30
0.0
 10
26.2254
 20
-18.24
 30
0.0
 10
26.2254
 20
-18.24
 30
0.0
  0
SPLINE
  5
6A
330
1F
100
AcDbEntity
  8
AXIS
 62
   250
100
AcDbSpline
210
0.0
220
0.0
230
1.0
 70
    24
 71
     3
 72
     8
 73
     4
 74
     0
 42
0.0000000001
 43
0.0000000001
 40
0.0
 40
0.0
 40
0.0
 40
0.0
 40
1.0
 40
1.0
 40
1.0
 40
1.0
 10
30.26
 20
-17.8906
 30
0.0
 10
30.26
 20
-17.8906
 30
0.0
 10
16.4455
 20
-17.8906
 30
0.0
 10
16.4455
 20
-17.8906
 30
0.0
  0
SPLINE
  5
6B
330
1F
100
AcDbEntity
  8
AXIS
 62
   250
100
AcDbSpline
210
0.0
220
0.0
230
1.0
 70
    11
 71
     3
 72
    40
 73
    36
 74
     0
 42
0.0000000001
 43
0.0000000001
 40
0.0
 40
0.0
 40
0.0
 40
0.0
 40
0.1
 40
0.1
 40
0.1
 40
0.1
 40
0.2
 40
0.2
 40
0.2
 40
0.2
 40
0.3
 40
0.3
 40
0.3
 40
0.3
 40
0.4
 40
0.4
 40
0.4
 40
0.4
 40
0.5
 40
0.5
 40
0.5
 40
0.5
 40
0.6
 40
0.6
 40
0.6
 40
0.6
 40
0.7
 40
0.7
 40
0.7
 40
0.7
 40
0.8
 40
0.8
 40
0.8
 40
0.8
 40
1.0
 40
1.0
 40
1.0
 40
1.0
 10
17.3055
 20
-16.9601
 30
0.0
 10
17.3055
 20
-16.9601
 30
0.0
 10
17.0576
 20
-16.9601
 30
0.0
 10
17.0576
 20
-16.9601
 30
0.0
 10
17.0576
 20
-16.9601
 30
0.0
 10
17.0576
 20
-16.9601
 30
0.0
 10
17.0576
 20
-15.3797
 30
0.0
 10
17.0576
 20
-15.3797
 30
0.0
 10
17.0576
 20
-15.3797
 30
0.0
 10
16.9978
 20
-15.4366
 30
0.0
 10
16.9198
 20
-15.4935
 30
0.0
 10
16.8229
 20
-15.5504
 30
0.0
 10
16.8229
 20
-15.5504
 30
0.0
 10
16.7255
 20
-15.6073
 30
0.0
 10
16.6385
 20
-15.6501
 30
0.0
 10
16.5613
 20
-15.6784
 30
0.0
 10
16.5613
 20
-15.6784
 30
0.0
 10
16.5613
 20
-15.6784
 30
0.0
 10
16.5613
 20
-15.4389
 30
0.0
 10
16.5613
 20
-15.4389
 30
0.0
 10
16.5613
 20
-15.4389
 30
0.0
 10
16.7001
 20
-15.3736
 30
0.0
 10
16.8215
 20
-15.2945
 30
0.0
 10
16.9254
 20
-15.2019
 30
0.0
 10
16.9254
 20
-15.2019
 30
0.0
 10
17.0289
 20
-15.1087
 30
0.0
 10
17.1027
 20
-15.0189
 30
0.0
 10
17.146
 20
-14.9314
 30
0.0
 10
17.146
 20
-14.9314
 30
0.0
 10
17.146
 20
-14.9314
 30
0.0
 10
17.3055
 20
-14.9314
 30
0.0
 10
17.3055
 20
-14.9314
 30
0.0
 10
17.3055
 20
-14.9314
 30
0.0
 10
17.3055
 20
-14.9314
 30
0.0
 10
17.3055
 20
-16.9601
 30
0.0
 10
17.3055
 20
-16.9601
 30
0.0
  0
SPLINE
  5
6C
330
1F
100
AcDbEntity
  8
AXIS
 62
   250
100
AcDbSpline
210
0.0
220
0.0
230
1.0
 70
    11
 71
     3
 72
    80
 73
    76
 74
     0
 42
0.0000000001
 43
0.0000000001
 40
0.0
 40
0.0
 40
0.0
 40
0.0
 40
0.05
 40
0.05
 40
0.05
 40
0.05
 40
0.1
 40
0.1
 40
0.1
 40
0.1
 40
0.15
 40
0.15
 40
0.15
 40
0.15
 40
0.2
 40
0.2
 40
0.2
 40
0.2
 40
0.25
 40
0.25
 40
0.25
 40
0.25
 40
0.3
 40
0.3
 40
0.3
 40
0.3
 40
0.35
 40
0.35
 40
0.35
 40
0.35
 40
0.4
 40
0.4
 40
0.4
 40
0.4
 40
0.45
 40
0.45
 40
0.45
 40
0.45
 40
0.5
 40
0.5
 40
0.5
 40
0.5
 40
0.55
 40
0.55
 40
0.55
 40
0.55
 40
0.6
 40
0.6
 40
0.6
 40
0.6
 40
0.65
 40
0.65
 40
0.65
 40
0.65
 40
0.7
 40
0.7
 40
0.7
 40
0.7
 40
0.75
 40
0.75
 40
0.75
 40
0.75
 40
0.8
 40
0.8
 40
0.8
 40
0.8
 40
0.85
 40
0.85
 40
0.85
 40
0.85
 40
0.9
 40
0.9
 40
0.9
 40
0.9
 40
1.0
 40
1.0
 40
1.0
 40
1.0
 10
19.2278
 20
-15.4347
 30
0.0
 10
19.2278
 20
-15.4347
 30
0.0
 10
18.9814
 20
-15.454
 30
0.0
 10
18.9814
 20
-15.454
 30
0.0
 10
18.9814
 20
-15.454
 30
0.0
 10
18.9593
 20
-15.3566
 30
0.0
 10
18.9282
 20
-15.2856
 30
0.0
 10
18.8878
 20
-15.2419
 30
0.0
 10
18.8878
 20
-15.2419
 30
0.0
 10
18.8205
 20
-15.1708
 30
0.0
 10
18.7377
 20
-15.1355
 30
0.0
 10
18.6394
 20
-15.1355
 30
0.0
 10
18.6394
 20
-15.1355
 30
0.0
 10
18.5604
 20
-15.1355
 30
0.0
 10
18.4913
 20
-15.1577
 30
0.0
 10
18.4315
 20
-15.2019
 30
0.0
 10
18.4315
 20
-15.2019
 30
0.0
 10
18.3534
 20
-15.2588
 30
0.0
 10
18.2918
 20
-15.342
 30
0.0
 10
18.2467
 20
-15.4512
 30
0.0
 10
18.2467
 20
-15.4512
 30
0.0
 10
18.202
 20
-15.5603
 30
0.0
 10
18.1785
 20
-15.716
 30
0.0
 10
18.1766
 20
-15.9182
 30
0.0
 10
18.1766
 20
-15.9182
 30
0.0
 10
18.2363
 20
-15.8275
 30
0.0
 10
18.3092
 20
-15.7597
 30
0.0
 10
18.3958
 20
-15.7155
 30
0.0
 10
18.3958
 20
-15.7155
 30
0.0
 10
18.4818
 20
-15.6718
 30
0.0
 10
18.5726
 20
-15.6497
 30
0.0
 10
18.6672
 20
-15.6497
 30
0.0
 10
18.6672
 20
-15.6497
 30
0.0
 10
18.8327
 20
-15.6497
 30
0.0
 10
18.9734
 20
-15.7103
 30
0.0
 10
19.0896
 20
-15.8322
 30
0.0
 10
19.0896
 20
-15.8322
 30
0.0
 10
19.2057
 20
-15.954
 30
0.0
 10
19.2641
 20
-16.1111
 30
0.0
 10
19.2641
 20
-16.3039
 30
0.0
 10
19.2641
 20
-16.3039
 30
0.0
 10
19.2641
 20
-16.4309
 30
0.0
 10
19.2363
 20
-16.5485
 30
0.0
 10
19.1817
 20
-16.6577
 30
0.0
 10
19.1817
 20
-16.6577
 30
0.0
 10
19.1272
 20
-16.7663
 30
0.0
 10
19.0519
 20
-16.85
 30
0.0
 10
18.9564
 20
-16.9079
 30
0.0
 10
18.9564
 20
-16.9079
 30
0.0
 10
18.861
 20
-16.9657
 30
0.0
 10
18.7528
 20
-16.9944
 30
0.0
 10
18.6314
 20
-16.9944
 30
0.0
 10
18.6314
 20
-16.9944
 30
0.0
 10
18.4245
 20
-16.9944
 30
0.0
 10
18.2561
 20
-16.9187
 30
0.0
 10
18.1258
 20
-16.7663
 30
0.0
 10
18.1258
 20
-16.7663
 30
0.0
 10
17.995
 20
-16.6144
 30
0.0
 10
17.9301
 20
-16.3637
 30
0.0
 10
17.9301
 20
-16.0147
 30
0.0
 10
17.9301
 20
-16.0147
 30
0.0
 10
17.9301
 20
-15.6243
 30
0.0
 10
18.0021
 20
-15.3406
 30
0.0
 10
18.1465
 20
-15.1633
 30
0.0
 10
18.1465
 20
-15.1633
 30
0.0
 10
18.2721
 20
-15.009
 30
0.0
 10
18.4414
 20
-14.9314
 30
0.0
 10
18.6549
 20
-14.9314
 30
0.0
 10
18.6549
 20
-14.9314
 30
0.0
 10
18.8135
 20
-14.9314
 30
0.0
 10
18.9437
 20
-14.9761
 30
0.0
 10
19.0453
 20
-15.0655
 30
0.0
 10
19.0453
 20
-15.0655
 30
0.0
 10
19.1469
 20
-15.1544
 30
0.0
 10
19.2076
 20
-15.2776
 30
0.0
 10
19.2278
 20
-15.4347
 30
0.0
  0
SPLINE
  5
6D
330
1F
100
AcDbEntity
  8
AXIS
 62
   250
100
AcDbSpline
210
0.0
220
0.0
230
1.0
 70
    11
 71
     3
 72
    40
 73
    36
 74
     0
 42
0.0000000001
 43
0.0000000001
 40
0.0
 40
0.0
 40
0.0
 40
0.0
 40
0.1
 40
0.1
 40
0.1
 40
0.1
 40
0.2
 40
0.2
 40
0.2
 40
0.2
 40
0.3
 40
0.3
 40
0.3
 40
0.3
 40
0.4
 40
0.4
 40
0.4
 40
0.4
 40
0.5
 40
0.5
 40
0.5
 40
0.5
 40
0.6
 40
0.6
 40
0.6
 40
0.6
 40
0.7
 40
0.7
 40
0.7
 40
0.7
 40
0.8
 40
0.8
 40
0.8
 40
0.8
 40
1.0
 40
1.0
 40
1.0
 40
1.0
 10
18.2151
 20
-16.3053
 30
0.0
 10
18.2151
 20
-16.391
 30
0.0
 10
18.2335
 20
-16.4728
 30
0.0
 10
18.2697
 20
-16.5509
 30
0.0
 10
18.2697
 20
-16.5509
 30
0.0
 10
18.3059
 20
-16.629
 30
0.0
 10
18.3567
 20
-16.6882
 30
0.0
 10
18.4216
 20
-16.7291
 30
0.0
 10
18.4216
 20
-16.7291
 30
0.0
 10
18.487
 20
-16.7701
 30
0.0
 10
18.5557
 20
-16.7908
 30
0.0
 10
18.6272
 20
-16.7908
 30
0.0
 10
18.6272
 20
-16.7908
 30
0.0
 10
18.7321
 20
-16.7908
 30
0.0
 10
18.8219
 20
-16.7484
 30
0.0
 10
18.8972
 20
-16.6638
 30
0.0
 10
18.8972
 20
-16.6638
 30
0.0
 10
18.9724
 20
-16.5791
 30
0.0
 10
19.0101
 20
-16.4643
 30
0.0
 10
19.0101
 20
-16.3195
 30
0.0
 10
19.0101
 20
-16.3195
 30
0.0
 10
19.0101
 20
-16.1798
 30
0.0
 10
18.9729
 20
-16.0697
 30
0.0
 10
18.8986
 20
-15.9893
 30
0.0
 10
18.8986
 20
-15.9893
 30
0.0
 10
18.8243
 20
-15.9088
 30
0.0
 10
18.7307
 20
-15.8688
 30
0.0
 10
18.6178
 20
-15.8688
 30
0.0
 10
18.6178
 20
-15.8688
 30
0.0
 10
18.5054
 20
-15.8688
 30
0.0
 10
18.4103
 20
-15.9088
 30
0.0
 10
18.3323
 20
-15.9893
 30
0.0
 10
18.3323
 20
-15.9893
 30
0.0
 10
18.2542
 20
-16.0697
 30
0.0
 10
18.2151
 20
-16.1751
 30
0.0
 10
18.2151
 20
-16.3053
 30
0.0
  0
SPLINE
  5
6E
330
1F
100
AcDbEntity
  8
AXIS
 62
   250
100
AcDbSpline
210
0.0
220
0.0
230
1.0
 70
    11
 71
     3
 72
    92
 73
    88
 74
     0
 42
0.0000000001
 43
0.0000000001
 40
0.0
 40
0.0
 40
0.0
 40
0.0
 40
0.0434782608695652
 40
0.0434782608695652
 40
0.0434782608695652
 40
0.0434782608695652
 40
0.0869565217391304
 40
0.0869565217391304
 40
0.0869565217391304
 40
0.0869565217391304
 40
0.1304347826086956
 40
0.1304347826086956
 40
0.1304347826086956
 40
0.1304347826086956
 40
0.1739130434782609
 40
0.1739130434782609
 40
0.1739130434782609
 40
0.1739130434782609
 40
0.2173913043478261
 40
0.2173913043478261
 40
0.2173913043478261
 40
0.2173913043478261
 40
0.2608695652173913
 40
0.2608695652173913
 40
0.2608695652173913
 40
0.2608695652173913
 40
0.3043478260869565
 40
0.3043478260869565
 40
0.3043478260869565
 40
0.3043478260869565
 40
0.3478260869565217
 40
0.3478260869565217
 40
0.3478260869565217
 40
0.3478260869565217
 40
0.391304347826087
 40
0.391304347826087
 40
0.391304347826087
 40
0.391304347826087
 40
0.4347826086956522
 40
0.4347826086956522
 40
0.4347826086956522
 40
0.4347826086956522
 40
0.4782608695652174
 40
0.4782608695652174
 40
0.4782608695652174
 40
0.4782608695652174
 40
0.5217391304347826
 40
0.5217391304347826
 40
0.5217391304347826
 40
0.5217391304347826
 40
0.5652173913043478
 40
0.5652173913043478
 40
0.5652173913043478
 40
0.5652173913043478
 40
0.6086956521739131
 40
0.6086956521739131
 40
0.6086956521739131
 40
0.6086956521739131
 40
0.6521739130434783
 40
0.6521739130434783
 40
0.6521739130434783
 40
0.6521739130434783
 40
0.6956521739130435
 40
0.6956521739130435
 40
0.6956521739130435
 40
0.6956521739130435
 40
0.7391304347826086
 40
0.7391304347826086
 40
0.7391304347826086
 40
0.7391304347826086
 40
0.782608695652174
 40
0.782608695652174
 40
0.782608695652174
 40
0.782608695652174
 40
0.8260869565217391
 40
0.8260869565217391
 40
0.8260869565217391
 40
0.8260869565217391
 40
0.8695652173913043
 40
0.8695652173913043
 40
0.8695652173913043
 40
0.8695652173913043
 40
0.9130434782608695
 40
0.9130434782608695
 40
0.9130434782608695
 40
0.9130434782608695
 40
1.0
 40
1.0
 40
1.0
 40
1.0
 10
-5.5164
 20
16.5745
 30
0.0
 10
-5.5164
 20
16.5745
 30
0.0
 10
-5.5164
 20
16.336
 30
0.0
 10
-5.5164
 20
16.336
 30
0.0
 10
-5.5164
 20
16.336
 30
0.0
 10
-5.5164
 20
16.336
 30
0.0
 10
-6.8518
 20
16.336
 30
0.0
 10
-6.8518
 20
16.336
 30
0.0
 10
-6.8518
 20
16.336
 30
0.0
 10
-6.8537
 20
16.3957
 30
0.0
 10
-6.8443
 20
16.4531
 30
0.0
 10
-6.8231
 20
16.5082
 30
0.0
 10
-6.8231
 20
16.5082
 30
0.0
 10
-6.7892
 20
16.5994
 30
0.0
 10
-6.7347
 20
16.6888
 30
0.0
 10
-6.6599
 20
16.7772
 30
0.0
 10
-6.6599
 20
16.7772
 30
0.0
 10
-6.5846
 20
16.8652
 30
0.0
 10
-6.4764
 20
16.9672
 30
0.0
 10
-6.3353
 20
17.0829
 30
0.0
 10
-6.3353
 20
17.0829
 30
0.0
 10
-6.1157
 20
17.2631
 30
0.0
 10
-5.967
 20
17.4056
 30
0.0
 10
-5.8899
 20
17.511
 30
0.0
 10
-5.8899
 20
17.511
 30
0.0
 10
-5.8128
 20
17.6159
 30
0.0
 10
-5.7742
 20
17.7156
 30
0.0
 10
-5.7742
 20
17.8092
 30
0.0
 10
-5.7742
 20
17.8092
 30
0.0
 10
-5.7742
 20
17.9075
 30
0.0
 10
-5.8095
 20
17.9903
 30
0.0
 10
-5.8795
 20
18.058
 30
0.0
 10
-5.8795
 20
18.058
 30
0.0
 10
-5.9501
 20
18.1253
 30
0.0
 10
-6.0418
 20
18.1591
 30
0.0
 10
-6.1547
 20
18.1591
 30
0.0
 10
-6.1547
 20
18.1591
 30
0.0
 10
-6.2742
 20
18.1591
 30
0.0
 10
-6.3697
 20
18.1234
 30
0.0
 10
-6.4412
 20
18.0514
 30
0.0
 10
-6.4412
 20
18.0514
 30
0.0
 10
-6.5131
 20
17.9799
 30
0.0
 10
-6.5493
 20
17.8807
 30
0.0
 10
-6.5503
 20
17.7542
 30
0.0
 10
-6.5503
 20
17.7542
 30
0.0
 10
-6.5503
 20
17.7542
 30
0.0
 10
-6.8052
 20
17.78
 30
0.0
 10
-6.8052
 20
17.78
 30
0.0
 10
-6.8052
 20
17.78
 30
0.0
 10
-6.7878
 20
17.9705
 30
0.0
 10
-6.722
 20
18.1154
 30
0.0
 10
-6.6081
 20
18.2151
 30
0.0
 10
-6.6081
 20
18.2151
 30
0.0
 10
-6.4943
 20
18.3148
 30
0.0
 10
-6.341
 20
18.3647
 30
0.0
 10
-6.1491
 20
18.3647
 30
0.0
 10
-6.1491
 20
18.3647
 30
0.0
 10
-5.9553
 20
18.3647
 30
0.0
 10
-5.8019
 20
18.3106
 30
0.0
 10
-5.689
 20
18.2034
 30
0.0
 10
-5.689
 20
18.2034
 30
0.0
 10
-5.5757
 20
18.0956
 30
0.0
 10
-5.5192
 20
17.9625
 30
0.0
 10
-5.5192
 20
17.8035
 30
0.0
 10
-5.5192
 20
17.8035
 30
0.0
 10
-5.5192
 20
17.7226
 30
0.0
 10
-5.5357
 20
17.6431
 30
0.0
 10
-5.5691
 20
17.5651
 30
0.0
 10
-5.5691
 20
17.5651
 30
0.0
 10
-5.602
 20
17.487
 30
0.0
 10
-5.6571
 20
17.4047
 30
0.0
 10
-5.7337
 20
17.3186
 30
0.0
 10
-5.7337
 20
17.3186
 30
0.0
 10
-5.8104
 20
17.232
 30
0.0
 10
-5.9379
 20
17.1135
 30
0.0
 10
-6.1161
 20
16.963
 30
0.0
 10
-6.1161
 20
16.963
 30
0.0
 10
-6.2648
 20
16.8379
 30
0.0
 10
-6.3603
 20
16.7532
 30
0.0
 10
-6.4026
 20
16.7085
 30
0.0
 10
-6.4026
 20
16.7085
 30
0.0
 10
-6.4449
 20
16.6643
 30
0.0
 10
-6.4797
 20
16.6196
 30
0.0
 10
-6.5075
 20
16.5745
 30
0.0
 10
-6.5075
 20
16.5745
 30
0.0
 10
-6.5075
 20
16.5745
 30
0.0
 10
-5.5164
 20
16.5745
 30
0.0
 10
-5.5164
 20
16.5745
 30
0.0
  0
SPLINE
  5
6F
330
1F
100
AcDbEntity
  8
AXIS
 62
   250
100
AcDbSpline
210
0.0
220
0.0
230
1.0
 70
    11
 71
     3
 72
    48
 73
    44
 74
     0
 42
0.0000000001
 43
0.0000000001
 40
0.0
 40
0.0
 40
0.0
 40
0.0
 40
0.0833333333333333
 40
0.0833333333333333
 40
0.0833333333333333
 40
0.0833333333333333
 40
0.1666666666666667
 40
0.1666666666666667
 40
0.1666666666666667
 40
0.1666666666666667
 40
0.25
 40
0.25
 40
0.25
 40
0.25
 40
0.3333333333333333
 40
0.3333333333333333
 40
0.3333333333333333
 40
0.3333333333333333
 40
0.4166666666666667
 40
0.4166666666666667
 40
0.4166666666666667
 40
0.4166666666666667
 40
0.5
 40
0.5
 40
0.5
 40
0.5
 40
0.5833333333333334
 40
0.5833333333333334
 40
0.5833333333333334
 40
0.5833333333333334
 40
0.6666666666666666
 40
0.6666666666666666
 40
0.6666666666666666
 40
0.6666666666666666
 40
0.75
 40
0.75
 40
0.75
 40
0.75
 40
0.8333333333333334
 40
0.8333333333333334
 40
0.8333333333333334
 40
0.8333333333333334
 40
1.0
 40
1.0
 40
1.0
 40
1.0
 10
-4.4558
 20
16.336
 30
0.0
 10
-4.4558
 20
16.336
 30
0.0
 10
-4.4558
 20
16.8195
 30
0.0
 10
-4.4558
 20
16.8195
 30
0.0
 10
-4.4558
 20
16.8195
 30
0.0
 10
-4.4558
 20
16.8195
 30
0.0
 10
-5.3321
 20
16.8195
 30
0.0
 10
-5.3321
 20
16.8195
 30
0.0
 10
-5.3321
 20
16.8195
 30
0.0
 10
-5.3321
 20
16.8195
 30
0.0
 10
-5.3321
 20
17.0472
 30
0.0
 10
-5.3321
 20
17.0472
 30
0.0
 10
-5.3321
 20
17.0472
 30
0.0
 10
-5.3321
 20
17.0472
 30
0.0
 10
-4.4101
 20
18.3562
 30
0.0
 10
-4.4101
 20
18.3562
 30
0.0
 10
-4.4101
 20
18.3562
 30
0.0
 10
-4.4101
 20
18.3562
 30
0.0
 10
-4.2074
 20
18.3562
 30
0.0
 10
-4.2074
 20
18.3562
 30
0.0
 10
-4.2074
 20
18.3562
 30
0.0
 10
-4.2074
 20
18.3562
 30
0.0
 10
-4.2074
 20
17.0472
 30
0.0
 10
-4.2074
 20
17.0472
 30
0.0
 10
-4.2074
 20
17.0472
 30
0.0
 10
-4.2074
 20
17.0472
 30
0.0
 10
-3.9346
 20
17.0472
 30
0.0
 10
-3.9346
 20
17.0472
 30
0.0
 10
-3.9346
 20
17.0472
 30
0.0
 10
-3.9346
 20
17.0472
 30
0.0
 10
-3.9346
 20
16.8195
 30
0.0
 10
-3.9346
 20
16.8195
 30
0.0
 10
-3.9346
 20
16.8195
 30
0.0
 10
-3.9346
 20
16.8195
 30
0.0
 10
-4.2074
 20
16.8195
 30
0.0
 10
-4.2074
 20
16.8195
 30
0.0
 10
-4.2074
 20
16.8195
 30
0.0
 10
-4.2074
 20
16.8195
 30
0.0
 10
-4.2074
 20
16.336
 30
0.0
 10
-4.2074
 20
16.336
 30
0.0
 10
-4.2074
 20
16.336
 30
0.0
 10
-4.2074
 20
16.336
 30
0.0
 10
-4.4558
 20
16.336
 30
0.0
 10
-4.4558
 20
16.336
 30
0.0
  0
SPLINE
  5
70
330
1F
100
AcDbEntity
  8
AXIS
 62
   250
100
AcDbSpline
210
0.0
220
0.0
230
1.0
 70
    11
 71
     3
 72
    16
 73
    12
 74
     0
 42
0.0000000001
 43
0.0000000001
 40
0.0
 40
0.0
 40
0.0
 40
0.0
 40
0.25
 40
0.25
 40
0.25
 40
0.25
 40
0.5
 40
0.5
 40
0.5
 40
0.5
 40
1.0
 40
1.0
 40
1.0
 40
1.0
 10
-4.4558
 20
17.0472
 30
0.0
 10
-4.4558
 20
17.0472
 30
0.0
 10
-4.4558
 20
17.9578
 30
0.0
 10
-4.4558
 20
17.9578
 30
0.0
 10
-4.4558
 20
17.9578
 30
0.0
 10
-4.4558
 20
17.9578
 30
0.0
 10
-5.0879
 20
17.0472
 30
0.0
 10
-5.0879
 20
17.0472
 30
0.0
 10
-5.0879
 20
17.0472
 30
0.0
 10
-5.0879
 20
17.0472
 30
0.0
 10
-4.4558
 20
17.0472
 30
0.0
 10
-4.4558
 20
17.0472
 30
0.0
  0
SPLINE
  5
71
330
1F
100
AcDbEntity
  8
AXIS
 62
   250
100
AcDbSpline
210
0.0
220
0.0
230
1.0
 70
    11
 71
     3
 72
    48
 73
    44
 74
     0
 42
0.0000000001
 43
0.0000000001
 40
0.0
 40
0.0
 40
0.0
 40
0.0
 40
0.0833333333333333
 40
0.0833333333333333
 40
0.0833333333333333
 40
0.0833333333333333
 40
0.1666666666666667
 40
0.1666666666666667
 40
0.1666666666666667
 40
0.1666666666666667
 40
0.25
 40
0.25
 40
0.25
 40
0.25
 40
0.3333333333333333
 40
0.3333333333333333
 40
0.3333333333333333
 40
0.3333333333333333
 40
0.4166666666666667
 40
0.4166666666666667
 40
0.4166666666666667
 40
0.4166666666666667
 40
0.5
 40
0.5
 40
0.5
 40
0.5
 40
0.5833333333333334
 40
0.5833333333333334
 40
0.5833333333333334
 40
0.5833333333333334
 40
0.6666666666666666
 40
0.6666666666666666
 40
0.6666666666666666
 40
0.6666666666666666
 40
0.75
 40
0.75
 40
0.75
 40
0.75
 40
0.8333333333333334
 40
0.8333333333333334
 40
0.8333333333333334
 40
0.8333333333333334
 40
1.0
 40
1.0
 40
1.0
 40
1.0
 10
-3.6646
 20
18.0914
 30
0.0
 10
-3.6646
 20
18.0914
 30
0.0
 10
-3.6646
 20
18.3299
 30
0.0
 10
-3.6646
 20
18.3299
 30
0.0
 10
-3.6646
 20
18.3299
 30
0.0
 10
-3.6646
 20
18.3299
 30
0.0
 10
-2.357
 20
18.3299
 30
0.0
 10
-2.357
 20
18.3299
 30
0.0
 10
-2.357
 20
18.3299
 30
0.0
 10
-2.357
 20
18.3299
 30
0.0
 10
-2.357
 20
18.137
 30
0.0
 10
-2.357
 20
18.137
 30
0.0
 10
-2.357
 20
18.137
 30
0.0
 10
-2.4854
 20
18.0002
 30
0.0
 10
-2.6129
 20
17.8181
 30
0.0
 10
-2.7394
 20
17.5914
 30
0.0
 10
-2.7394
 20
17.5914
 30
0.0
 10
-2.8655
 20
17.3647
 30
0.0
 10
-2.9633
 20
17.1309
 30
0.0
 10
-3.032
 20
16.8915
 30
0.0
 10
-3.032
 20
16.8915
 30
0.0
 10
-3.0818
 20
16.7222
 30
0.0
 10
-3.1133
 20
16.5373
 30
0.0
 10
-3.127
 20
16.336
 30
0.0
 10
-3.127
 20
16.336
 30
0.0
 10
-3.127
 20
16.336
 30
0.0
 10
-3.3819
 20
16.336
 30
0.0
 10
-3.3819
 20
16.336
 30
0.0
 10
-3.3819
 20
16.336
 30
0.0
 10
-3.3791
 20
16.495
 30
0.0
 10
-3.3481
 20
16.6869
 30
0.0
 10
-3.2883
 20
16.9122
 30
0.0
 10
-3.2883
 20
16.9122
 30
0.0
 10
-3.2286
 20
17.137
 30
0.0
 10
-3.143
 20
17.3543
 30
0.0
 10
-3.0315
 20
17.5632
 30
0.0
 10
-3.0315
 20
17.5632
 30
0.0
 10
-2.9196
 20
17.772
 30
0.0
 10
-2.801
 20
17.9484
 30
0.0
 10
-2.675
 20
18.0914
 30
0.0
 10
-2.675
 20
18.0914
 30
0.0
 10
-2.675
 20
18.0914
 30
0.0
 10
-3.6646
 20
18.0914
 30
0.0
 10
-3.6646
 20
18.0914
 30
0.0
  0
SPLINE
  5
72
330
1F
100
AcDbEntity
  8
AXIS
 62
   250
100
AcDbSpline
210
0.0
220
0.0
230
1.0
 70
    11
 71
     3
 72
    40
 73
    36
 74
     0
 42
0.0000000001
 43
0.0000000001
 40
0.0
 40
0.0
 40
0.0
 40
0.0
 40
0.1
 40
0.1
 40
0.1
 40
0.1
 40
0.2
 40
0.2
 40
0.2
 40
0.2
 40
0.3
 40
0.3
 40
0.3
 40
0.3
 40
0.4
 40
0.4
 40
0.4
 40
0.4
 40
0.5
 40
0.5
 40
0.5
 40
0.5
 40
0.6
 40
0.6
 40
0.6
 40
0.6
 40
0.7
 40
0.7
 40
0.7
 40
0.7
 40
0.8
 40
0.8
 40
0.8
 40
0.8
 40
1.0
 40
1.0
 40
1.0
 40
1.0
 10
-6.093
 20
-16.7339
 30
0.0
 10
-6.093
 20
-16.7339
 30
0.0
 10
-6.3409
 20
-16.7339
 30
0.0
 10
-6.3409
 20
-16.7339
 30
0.0
 10
-6.3409
 20
-16.7339
 30
0.0
 10
-6.3409
 20
-16.7339
 30
0.0
 10
-6.3409
 20
-15.1535
 30
0.0
 10
-6.3409
 20
-15.1535
 30
0.0
 10
-6.3409
 20
-15.1535
 30
0.0
 10
-6.4007
 20
-15.2104
 30
0.0
 10
-6.4787
 20
-15.2673
 30
0.0
 10
-6.5756
 20
-15.3242
 30
0.0
 10
-6.5756
 20
-15.3242
 30
0.0
 10
-6.673
 20
-15.3811
 30
0.0
 10
-6.76
 20
-15.4239
 30
0.0
 10
-6.8372
 20
-15.4522
 30
0.0
 10
-6.8372
 20
-15.4522
 30
0.0
 10
-6.8372
 20
-15.4522
 30
0.0
 10
-6.8372
 20
-15.2127
 30
0.0
 10
-6.8372
 20
-15.2127
 30
0.0
 10
-6.8372
 20
-15.2127
 30
0.0
 10
-6.6984
 20
-15.1474
 30
0.0
 10
-6.577
 20
-15.0683
 30
0.0
 10
-6.4731
 20
-14.9757
 30
0.0
 10
-6.4731
 20
-14.9757
 30
0.0
 10
-6.3696
 20
-14.8825
 30
0.0
 10
-6.2958
 20
-14.7927
 30
0.0
 10
-6.2525
 20
-14.7052
 30
0.0
 10
-6.2525
 20
-14.7052
 30
0.0
 10
-6.2525
 20
-14.7052
 30
0.0
 10
-6.093
 20
-14.7052
 30
0.0
 10
-6.093
 20
-14.7052
 30
0.0
 10
-6.093
 20
-14.7052
 30
0.0
 10
-6.093
 20
-14.7052
 30
0.0
 10
-6.093
 20
-16.7339
 30
0.0
 10
-6.093
 20
-16.7339
 30
0.0
  0
SPLINE
  5
73
330
1F
100
AcDbEntity
  8
AXIS
 62
   250
100
AcDbSpline
210
0.0
220
0.0
230
1.0
 70
    11
 71
     3
 72
    80
 73
    76
 74
     0
 42
0.0000000001
 43
0.0000000001
 40
0.0
 40
0.0
 40
0.0
 40
0.0
 40
0.05
 40
0.05
 40
0.05
 40
0.05
 40
0.1
 40
0.1
 40
0.1
 40
0.1
 40
0.15
 40
0.15
 40
0.15
 40
0.15
 40
0.2
 40
0.2
 40
0.2
 40
0.2
 40
0.25
 40
0.25
 40
0.25
 40
0.25
 40
0.3
 40
0.3
 40
0.3
 40
0.3
 40
0.35
 40
0.35
 40
0.35
 40
0.35
 40
0.4
 40
0.4
 40
0.4
 40
0.4
 40
0.45
 40
0.45
 40
0.45
 40
0.45
 40
0.5
 40
0.5
 40
0.5
 40
0.5
 40
0.55
 40
0.55
 40
0.55
 40
0.55
 40
0.6
 40
0.6
 40
0.6
 40
0.6
 40
0.65
 40
0.65
 40
0.65
 40
0.65
 40
0.7
 40
0.7
 40
0.7
 40
0.7
 40
0.75
 40
0.75
 40
0.75
 40
0.75
 40
0.8
 40
0.8
 40
0.8
 40
0.8
 40
0.85
 40
0.85
 40
0.85
 40
0.85
 40
0.9
 40
0.9
 40
0.9
 40
0.9
 40
1.0
 40
1.0
 40
1.0
 40
1.0
 10
-4.1707
 20
-15.2085
 30
0.0
 10
-4.1707
 20
-15.2085
 30
0.0
 10
-4.4171
 20
-15.2278
 30
0.0
 10
-4.4171
 20
-15.2278
 30
0.0
 10
-4.4171
 20
-15.2278
 30
0.0
 10
-4.4392
 20
-15.1304
 30
0.0
 10
-4.4703
 20
-15.0594
 30
0.0
 10
-4.5107
 20
-15.0157
 30
0.0
 10
-4.5107
 20
-15.0157
 30
0.0
 10
-4.578
 20
-14.9446
 30
0.0
 10
-4.6608
 20
-14.9093
 30
0.0
 10
-4.7591
 20
-14.9093
 30
0.0
 10
-4.7591
 20
-14.9093
 30
0.0
 10
-4.8381
 20
-14.9093
 30
0.0
 10
-4.9072
 20
-14.9315
 30
0.0
 10
-4.967
 20
-14.9757
 30
0.0
 10
-4.967
 20
-14.9757
 30
0.0
 10
-5.0451
 20
-15.0326
 30
0.0
 10
-5.1067
 20
-15.1158
 30
0.0
 10
-5.1518
 20
-15.225
 30
0.0
 10
-5.1518
 20
-15.225
 30
0.0
 10
-5.1965
 20
-15.3341
 30
0.0
 10
-5.22
 20
-15.4898
 30
0.0
 10
-5.2219
 20
-15.692
 30
0.0
 10
-5.2219
 20
-15.692
 30
0.0
 10
-5.1622
 20
-15.6013
 30
0.0
 10
-5.0893
 20
-15.5335
 30
0.0
 10
-5.0027
 20
-15.4893
 30
0.0
 10
-5.0027
 20
-15.4893
 30
0.0
 10
-4.9167
 20
-15.4456
 30
0.0
 10
-4.8259
 20
-15.4235
 30
0.0
 10
-4.7313
 20
-15.4235
 30
0.0
 10
-4.7313
 20
-15.4235
 30
0.0
 10
-4.5658
 20
-15.4235
 30
0.0
 10
-4.4251
 20
-15.4841
 30
0.0
 10
-4.3089
 20
-15.606
 30
0.0
 10
-4.3089
 20
-15.606
 30
0.0
 10
-4.1928
 20
-15.7278
 30
0.0
 10
-4.1344
 20
-15.8849
 30
0.0
 10
-4.1344
 20
-16.0777
 30
0.0
 10
-4.1344
 20
-16.0777
 30
0.0
 10
-4.1344
 20
-16.2047
 30
0.0
 10
-4.1622
 20
-16.3223
 30
0.0
 10
-4.2168
 20
-16.4315
 30
0.0
 10
-4.2168
 20
-16.4315
 30
0.0
 10
-4.2713
 20
-16.5401
 30
0.0
 10
-4.3466
 20
-16.6238
 30
0.0
 10
-4.4421
 20
-16.6817
 30
0.0
 10
-4.4421
 20
-16.6817
 30
0.0
 10
-4.5375
 20
-16.7395
 30
0.0
 10
-4.6457
 20
-16.7682
 30
0.0
 10
-4.7671
 20
-16.7682
 30
0.0
 10
-4.7671
 20
-16.7682
 30
0.0
 10
-4.974
 20
-16.7682
 30
0.0
 10
-5.1424
 20
-16.6925
 30
0.0
 10
-5.2727
 20
-16.5401
 30
0.0
 10
-5.2727
 20
-16.5401
 30
0.0
 10
-5.4035
 20
-16.3882
 30
0.0
 10
-5.4684
 20
-16.1375
 30
0.0
 10
-5.4684
 20
-15.7885
 30
0.0
 10
-5.4684
 20
-15.7885
 30
0.0
 10
-5.4684
 20
-15.3981
 30
0.0
 10
-5.3964
 20
-15.1144
 30
0.0
 10
-5.252
 20
-14.9371
 30
0.0
 10
-5.252
 20
-14.9371
 30
0.0
 10
-5.1264
 20
-14.7828
 30
0.0
 10
-4.9571
 20
-14.7052
 30
0.0
 10
-4.7436
 20
-14.7052
 30
0.0
 10
-4.7436
 20
-14.7052
 30
0.0
 10
-4.585
 20
-14.7052
 30
0.0
 10
-4.4548
 20
-14.7499
 30
0.0
 10
-4.3532
 20
-14.8393
 30
0.0
 10
-4.3532
 20
-14.8393
 30
0.0
 10
-4.2516
 20
-14.9282
 30
0.0
 10
-4.1909
 20
-15.0514
 30
0.0
 10
-4.1707
 20
-15.2085
 30
0.0
  0
SPLINE
  5
74
330
1F
100
AcDbEntity
  8
AXIS
 62
   250
100
AcDbSpline
210
0.0
220
0.0
230
1.0
 70
    11
 71
     3
 72
    40
 73
    36
 74
     0
 42
0.0000000001
 43
0.0000000001
 40
0.0
 40
0.0
 40
0.0
 40
0.0
 40
0.1
 40
0.1
 40
0.1
 40
0.1
 40
0.2
 40
0.2
 40
0.2
 40
0.2
 40
0.3
 40
0.3
 40
0.3
 40
0.3
 40
0.4
 40
0.4
 40
0.4
 40
0.4
 40
0.5
 40
0.5
 40
0.5
 40
0.5
 40
0.6
 40
0.6
 40
0.6
 40
0.6
 40
0.7
 40
0.7
 40
0.7
 40
0.7
 40
0.8
 40
0.8
 40
0.8
 40
0.8
 40
1.0
 40
1.0
 40
1.0
 40
1.0
 10
-5.1834
 20
-16.0791
 30
0.0
 10
-5.1834
 20
-16.1648
 30
0.0
 10
-5.165
 20
-16.2466
 30
0.0
 10
-5.1288
 20
-16.3247
 30
0.0
 10
-5.1288
 20
-16.3247
 30
0.0
 10
-5.0926
 20
-16.4028
 30
0.0
 10
-5.0418
 20
-16.462
 30
0.0
 10
-4.9769
 20
-16.5029
 30
0.0
 10
-4.9769
 20
-16.5029
 30
0.0
 10
-4.9115
 20
-16.5439
 30
0.0
 10
-4.8428
 20
-16.5646
 30
0.0
 10
-4.7713
 20
-16.5646
 30
0.0
 10
-4.7713
 20
-16.5646
 30
0.0
 10
-4.6664
 20
-16.5646
 30
0.0
 10
-4.5766
 20
-16.5222
 30
0.0
 10
-4.5013
 20
-16.4376
 30
0.0
 10
-4.5013
 20
-16.4376
 30
0.0
 10
-4.4261
 20
-16.3529
 30
0.0
 10
-4.3884
 20
-16.2381
 30
0.0
 10
-4.3884
 20
-16.0933
 30
0.0
 10
-4.3884
 20
-16.0933
 30
0.0
 10
-4.3884
 20
-15.9536
 30
0.0
 10
-4.4256
 20
-15.8435
 30
0.0
 10
-4.4999
 20
-15.7631
 30
0.0
 10
-4.4999
 20
-15.7631
 30
0.0
 10
-4.5742
 20
-15.6826
 30
0.0
 10
-4.6678
 20
-15.6426
 30
0.0
 10
-4.7807
 20
-15.6426
 30
0.0
 10
-4.7807
 20
-15.6426
 30
0.0
 10
-4.8931
 20
-15.6426
 30
0.0
 10
-4.9882
 20
-15.6826
 30
0.0
 10
-5.0662
 20
-15.7631
 30
0.0
 10
-5.0662
 20
-15.7631
 30
0.0
 10
-5.1443
 20
-15.8435
 30
0.0
 10
-5.1834
 20
-15.9489
 30
0.0
 10
-5.1834
 20
-16.0791
 30
0.0
  0
SPLINE
  5
75
330
1F
100
AcDbEntity
  8
AXIS
 62
   250
100
AcDbSpline
210
0.0
220
0.0
230
1.0
 70
    11
 71
     3
 72
    68
 73
    64
 74
     0
 42
0.0000000001
 43
0.0000000001
 40
0.0
 40
0.0
 40
0.0
 40
0.0
 40
0.0588235294117647
 40
0.0588235294117647
 40
0.0588235294117647
 40
0.0588235294117647
 40
0.1176470588235294
 40
0.1176470588235294
 40
0.1176470588235294
 40
0.1176470588235294
 40
0.1764705882352941
 40
0.1764705882352941
 40
0.1764705882352941
 40
0.1764705882352941
 40
0.2352941176470588
 40
0.2352941176470588
 40
0.2352941176470588
 40
0.2352941176470588
 40
0.2941176470588235
 40
0.2941176470588235
 40
0.2941176470588235
 40
0.2941176470588235
 40
0.3529411764705883
 40
0.3529411764705883
 40
0.3529411764705883
 40
0.3529411764705883
 40
0.4117647058823529
 40
0.4117647058823529
 40
0.4117647058823529
 40
0.4117647058823529
 40
0.4705882352941176
 40
0.4705882352941176
 40
0.4705882352941176
 40
0.4705882352941176
 40
0.5294117647058824
 40
0.5294117647058824
 40
0.5294117647058824
 40
0.5294117647058824
 40
0.5882352941176471
 40
0.5882352941176471
 40
0.5882352941176471
 40
0.5882352941176471
 40
0.6470588235294118
 40
0.6470588235294118
 40
0.6470588235294118
 40
0.6470588235294118
 40
0.7058823529411765
 40
0.7058823529411765
 40
0.7058823529411765
 40
0.7058823529411765
 40
0.7647058823529411
 40
0.7647058823529411
 40
0.7647058823529411
 40
0.7647058823529411
 40
0.8235294117647058
 40
0.8235294117647058
 40
0.8235294117647058
 40
0.8235294117647058
 40
0.8823529411764706
 40
0.8823529411764706
 40
0.8823529411764706
 40
0.8823529411764706
 40
1.0
 40
1.0
 40
1.0
 40
1.0
 10
-3.506
 20
-15.6384
 30
0.0
 10
-3.6091
 20
-15.6008
 30
0.0
 10
-3.6853
 20
-15.5472
 30
0.0
 10
-3.7351
 20
-15.4771
 30
0.0
 10
-3.7351
 20
-15.4771
 30
0.0
 10
-3.7845
 20
-15.4075
 30
0.0
 10
-3.8094
 20
-15.3237
 30
0.0
 10
-3.8094
 20
-15.2264
 30
0.0
 10
-3.8094
 20
-15.2264
 30
0.0
 10
-3.8094
 20
-15.0792
 30
0.0
 10
-3.7567
 20
-14.9559
 30
0.0
 10
-3.6509
 20
-14.8557
 30
0.0
 10
-3.6509
 20
-14.8557
 30
0.0
 10
-3.5451
 20
-14.7555
 30
0.0
 10
-3.4049
 20
-14.7052
 30
0.0
 10
-3.2295
 20
-14.7052
 30
0.0
 10
-3.2295
 20
-14.7052
 30
0.0
 10
-3.0531
 20
-14.7052
 30
0.0
 10
-2.911
 20
-14.7565
 30
0.0
 10
-2.8033
 20
-14.859
 30
0.0
 10
-2.8033
 20
-14.859
 30
0.0
 10
-2.6961
 20
-14.9616
 30
0.0
 10
-2.6424
 20
-15.0862
 30
0.0
 10
-2.6424
 20
-15.2334
 30
0.0
 10
-2.6424
 20
-15.2334
 30
0.0
 10
-2.6424
 20
-15.327
 30
0.0
 10
-2.6669
 20
-15.4084
 30
0.0
 10
-2.7158
 20
-15.478
 30
0.0
 10
-2.7158
 20
-15.478
 30
0.0
 10
-2.7652
 20
-15.5472
 30
0.0
 10
-2.8395
 20
-15.6008
 30
0.0
 10
-2.9397
 20
-15.6384
 30
0.0
 10
-2.9397
 20
-15.6384
 30
0.0
 10
-2.816
 20
-15.6789
 30
0.0
 10
-2.7215
 20
-15.7438
 30
0.0
 10
-2.6566
 20
-15.8341
 30
0.0
 10
-2.6566
 20
-15.8341
 30
0.0
 10
-2.5921
 20
-15.9239
 30
0.0
 10
-2.5597
 20
-16.0316
 30
0.0
 10
-2.5597
 20
-16.1563
 30
0.0
 10
-2.5597
 20
-16.1563
 30
0.0
 10
-2.5597
 20
-16.3294
 30
0.0
 10
-2.6208
 20
-16.4743
 30
0.0
 10
-2.7426
 20
-16.5918
 30
0.0
 10
-2.7426
 20
-16.5918
 30
0.0
 10
-2.8649
 20
-16.7094
 30
0.0
 10
-3.0258
 20
-16.7682
 30
0.0
 10
-3.2252
 20
-16.7682
 30
0.0
 10
-3.2252
 20
-16.7682
 30
0.0
 10
-3.4247
 20
-16.7682
 30
0.0
 10
-3.5851
 20
-16.7094
 30
0.0
 10
-3.7074
 20
-16.5914
 30
0.0
 10
-3.7074
 20
-16.5914
 30
0.0
 10
-3.8297
 20
-16.4733
 30
0.0
 10
-3.8908
 20
-16.3261
 30
0.0
 10
-3.8908
 20
-16.1497
 30
0.0
 10
-3.8908
 20
-16.1497
 30
0.0
 10
-3.8908
 20
-16.0185
 30
0.0
 10
-3.8574
 20
-15.9084
 30
0.0
 10
-3.7906
 20
-15.8195
 30
0.0
 10
-3.7906
 20
-15.8195
 30
0.0
 10
-3.7243
 20
-15.7311
 30
0.0
 10
-3.6293
 20
-15.6704
 30
0.0
 10
-3.506
 20
-15.6384
 30
0.0
  0
SPLINE
  5
76
330
1F
100
AcDbEntity
  8
AXIS
 62
   250
100
AcDbSpline
210
0.0
220
0.0
230
1.0
 70
    11
 71
     3
 72
    36
 73
    32
 74
     0
 42
0.0000000001
 43
0.0000000001
 40
0.0
 40
0.0
 40
0.0
 40
0.0
 40
0.1111111111111111
 40
0.1111111111111111
 40
0.1111111111111111
 40
0.1111111111111111
 40
0.2222222222222222
 40
0.2222222222222222
 40
0.2222222222222222
 40
0.2222222222222222
 40
0.3333333333333333
 40
0.3333333333333333
 40
0.3333333333333333
 40
0.3333333333333333
 40
0.4444444444444444
 40
0.4444444444444444
 40
0.4444444444444444
 40
0.4444444444444444
 40
0.5555555555555556
 40
0.5555555555555556
 40
0.5555555555555556
 40
0.5555555555555556
 40
0.6666666666666666
 40
0.6666666666666666
 40
0.6666666666666666
 40
0.6666666666666666
 40
0.7777777777777778
 40
0.7777777777777778
 40
0.7777777777777778
 40
0.7777777777777778
 40
1.0
 40
1.0
 40
1.0
 40
1.0
 10
-3.5559
 20
-15.2179
 30
0.0
 10
-3.5559
 20
-15.3134
 30
0.0
 10
-3.5249
 20
-15.3915
 30
0.0
 10
-3.4637
 20
-15.4522
 30
0.0
 10
-3.4637
 20
-15.4522
 30
0.0
 10
-3.4021
 20
-15.5128
 30
0.0
 10
-3.3221
 20
-15.5434
 30
0.0
 10
-3.2238
 20
-15.5434
 30
0.0
 10
-3.2238
 20
-15.5434
 30
0.0
 10
-3.1283
 20
-15.5434
 30
0.0
 10
-3.0498
 20
-15.5133
 30
0.0
 10
-2.9886
 20
-15.4531
 30
0.0
 10
-2.9886
 20
-15.4531
 30
0.0
 10
-2.9275
 20
-15.3929
 30
0.0
 10
-2.8974
 20
-15.319
 30
0.0
 10
-2.8974
 20
-15.232
 30
0.0
 10
-2.8974
 20
-15.232
 30
0.0
 10
-2.8974
 20
-15.1408
 30
0.0
 10
-2.9284
 20
-15.0646
 30
0.0
 10
-2.9915
 20
-15.0025
 30
0.0
 10
-2.9915
 20
-15.0025
 30
0.0
 10
-3.0545
 20
-14.9404
 30
0.0
 10
-3.1326
 20
-14.9093
 30
0.0
 10
-3.2266
 20
-14.9093
 30
0.0
 10
-3.2266
 20
-14.9093
 30
0.0
 10
-3.3212
 20
-14.9093
 30
0.0
 10
-3.3997
 20
-14.9399
 30
0.0
 10
-3.4623
 20
-15.0001
 30
0.0
 10
-3.4623
 20
-15.0001
 30
0.0
 10
-3.5249
 20
-15.0608
 30
0.0
 10
-3.5559
 20
-15.1337
 30
0.0
 10
-3.5559
 20
-15.2179
 30
0.0
  0
SPLINE
  5
77
330
1F
100
AcDbEntity
  8
AXIS
 62
   250
100
AcDbSpline
210
0.0
220
0.0
230
1.0
 70
    11
 71
     3
 72
    40
 73
    36
 74
     0
 42
0.0000000001
 43
0.0000000001
 40
0.0
 40
0.0
 40
0.0
 40
0.0
 40
0.1
 40
0.1
 40
0.1
 40
0.1
 40
0.2
 40
0.2
 40
0.2
 40
0.2
 40
0.3
 40
0.3
 40
0.3
 40
0.3
 40
0.4
 40
0.4
 40
0.4
 40
0.4
 40
0.5
 40
0.5
 40
0.5
 40
0.5
 40
0.6
 40
0.6
 40
0.6
 40
0.6
 40
0.7
 40
0.7
 40
0.7
 40
0.7
 40
0.8
 40
0.8
 40
0.8
 40
0.8
 40
1.0
 40
1.0
 40
1.0
 40
1.0
 10
-3.6359
 20
-16.1511
 30
0.0
 10
-3.6359
 20
-16.2217
 30
0.0
 10
-3.6189
 20
-16.2903
 30
0.0
 10
-3.5855
 20
-16.3562
 30
0.0
 10
-3.5855
 20
-16.3562
 30
0.0
 10
-3.5521
 20
-16.4225
 30
0.0
 10
-3.5023
 20
-16.4738
 30
0.0
 10
-3.436
 20
-16.51
 30
0.0
 10
-3.436
 20
-16.51
 30
0.0
 10
-3.3696
 20
-16.5462
 30
0.0
 10
-3.2986
 20
-16.5646
 30
0.0
 10
-3.2224
 20
-16.5646
 30
0.0
 10
-3.2224
 20
-16.5646
 30
0.0
 10
-3.1039
 20
-16.5646
 30
0.0
 10
-3.006
 20
-16.5265
 30
0.0
 10
-2.9289
 20
-16.4498
 30
0.0
 10
-2.9289
 20
-16.4498
 30
0.0
 10
-2.8518
 20
-16.3736
 30
0.0
 10
-2.8132
 20
-16.2767
 30
0.0
 10
-2.8132
 20
-16.1591
 30
0.0
 10
-2.8132
 20
-16.1591
 30
0.0
 10
-2.8132
 20
-16.0396
 30
0.0
 10
-2.8527
 20
-15.9409
 30
0.0
 10
-2.9322
 20
-15.8628
 30
0.0
 10
-2.9322
 20
-15.8628
 30
0.0
 10
-3.0117
 20
-15.7847
 30
0.0
 10
-3.1114
 20
-15.7457
 30
0.0
 10
-3.2309
 20
-15.7457
 30
0.0
 10
-3.2309
 20
-15.7457
 30
0.0
 10
-3.3475
 20
-15.7457
 30
0.0
 10
-3.444
 20
-15.7842
 30
0.0
 10
-3.5206
 20
-15.8614
 30
0.0
 10
-3.5206
 20
-15.8614
 30
0.0
 10
-3.5973
 20
-15.939
 30
0.0
 10
-3.6359
 20
-16.0354
 30
0.0
 10
-3.6359
 20
-16.1511
 30
0.0
  0
SPLINE
  5
78
330
1F
100
AcDbEntity
  8
AXIS
 62
   250
100
AcDbSpline
210
0.0
220
0.0
230
1.0
 70
    11
 71
     3
 72
    40
 73
    36
 74
     0
 42
0.0000000001
 43
0.0000000001
 40
0.0
 40
0.0
 40
0.0
 40
0.0
 40
0.1
 40
0.1
 40
0.1
 40
0.1
 40
0.2
 40
0.2
 40
0.2
 40
0.2
 40
0.3
 40
0.3
 40
0.3
 40
0.3
 40
0.4
 40
0.4
 40
0.4
 40
0.4
 40
0.5
 40
0.5
 40
0.5
 40
0.5
 40
0.6
 40
0.6
 40
0.6
 40
0.6
 40
0.7
 40
0.7
 40
0.7
 40
0.7
 40
0.8
 40
0.8
 40
0.8
 40
0.8
 40
1.0
 40
1.0
 40
1.0
 40
1.0
 10
-27.625
 20
-1.33
 30
0.0
 10
-27.625
 20
-1.33
 30
0.0
 10
-27.625
 20
-1.5779
 30
0.0
 10
-27.625
 20
-1.5779
 30
0.0
 10
-27.625
 20
-1.5779
 30
0.0
 10
-27.625
 20
-1.5779
 30
0.0
 10
-29.2054
 20
-1.5779
 30
0.0
 10
-29.2054
 20
-1.5779
 30
0.0
 10
-29.2054
 20
-1.5779
 30
0.0
 10
-29.1485
 20
-1.6377
 30
0.0
 10
-29.0916
 20
-1.7157
 30
0.0
 10
-29.0347
 20
-1.8126
 30
0.0
 10
-29.0347
 20
-1.8126
 30
0.0
 10
-28.9778
 20
-1.91
 30
0.0
 10
-28.935
 20
-1.997
 30
0.0
 10
-28.9067
 20
-2.0742
 30
0.0
 10
-28.9067
 20
-2.0742
 30
0.0
 10
-28.9067
 20
-2.0742
 30
0.0
 10
-29.1462
 20
-2.0742
 30
0.0
 10
-29.1462
 20
-2.0742
 30
0.0
 10
-29.1462
 20
-2.0742
 30
0.0
 10
-29.2115
 20
-1.9354
 30
0.0
 10
-29.2906
 20
-1.814
 30
0.0
 10
-29.3832
 20
-1.7101
 30
0.0
 10
-29.3832
 20
-1.7101
 30
0.0
 10
-29.4764
 20
-1.6066
 30
0.0
 10
-29.5662
 20
-1.5328
 30
0.0
 10
-29.6537
 20
-1.4895
 30
0.0
 10
-29.6537
 20
-1.4895
 30
0.0
 10
-29.6537
 20
-1.4895
 30
0.0
 10
-29.6537
 20
-1.33
 30
0.0
 10
-29.6537
 20
-1.33
 30
0.0
 10
-29.6537
 20
-1.33
 30
0.0
 10
-29.6537
 20
-1.33
 30
0.0
 10
-27.625
 20
-1.33
 30
0.0
 10
-27.625
 20
-1.33
 30
0.0
  0
SPLINE
  5
79
330
1F
100
AcDbEntity
  8
AXIS
 62
   250
100
AcDbSpline
210
0.0
220
0.0
230
1.0
 70
    11
 71
     3
 72
    80
 73
    76
 74
     0
 42
0.0000000001
 43
0.0000000001
 40
0.0
 40
0.0
 40
0.0
 40
0.0
 40
0.05
 40
0.05
 40
0.05
 40
0.05
 40
0.1
 40
0.1
 40
0.1
 40
0.1
 40
0.15
 40
0.15
 40
0.15
 40
0.15
 40
0.2
 40
0.2
 40
0.2
 40
0.2
 40
0.25
 40
0.25
 40
0.25
 40
0.25
 40
0.3
 40
0.3
 40
0.3
 40
0.3
 40
0.35
 40
0.35
 40
0.35
 40
0.35
 40
0.4
 40
0.4
 40
0.4
 40
0.4
 40
0.45
 40
0.45
 40
0.45
 40
0.45
 40
0.5
 40
0.5
 40
0.5
 40
0.5
 40
0.55
 40
0.55
 40
0.55
 40
0.55
 40
0.6
 40
0.6
 40
0.6
 40
0.6
 40
0.65
 40
0.65
 40
0.65
 40
0.65
 40
0.7
 40
0.7
 40
0.7
 40
0.7
 40
0.75
 40
0.75
 40
0.75
 40
0.75
 40
0.8
 40
0.8
 40
0.8
 40
0.8
 40
0.85
 40
0.85
 40
0.85
 40
0.85
 40
0.9
 40
0.9
 40
0.9
 40
0.9
 40
1.0
 40
1.0
 40
1.0
 40
1.0
 10
-29.1504
 20
0.5923
 30
0.0
 10
-29.1504
 20
0.5923
 30
0.0
 10
-29.1311
 20
0.3459
 30
0.0
 10
-29.1311
 20
0.3459
 30
0.0
 10
-29.1311
 20
0.3459
 30
0.0
 10
-29.2285
 20
0.3238
 30
0.0
 10
-29.2995
 20
0.2927
 30
0.0
 10
-29.3432
 20
0.2523
 30
0.0
 10
-29.3432
 20
0.2523
 30
0.0
 10
-29.4143
 20
0.185
 30
0.0
 10
-29.4496
 20
0.1022
 30
0.0
 10
-29.4496
 20
0.0039
 30
0.0
 10
-29.4496
 20
0.0039
 30
0.0
 10
-29.4496
 20
-0.0751
 30
0.0
 10
-29.4274
 20
-0.1442
 30
0.0
 10
-29.3832
 20
-0.204
 30
0.0
 10
-29.3832
 20
-0.204
 30
0.0
 10
-29.3263
 20
-0.2821
 30
0.0
 10
-29.2431
 20
-0.3437
 30
0.0
 10
-29.1339
 20
-0.3888
 30
0.0
 10
-29.1339
 20
-0.3888
 30
0.0
 10
-29.0248
 20
-0.4335
 30
0.0
 10
-28.8691
 20
-0.457
 30
0.0
 10
-28.6669
 20
-0.4589
 30
0.0
 10
-28.6669
 20
-0.4589
 30
0.0
 10
-28.7576
 20
-0.3992
 30
0.0
 10
-28.8254
 20
-0.3263
 30
0.0
 10
-28.8696
 20
-0.2397
 30
0.0
 10
-28.8696
 20
-0.2397
 30
0.0
 10
-28.9133
 20
-0.1537
 30
0.0
 10
-28.9354
 20
-0.0629
 30
0.0
 10
-28.9354
 20
0.0317
 30
0.0
 10
-28.9354
 20
0.0317
 30
0.0
 10
-28.9354
 20
0.1972
 30
0.0
 10
-28.8748
 20
0.3379
 30
0.0
 10
-28.7529
 20
0.4541
 30
0.0
 10
-28.7529
 20
0.4541
 30
0.0
 10
-28.6311
 20
0.5702
 30
0.0
 10
-28.474
 20
0.6286
 30
0.0
 10
-28.2812
 20
0.6286
 30
0.0
 10
-28.2812
 20
0.6286
 30
0.0
 10
-28.1542
 20
0.6286
 30
0.0
 10
-28.0366
 20
0.6008
 30
0.0
 10
-27.9274
 20
0.5462
 30
0.0
 10
-27.9274
 20
0.5462
 30
0.0
 10
-27.8188
 20
0.4917
 30
0.0
 10
-27.7351
 20
0.4164
 30
0.0
 10
-27.6772
 20
0.3209
 30
0.0
 10
-27.6772
 20
0.3209
 30
0.0
 10
-27.6194
 20
0.2255
 30
0.0
 10
-27.5907
 20
0.1173
 30
0.0
 10
-27.5907
 20
-0.0041
 30
0.0
 10
-27.5907
 20
-0.0041
 30
0.0
 10
-27.5907
 20
-0.211
 30
0.0
 10
-27.6664
 20
-0.3794
 30
0.0
 10
-27.8188
 20
-0.5097
 30
0.0
 10
-27.8188
 20
-0.5097
 30
0.0
 10
-27.9707
 20
-0.6405
 30
0.0
 10
-28.2214
 20
-0.7054
 30
0.0
 10
-28.5704
 20
-0.7054
 30
0.0
 10
-28.5704
 20
-0.7054
 30
0.0
 10
-28.9608
 20
-0.7054
 30
0.0
 10
-29.2445
 20
-0.6334
 30
0.0
 10
-29.4218
 20
-0.489
 30
0.0
 10
-29.4218
 20
-0.489
 30
0.0
 10
-29.5761
 20
-0.3634
 30
0.0
 10
-29.6537
 20
-0.1941
 30
0.0
 10
-29.6537
 20
0.0194
 30
0.0
 10
-29.6537
 20
0.0194
 30
0.0
 10
-29.6537
 20
0.178
 30
0.0
 10
-29.609
 20
0.3082
 30
0.0
 10
-29.5196
 20
0.4098
 30
0.0
 10
-29.5196
 20
0.4098
 30
0.0
 10
-29.4307
 20
0.5114
 30
0.0
 10
-29.3075
 20
0.5721
 30
0.0
 10
-29.1504
 20
0.5923
 30
0.0
  0
SPLINE
  5
7A
330
1F
100
AcDbEntity
  8
AXIS
 62
   250
100
AcDbSpline
210
0.0
220
0.0
230
1.0
 70
    11
 71
     3
 72
    40
 73
    36
 74
     0
 42
0.0000000001
 43
0.0000000001
 40
0.0
 40
0.0
 40
0.0
 40
0.0
 40
0.1
 40
0.1
 40
0.1
 40
0.1
 40
0.2
 40
0.2
 40
0.2
 40
0.2
 40
0.3
 40
0.3
 40
0.3
 40
0.3
 40
0.4
 40
0.4
 40
0.4
 40
0.4
 40
0.5
 40
0.5
 40
0.5
 40
0.5
 40
0.6
 40
0.6
 40
0.6
 40
0.6
 40
0.7
 40
0.7
 40
0.7
 40
0.7
 40
0.8
 40
0.8
 40
0.8
 40
0.8
 40
1.0
 40
1.0
 40
1.0
 40
1.0
 10
-28.2798
 20
-0.4204
 30
0.0
 10
-28.1941
 20
-0.4204
 30
0.0
 10
-28.1123
 20
-0.402
 30
0.0
 10
-28.0342
 20
-0.3658
 30
0.0
 10
-28.0342
 20
-0.3658
 30
0.0
 10
-27.9561
 20
-0.3296
 30
0.0
 10
-27.8969
 20
-0.2788
 30
0.0
 10
-27.856
 20
-0.2139
 30
0.0
 10
-27.856
 20
-0.2139
 30
0.0
 10
-27.815
 20
-0.1485
 30
0.0
 10
-27.7943
 20
-0.0798
 30
0.0
 10
-27.7943
 20
-0.0083
 30
0.0
 10
-27.7943
 20
-0.0083
 30
0.0
 10
-27.7943
 20
0.0966
 30
0.0
 10
-27.8367
 20
0.1864
 30
0.0
 10
-27.9213
 20
0.2617
 30
0.0
 10
-27.9213
 20
0.2617
 30
0.0
 10
-28.006
 20
0.3369
 30
0.0
 10
-28.1208
 20
0.3746
 30
0.0
 10
-28.2656
 20
0.3746
 30
0.0
 10
-28.2656
 20
0.3746
 30
0.0
 10
-28.4053
 20
0.3746
 30
0.0
 10
-28.5154
 20
0.3374
 30
0.0
 10
-28.5958
 20
0.2631
 30
0.0
 10
-28.5958
 20
0.2631
 30
0.0
 10
-28.6763
 20
0.1888
 30
0.0
 10
-28.7163
 20
0.0952
 30
0.0
 10
-28.7163
 20
-0.0177
 30
0.0
 10
-28.7163
 20
-0.0177
 30
0.0
 10
-28.7163
 20
-0.1301
 30
0.0
 10
-28.6763
 20
-0.2252
 30
0.0
 10
-28.5958
 20
-0.3032
 30
0.0
 10
-28.5958
 20
-0.3032
 30
0.0
 10
-28.5154
 20
-0.3813
 30
0.0
 10
-28.41
 20
-0.4204
 30
0.0
 10
-28.2798
 20
-0.4204
 30
0.0
  0
SPLINE
  5
7B
330
1F
100
AcDbEntity
  8
AXIS
 62
   250
100
AcDbSpline
210
0.0
220
0.0
230
1.0
 70
    11
 71
     3
 72
    92
 73
    88
 74
     0
 42
0.0000000001
 43
0.0000000001
 40
0.0
 40
0.0
 40
0.0
 40
0.0
 40
0.0434782608695652
 40
0.0434782608695652
 40
0.0434782608695652
 40
0.0434782608695652
 40
0.0869565217391304
 40
0.0869565217391304
 40
0.0869565217391304
 40
0.0869565217391304
 40
0.1304347826086956
 40
0.1304347826086956
 40
0.1304347826086956
 40
0.1304347826086956
 40
0.1739130434782609
 40
0.1739130434782609
 40
0.1739130434782609
 40
0.1739130434782609
 40
0.2173913043478261
 40
0.2173913043478261
 40
0.2173913043478261
 40
0.2173913043478261
 40
0.2608695652173913
 40
0.2608695652173913
 40
0.2608695652173913
 40
0.2608695652173913
 40
0.3043478260869565
 40
0.3043478260869565
 40
0.3043478260869565
 40
0.3043478260869565
 40
0.3478260869565217
 40
0.3478260869565217
 40
0.3478260869565217
 40
0.3478260869565217
 40
0.391304347826087
 40
0.391304347826087
 40
0.391304347826087
 40
0.391304347826087
 40
0.4347826086956522
 40
0.4347826086956522
 40
0.4347826086956522
 40
0.4347826086956522
 40
0.4782608695652174
 40
0.4782608695652174
 40
0.4782608695652174
 40
0.4782608695652174
 40
0.5217391304347826
 40
0.5217391304347826
 40
0.5217391304347826
 40
0.5217391304347826
 40
0.5652173913043478
 40
0.5652173913043478
 40
0.5652173913043478
 40
0.5652173913043478
 40
0.6086956521739131
 40
0.6086956521739131
 40
0.6086956521739131
 40
0.6086956521739131
 40
0.6521739130434783
 40
0.6521739130434783
 40
0.6521739130434783
 40
0.6521739130434783
 40
0.6956521739130435
 40
0.6956521739130435
 40
0.6956521739130435
 40
0.6956521739130435
 40
0.7391304347826086
 40
0.7391304347826086
 40
0.7391304347826086
 40
0.7391304347826086
 40
0.782608695652174
 40
0.782608695652174
 40
0.782608695652174
 40
0.782608695652174
 40
0.8260869565217391
 40
0.8260869565217391
 40
0.8260869565217391
 40
0.8260869565217391
 40
0.8695652173913043
 40
0.8695652173913043
 40
0.8695652173913043
 40
0.8695652173913043
 40
0.9130434782608695
 40
0.9130434782608695
 40
0.9130434782608695
 40
0.9130434782608695
 40
1.0
 40
1.0
 40
1.0
 40
1.0
 10
-28.1542
 20
0.875
 30
0.0
 10
-28.1542
 20
0.875
 30
0.0
 10
-28.1763
 20
1.1356
 30
0.0
 10
-28.1763
 20
1.1356
 30
0.0
 10
-28.1763
 20
1.1356
 30
0.0
 10
-28.0493
 20
1.1549
 30
0.0
 10
-27.9543
 20
1.1996
 30
0.0
 10
-27.8903
 20
1.2697
 30
0.0
 10
-27.8903
 20
1.2697
 30
0.0
 10
-27.8263
 20
1.3402
 30
0.0
 10
-27.7943
 20
1.4249
 30
0.0
 10
-27.7943
 20
1.5241
 30
0.0
 10
-27.7943
 20
1.5241
 30
0.0
 10
-27.7943
 20
1.6436
 30
0.0
 10
-27.8395
 20
1.7447
 30
0.0
 10
-27.9293
 20
1.827
 30
0.0
 10
-27.9293
 20
1.827
 30
0.0
 10
-28.0196
 20
1.9098
 30
0.0
 10
-28.1391
 20
1.9512
 30
0.0
 10
-28.2877
 20
1.9512
 30
0.0
 10
-28.2877
 20
1.9512
 30
0.0
 10
-28.4293
 20
1.9512
 30
0.0
 10
-28.5408
 20
1.9117
 30
0.0
 10
-28.6226
 20
1.8322
 30
0.0
 10
-28.6226
 20
1.8322
 30
0.0
 10
-28.7045
 20
1.7527
 30
0.0
 10
-28.7454
 20
1.6488
 30
0.0
 10
-28.7454
 20
1.5199
 30
0.0
 10
-28.7454
 20
1.5199
 30
0.0
 10
-28.7454
 20
1.4399
 30
0.0
 10
-28.7271
 20
1.368
 30
0.0
 10
-28.6909
 20
1.3035
 30
0.0
 10
-28.6909
 20
1.3035
 30
0.0
 10
-28.6546
 20
1.2391
 30
0.0
 10
-28.6076
 20
1.1888
 30
0.0
 10
-28.5497
 20
1.1521
 30
0.0
 10
-28.5497
 20
1.1521
 30
0.0
 10
-28.5497
 20
1.1521
 30
0.0
 10
-28.5798
 20
0.9192
 30
0.0
 10
-28.5798
 20
0.9192
 30
0.0
 10
-28.5798
 20
0.9192
 30
0.0
 10
-28.5798
 20
0.9192
 30
0.0
 10
-29.6175
 20
1.1149
 30
0.0
 10
-29.6175
 20
1.1149
 30
0.0
 10
-29.6175
 20
1.1149
 30
0.0
 10
-29.6175
 20
1.1149
 30
0.0
 10
-29.6175
 20
2.1196
 30
0.0
 10
-29.6175
 20
2.1196
 30
0.0
 10
-29.6175
 20
2.1196
 30
0.0
 10
-29.6175
 20
2.1196
 30
0.0
 10
-29.3804
 20
2.1196
 30
0.0
 10
-29.3804
 20
2.1196
 30
0.0
 10
-29.3804
 20
2.1196
 30
0.0
 10
-29.3804
 20
2.1196
 30
0.0
 10
-29.3804
 20
1.3134
 30
0.0
 10
-29.3804
 20
1.3134
 30
0.0
 10
-29.3804
 20
1.3134
 30
0.0
 10
-29.3804
 20
1.3134
 30
0.0
 10
-28.8376
 20
1.2043
 30
0.0
 10
-28.8376
 20
1.2043
 30
0.0
 10
-28.8376
 20
1.2043
 30
0.0
 10
-28.9223
 20
1.3256
 30
0.0
 10
-28.9646
 20
1.4531
 30
0.0
 10
-28.9646
 20
1.5862
 30
0.0
 10
-28.9646
 20
1.5862
 30
0.0
 10
-28.9646
 20
1.7626
 30
0.0
 10
-28.9035
 20
1.9112
 30
0.0
 10
-28.7812
 20
2.0326
 30
0.0
 10
-28.7812
 20
2.0326
 30
0.0
 10
-28.6589
 20
2.1539
 30
0.0
 10
-28.5018
 20
2.2146
 30
0.0
 10
-28.3099
 20
2.2146
 30
0.0
 10
-28.3099
 20
2.2146
 30
0.0
 10
-28.1269
 20
2.2146
 30
0.0
 10
-27.9688
 20
2.161
 30
0.0
 10
-27.8357
 20
2.0547
 30
0.0
 10
-27.8357
 20
2.0547
 30
0.0
 10
-27.6725
 20
1.9249
 30
0.0
 10
-27.5907
 20
1.748
 30
0.0
 10
-27.5907
 20
1.5241
 30
0.0
 10
-27.5907
 20
1.5241
 30
0.0
 10
-27.5907
 20
1.3402
 30
0.0
 10
-27.6419
 20
1.1902
 30
0.0
 10
-27.7449
 20
1.074
 30
0.0
 10
-27.7449
 20
1.074
 30
0.0
 10
-27.848
 20
0.9578
 30
0.0
 10
-27.9844
 20
0.8915
 30
0.0
 10
-28.1542
 20
0.875
 30
0.0
  0
SPLINE
  5
7C
330
1F
100
AcDbEntity
  8
AXIS
 62
   250
100
AcDbSpline
210
0.0
220
0.0
230
1.0
 70
    11
 71
     3
 72
    92
 73
    88
 74
     0
 42
0.0000000001
 43
0.0000000001
 40
0.0
 40
0.0
 40
0.0
 40
0.0
 40
0.0434782608695652
 40
0.0434782608695652
 40
0.0434782608695652
 40
0.0434782608695652
 40
0.0869565217391304
 40
0.0869565217391304
 40
0.0869565217391304
 40
0.0869565217391304
 40
0.1304347826086956
 40
0.1304347826086956
 40
0.1304347826086956
 40
0.1304347826086956
 40
0.1739130434782609
 40
0.1739130434782609
 40
0.1739130434782609
 40
0.1739130434782609
 40
0.2173913043478261
 40
0.2173913043478261
 40
0.2173913043478261
 40
0.2173913043478261
 40
0.2608695652173913
 40
0.2608695652173913
 40
0.2608695652173913
 40
0.2608695652173913
 40
0.3043478260869565
 40
0.3043478260869565
 40
0.3043478260869565
 40
0.3043478260869565
 40
0.3478260869565217
 40
0.3478260869565217
 40
0.3478260869565217
 40
0.3478260869565217
 40
0.391304347826087
 40
0.391304347826087
 40
0.391304347826087
 40
0.391304347826087
 40
0.4347826086956522
 40
0.4347826086956522
 40
0.4347826086956522
 40
0.4347826086956522
 40
0.4782608695652174
 40
0.4782608695652174
 40
0.4782608695652174
 40
0.4782608695652174
 40
0.5217391304347826
 40
0.5217391304347826
 40
0.5217391304347826
 40
0.5217391304347826
 40
0.5652173913043478
 40
0.5652173913043478
 40
0.5652173913043478
 40
0.5652173913043478
 40
0.6086956521739131
 40
0.6086956521739131
 40
0.6086956521739131
 40
0.6086956521739131
 40
0.6521739130434783
 40
0.6521739130434783
 40
0.6521739130434783
 40
0.6521739130434783
 40
0.6956521739130435
 40
0.6956521739130435
 40
0.6956521739130435
 40
0.6956521739130435
 40
0.7391304347826086
 40
0.7391304347826086
 40
0.7391304347826086
 40
0.7391304347826086
 40
0.782608695652174
 40
0.782608695652174
 40
0.782608695652174
 40
0.782608695652174
 40
0.8260869565217391
 40
0.8260869565217391
 40
0.8260869565217391
 40
0.8260869565217391
 40
0.8695652173913043
 40
0.8695652173913043
 40
0.8695652173913043
 40
0.8695652173913043
 40
0.9130434782608695
 40
0.9130434782608695
 40
0.9130434782608695
 40
0.9130434782608695
 40
1.0
 40
1.0
 40
1.0
 40
1.0
 10
12.4389
 20
-1.6629
 30
0.0
 10
12.4389
 20
-1.6629
 30
0.0
 10
12.4168
 20
-1.4023
 30
0.0
 10
12.4168
 20
-1.4023
 30
0.0
 10
12.4168
 20
-1.4023
 30
0.0
 10
12.5438
 20
-1.383
 30
0.0
 10
12.6388
 20
-1.3383
 30
0.0
 10
12.7028
 20
-1.2682
 30
0.0
 10
12.7028
 20
-1.2682
 30
0.0
 10
12.7668
 20
-1.1977
 30
0.0
 10
12.7988
 20
-1.113
 30
0.0
 10
12.7988
 20
-1.0138
 30
0.0
 10
12.7988
 20
-1.0138
 30
0.0
 10
12.7988
 20
-0.8943
 30
0.0
 10
12.7536
 20
-0.7932
 30
0.0
 10
12.6638
 20
-0.7109
 30
0.0
 10
12.6638
 20
-0.7109
 30
0.0
 10
12.5735
 20
-0.6281
 30
0.0
 10
12.454
 20
-0.5867
 30
0.0
 10
12.3054
 20
-0.5867
 30
0.0
 10
12.3054
 20
-0.5867
 30
0.0
 10
12.1638
 20
-0.5867
 30
0.0
 10
12.0523
 20
-0.6262
 30
0.0
 10
11.9705
 20
-0.7057
 30
0.0
 10
11.9705
 20
-0.7057
 30
0.0
 10
11.8886
 20
-0.7852
 30
0.0
 10
11.8477
 20
-0.8891
 30
0.0
 10
11.8477
 20
-1.018
 30
0.0
 10
11.8477
 20
-1.018
 30
0.0
 10
11.8477
 20
-1.098
 30
0.0
 10
11.866
 20
-1.1699
 30
0.0
 10
11.9022
 20
-1.2344
 30
0.0
 10
11.9022
 20
-1.2344
 30
0.0
 10
11.9385
 20
-1.2988
 30
0.0
 10
11.9855
 20
-1.3491
 30
0.0
 10
12.0434
 20
-1.3858
 30
0.0
 10
12.0434
 20
-1.3858
 30
0.0
 10
12.0434
 20
-1.3858
 30
0.0
 10
12.0133
 20
-1.6187
 30
0.0
 10
12.0133
 20
-1.6187
 30
0.0
 10
12.0133
 20
-1.6187
 30
0.0
 10
12.0133
 20
-1.6187
 30
0.0
 10
10.9756
 20
-1.423
 30
0.0
 10
10.9756
 20
-1.423
 30
0.0
 10
10.9756
 20
-1.423
 30
0.0
 10
10.9756
 20
-1.423
 30
0.0
 10
10.9756
 20
-0.4183
 30
0.0
 10
10.9756
 20
-0.4183
 30
0.0
 10
10.9756
 20
-0.4183
 30
0.0
 10
10.9756
 20
-0.4183
 30
0.0
 10
11.2127
 20
-0.4183
 30
0.0
 10
11.2127
 20
-0.4183
 30
0.0
 10
11.2127
 20
-0.4183
 30
0.0
 10
11.2127
 20
-0.4183
 30
0.0
 10
11.2127
 20
-1.2245
 30
0.0
 10
11.2127
 20
-1.2245
 30
0.0
 10
11.2127
 20
-1.2245
 30
0.0
 10
11.2127
 20
-1.2245
 30
0.0
 10
11.7555
 20
-1.3336
 30
0.0
 10
11.7555
 20
-1.3336
 30
0.0
 10
11.7555
 20
-1.3336
 30
0.0
 10
11.6708
 20
-1.2123
 30
0.0
 10
11.6285
 20
-1.0848
 30
0.0
 10
11.6285
 20
-0.9517
 30
0.0
 10
11.6285
 20
-0.9517
 30
0.0
 10
11.6285
 20
-0.7753
 30
0.0
 10
11.6896
 20
-0.6267
 30
0.0
 10
11.8119
 20
-0.5053
 30
0.0
 10
11.8119
 20
-0.5053
 30
0.0
 10
11.9342
 20
-0.384
 30
0.0
 10
12.0913
 20
-0.3233
 30
0.0
 10
12.2832
 20
-0.3233
 30
0.0
 10
12.2832
 20
-0.3233
 30
0.0
 10
12.4662
 20
-0.3233
 30
0.0
 10
12.6243
 20
-0.3769
 30
0.0
 10
12.7574
 20
-0.4832
 30
0.0
 10
12.7574
 20
-0.4832
 30
0.0
 10
12.9206
 20
-0.613
 30
0.0
 10
13.0024
 20
-0.7899
 30
0.0
 10
13.0024
 20
-1.0138
 30
0.0
 10
13.0024
 20
-1.0138
 30
0.0
 10
13.0024
 20
-1.1977
 30
0.0
 10
12.9512
 20
-1.3477
 30
0.0
 10
12.8482
 20
-1.4639
 30
0.0
 10
12.8482
 20
-1.4639
 30
0.0
 10
12.7451
 20
-1.5801
 30
0.0
 10
12.6087
 20
-1.6464
 30
0.0
 10
12.4389
 20
-1.6629
 30
0.0
  0
SPLINE
  5
7D
330
1F
100
AcDbEntity
  8
AXIS
 62
   250
100
AcDbSpline
210
0.0
220
0.0
230
1.0
 70
    11
 71
     3
 72
    92
 73
    88
 74
     0
 42
0.0000000001
 43
0.0000000001
 40
0.0
 40
0.0
 40
0.0
 40
0.0
 40
0.0434782608695652
 40
0.0434782608695652
 40
0.0434782608695652
 40
0.0434782608695652
 40
0.0869565217391304
 40
0.0869565217391304
 40
0.0869565217391304
 40
0.0869565217391304
 40
0.1304347826086956
 40
0.1304347826086956
 40
0.1304347826086956
 40
0.1304347826086956
 40
0.1739130434782609
 40
0.1739130434782609
 40
0.1739130434782609
 40
0.1739130434782609
 40
0.2173913043478261
 40
0.2173913043478261
 40
0.2173913043478261
 40
0.2173913043478261
 40
0.2608695652173913
 40
0.2608695652173913
 40
0.2608695652173913
 40
0.2608695652173913
 40
0.3043478260869565
 40
0.3043478260869565
 40
0.3043478260869565
 40
0.3043478260869565
 40
0.3478260869565217
 40
0.3478260869565217
 40
0.3478260869565217
 40
0.3478260869565217
 40
0.391304347826087
 40
0.391304347826087
 40
0.391304347826087
 40
0.391304347826087
 40
0.4347826086956522
 40
0.4347826086956522
 40
0.4347826086956522
 40
0.4347826086956522
 40
0.4782608695652174
 40
0.4782608695652174
 40
0.4782608695652174
 40
0.4782608695652174
 40
0.5217391304347826
 40
0.5217391304347826
 40
0.5217391304347826
 40
0.5217391304347826
 40
0.5652173913043478
 40
0.5652173913043478
 40
0.5652173913043478
 40
0.5652173913043478
 40
0.6086956521739131
 40
0.6086956521739131
 40
0.6086956521739131
 40
0.6086956521739131
 40
0.6521739130434783
 40
0.6521739130434783
 40
0.6521739130434783
 40
0.6521739130434783
 40
0.6956521739130435
 40
0.6956521739130435
 40
0.6956521739130435
 40
0.6956521739130435
 40
0.7391304347826086
 40
0.7391304347826086
 40
0.7391304347826086
 40
0.7391304347826086
 40
0.782608695652174
 40
0.782608695652174
 40
0.782608695652174
 40
0.782608695652174
 40
0.8260869565217391
 40
0.8260869565217391
 40
0.8260869565217391
 40
0.8260869565217391
 40
0.8695652173913043
 40
0.8695652173913043
 40
0.8695652173913043
 40
0.8695652173913043
 40
0.9130434782608695
 40
0.9130434782608695
 40
0.9130434782608695
 40
0.9130434782608695
 40
1.0
 40
1.0
 40
1.0
 40
1.0
 10
12.7296
 20
1.2106
 30
0.0
 10
12.7296
 20
1.2106
 30
0.0
 10
12.9681
 20
1.2106
 30
0.0
 10
12.9681
 20
1.2106
 30
0.0
 10
12.9681
 20
1.2106
 30
0.0
 10
12.9681
 20
1.2106
 30
0.0
 10
12.9681
 20
-0.1248
 30
0.0
 10
12.9681
 20
-0.1248
 30
0.0
 10
12.9681
 20
-0.1248
 30
0.0
 10
12.9084
 20
-0.1267
 30
0.0
 10
12.851
 20
-0.1173
 30
0.0
 10
12.7959
 20
-0.0961
 30
0.0
 10
12.7959
 20
-0.0961
 30
0.0
 10
12.7047
 20
-0.0622
 30
0.0
 10
12.6153
 20
-0.0077
 30
0.0
 10
12.5269
 20
0.0671
 30
0.0
 10
12.5269
 20
0.0671
 30
0.0
 10
12.4389
 20
0.1424
 30
0.0
 10
12.3369
 20
0.2506
 30
0.0
 10
12.2212
 20
0.3917
 30
0.0
 10
12.2212
 20
0.3917
 30
0.0
 10
12.041
 20
0.6113
 30
0.0
 10
11.8985
 20
0.76
 30
0.0
 10
11.7931
 20
0.8371
 30
0.0
 10
11.7931
 20
0.8371
 30
0.0
 10
11.6882
 20
0.9142
 30
0.0
 10
11.5885
 20
0.9528
 30
0.0
 10
11.4949
 20
0.9528
 30
0.0
 10
11.4949
 20
0.9528
 30
0.0
 10
11.3966
 20
0.9528
 30
0.0
 10
11.3138
 20
0.9175
 30
0.0
 10
11.2461
 20
0.8475
 30
0.0
 10
11.2461
 20
0.8475
 30
0.0
 10
11.1788
 20
0.7769
 30
0.0
 10
11.145
 20
0.6852
 30
0.0
 10
11.145
 20
0.5723
 30
0.0
 10
11.145
 20
0.5723
 30
0.0
 10
11.145
 20
0.4528
 30
0.0
 10
11.1807
 20
0.3573
 30
0.0
 10
11.2527
 20
0.2858
 30
0.0
 10
11.2527
 20
0.2858
 30
0.0
 10
11.3242
 20
0.2139
 30
0.0
 10
11.4234
 20
0.1777
 30
0.0
 10
11.5499
 20
0.1767
 30
0.0
 10
11.5499
 20
0.1767
 30
0.0
 10
11.5499
 20
0.1767
 30
0.0
 10
11.5241
 20
-0.0782
 30
0.0
 10
11.5241
 20
-0.0782
 30
0.0
 10
11.5241
 20
-0.0782
 30
0.0
 10
11.3336
 20
-0.0608
 30
0.0
 10
11.1887
 20
0.005
 30
0.0
 10
11.089
 20
0.1189
 30
0.0
 10
11.089
 20
0.1189
 30
0.0
 10
10.9893
 20
0.2327
 30
0.0
 10
10.9394
 20
0.386
 30
0.0
 10
10.9394
 20
0.5779
 30
0.0
 10
10.9394
 20
0.5779
 30
0.0
 10
10.9394
 20
0.7717
 30
0.0
 10
10.9935
 20
0.9251
 30
0.0
 10
11.1007
 20
1.038
 30
0.0
 10
11.1007
 20
1.038
 30
0.0
 10
11.2085
 20
1.1513
 30
0.0
 10
11.3416
 20
1.2078
 30
0.0
 10
11.5006
 20
1.2078
 30
0.0
 10
11.5006
 20
1.2078
 30
0.0
 10
11.5815
 20
1.2078
 30
0.0
 10
11.661
 20
1.1913
 30
0.0
 10
11.739
 20
1.1579
 30
0.0
 10
11.739
 20
1.1579
 30
0.0
 10
11.8171
 20
1.125
 30
0.0
 10
11.8994
 20
1.0699
 30
0.0
 10
11.9855
 20
0.9933
 30
0.0
 10
11.9855
 20
0.9933
 30
0.0
 10
12.0721
 20
0.9166
 30
0.0
 10
12.1906
 20
0.7891
 30
0.0
 10
12.3411
 20
0.6109
 30
0.0
 10
12.3411
 20
0.6109
 30
0.0
 10
12.4662
 20
0.4622
 30
0.0
 10
12.5509
 20
0.3667
 30
0.0
 10
12.5956
 20
0.3244
 30
0.0
 10
12.5956
 20
0.3244
 30
0.0
 10
12.6398
 20
0.2821
 30
0.0
 10
12.6845
 20
0.2473
 30
0.0
 10
12.7296
 20
0.2195
 30
0.0
 10
12.7296
 20
0.2195
 30
0.0
 10
12.7296
 20
0.2195
 30
0.0
 10
12.7296
 20
1.2106
 30
0.0
 10
12.7296
 20
1.2106
 30
0.0
  0
ENDSEC
  0
SECTION
  2
OBJECTS
  0
DICTIONARY
  5
C
330
0
100
AcDbDictionary
  3
ACAD_GROUP
350
D
  3
ACAD_LAYOUT
350
1A
  3
ACAD_MATERIAL
350
3B
  3
ACAD_MLEADERSTYLE
350
A0
  3
ACAD_MLINESTYLE
350
17
  3
ACAD_PLOTSETTINGS
350
19
  3
ACAD_VISUALSTYLE
350
2A
  3
ACDBHEADERROUNDTRIPXREC
350
7E
  3
ACDBVARIABLEDICTIONARY
350
9E
  0
DICTIONARY
  5
D
102
{ACAD_REACTORS
330
C
102
}
330
C
100
AcDbDictionary
  0
DICTIONARY
  5
1A
102
{ACAD_REACTORS
330
C
102
}
330
C
100
AcDbDictionary
  0
DICTIONARY
  5
3B
102
{ACAD_REACTORS
330
C
102
}
330
C
100
AcDbDictionary
  3
BYBLOCK
350
3D
  3
BYLAYER
350
3C
  3
GLOBAL
350
3E
  0
DICTIONARY
  5
A0
102
{ACAD_REACTORS
330
C
102
}
330
C
100
AcDbDictionary
  0
DICTIONARY
  5
17
102
{ACAD_REACTORS
330
C
102
}
330
C
100
AcDbDictionary
  3
STANDARD
350
18
  0
DICTIONARY
  5
19
102
{ACAD_REACTORS
330
C
102
}
330
C
100
AcDbDictionary
  0
DICTIONARY
  5
2A
102
{ACAD_REACTORS
330
C
102
}
330
C
100
AcDbDictionary
  3
2DWIREFRAME
350
2F
  3
3D_HIDDEN
350
31
  3
3DWIREFRAME
350
30
  3
BASIC
350
32
  3
BRIGHTEN
350
36
  3
COLORCHANGE
350
3A
  3
CONCEPTUAL
350
34
  3
DIM
350
35
  3
FACEPATTERN
350
39
  3
FLAT
350
2B
  3
FLATWITHEDGES
350
2C
  3
GOURAUD
350
2D
  3
GOURAUDWITHEDGES
350
2E
  3
LINEPATTERN
350
38
  3
REALISTIC
350
33
  3
THICKEN
350
37
  0
DICTIONARY
  5
7E
102
{ACAD_REACTORS
330
C
102
}
330
C
100
AcDbDictionary
  3
CEPSNTYPE
350
87
  3
DIMSTYLEDATA
350
9D
  3
FINGERPRINTGUID
350
88
  3
HYPERLINKBASE
350
81
  3
INSUNITS
350
86
  3
LAYOUTDICT
350
83
  3
LWETCUNION
350
85
  3
PLOTSETDICT
350
84
  3
PSVPSCALE
350
8A
  3
PUCSBASE
350
8D
  3
PUCSORGBACK
350
93
  3
PUCSORGBOTTOM
350
8F
  3
PUCSORGFRONT
350
92
  3
PUCSORGLEFT
350
90
  3
PUCSORGRIGHT
350
91
  3
PUCSORGTOP
350
8E
  3
PUCSORTHOREF
350
8B
  3
PUCSORTHOVIEW
350
8C
  3
STYLESHEET
350
82
  3
TSTACKALIGN
350
7F
  3
TSTACKSIZE
350
80
  3
UCSBASE
350
96
  3
UCSORGBACK
350
9C
  3
UCSORGBOTTOM
350
98
  3
UCSORGFRONT
350
9B
  3
UCSORGLEFT
350
99
  3
UCSORGRIGHT
350
9A
  3
UCSORGTOP
350
97
  3
UCSORTHOREF
350
94
  3
UCSORTHOVIEW
350
95
  3
VERSIONGUID
350
89
  0
DICTIONARY
  5
9E
102
{ACAD_REACTORS
330
C
102
}
330
C
100
AcDbDictionary
  3
DIMASSOC
350
A1
  3
HIDETEXT
350
A2
  0
MATERIAL
  5
3D
102
{ACAD_REACTORS
330
3B
102
}
102
{ACAD_XDICTIONARY
360
A5
102
}
330
3B
100
AcDbMaterial
  1
ByBlock
  0
MATERIAL
  5
3C
102
{ACAD_REACTORS
330
3B
102
}
102
{ACAD_XDICTIONARY
360
A3
102
}
330
3B
100
AcDbMaterial
  1
ByLayer
  0
MATERIAL
  5
3E
102
{ACAD_REACTORS
330
3B
102
}
102
{ACAD_XDICTIONARY
360
A7
102
}
330
3B
100
AcDbMaterial
  1
Global
  0
MLINESTYLE
  5
18
102
{ACAD_REACTORS
330
17
102
}
330
17
100
AcDbMlineStyle
  2
Standard
 70
     0
  3

 62
   256
 51
90.0
 52
90.0
 71
     2
 49
0.5
 62
   256
  6
BYLAYER
 49
-0.5
 62
   256
  6
BYLAYER
  0
ACAD_PROXY_OBJECT
  5
2F
102
{ACAD_REACTORS
330
2A
102
}
330
2A
100
AcDbProxyObject
 90
      499
 91
      501
 93
      436
310
42CC9915DA5C99599C985B595049028333333333333E3BF0000000000000FB0107901411070040501600405405064090741402480A0340
1001
ACAD
1000
AcDbSavedByObjectVersion
1070
     0
  0
ACAD_PROXY_OBJECT
  5
31
102
{ACAD_REACTORS
330
2A
102
}
330
2A
100
AcDbProxyObject
 90
      499
 91
      501
 93
      500
310
424CD108121A5919195B90640502408333333333333E3BF0000000000000FB01079024090700405020000000000001110200405405064090740C02480A0340
1001
ACAD
1000
AcDbSavedByObjectVersion
1070
     0
  0
ACAD_PROXY_OBJECT
  5
30
102
{ACAD_REACTORS
330
2A
102
}
330
2A
100
AcDbProxyObject
 90
      499
 91
      501
 93
      436
310
42CCD915DA5C99599C985B595059028333333333333E3BF0000000000000FB0107901411070040501600405405064090741402480A0340
1001
ACAD
1000
AcDbSavedByObjectVersion
1070
     0
  0
ACAD_PROXY_OBJECT
  5
32
102
{ACAD_REACTORS
330
2A
102
}
330
2A
100
AcDbProxyObject
 90
      499
 91
      501
 93
      388
310
4150985CDA58D07406404333333333333E3BF0000000000000FB0107A41107004050150841D405064090741402480A0350
1001
ACAD
1000
AcDbSavedByObjectVersion
1070
     0
  0
ACAD_PROXY_OBJECT
  5
36
102
{ACAD_REACTORS
330
2A
102
}
330
2A
100
AcDbProxyObject
 90
      499
 91
      501
 93
      428
310
42109C9A59DA1D195B90C409028333333333333E3BF0000000000000FB010790141107004050150841D405064090741402480A029950
1001
ACAD
1000
AcDbSavedByObjectVersion
1070
     0
  0
ACAD_PROXY_OBJECT
  5
3A
102
{ACAD_REACTORS
330
2A
102
}
330
2A
100
AcDbProxyObject
 90
      499
 91
      501
 93
      452
310
42D0DBDB1BDC90DA185B99D95104090240C333333333333E3BF0000000000000FB0108901411070040501508421405064090741402480A0350
1001
ACAD
1000
AcDbSavedByObjectVersion
1070
     0
  0
ACAD_PROXY_OBJECT
  5
34
102
{ACAD_REACTORS
330
2A
102
}
330
2A
100
AcDbProxyObject
 90
      499
 91
      501
 93
      500
310
4290DBDB98D95C1D1D585B10940D028333333333333E3BF0000000000000FB0107902409070040501000000000000111010841D405064090740C02480A0340
1001
ACAD
1000
AcDbSavedByObjectVersion
1070
     0
  0
ACAD_PROXY_OBJECT
  5
35
102
{ACAD_REACTORS
330
2A
102
}
330
2A
100
AcDbProxyObject
 90
      499
 91
      501
 93
      412
310
40D11A5B50B409028333333333333E3BF0000000000000FB010790141107004050150841D405064090741402480A02677FFFFFD0
1001
ACAD
1000
AcDbSavedByObjectVersion
1070
     0
  0
ACAD_PROXY_OBJECT
  5
39
102
{ACAD_REACTORS
330
2A
102
}
330
2A
100
AcDbProxyObject
 90
      499
 91
      501
 93
      444
310
42D19858D95C185D1D195C9B90F409028333333333333E3BF0000000000000FB010790141107004050150841D405064090741402480A0350
1001
ACAD
1000
AcDbSavedByObjectVersion
1070
     0
  0
ACAD_PROXY_OBJECT
  5
2B
102
{ACAD_REACTORS
330
2A
102
}
330
2A
100
AcDbProxyObject
 90
      499
 91
      501
 93
      388
310
41119B185D240901404333333333333E3BF0000000000000F9010740A41107004050150841D405064090741402480A1B50
1001
ACAD
1000
AcDbSavedByObjectVersion
1070
     0
  0
ACAD_PROXY_OBJECT
  5
2C
102
{ACAD_REACTORS
330
2A
102
}
330
2A
100
AcDbProxyObject
 90
      499
 91
      501
 93
      476
310
43519B185D15DA5D1A115919D95CD0140901404333333333333E3BF0000000000000F9010740901411070040501600405405064090741402480A1B50
1001
ACAD
1000
AcDbSavedByObjectVersion
1070
     0
  0
ACAD_PROXY_OBJECT
  5
2D
102
{ACAD_REACTORS
330
2A
102
}
330
2A
100
AcDbProxyObject
 90
      499
 91
      501
 93
      412
310
41D1DBDD5C985D5910240902404333333333333E3BF0000000000000F9010740A411070040501641D405064090741402480A1B50
1001
ACAD
1000
AcDbSavedByObjectVersion
1070
     0
  0
ACAD_PROXY_OBJECT
  5
2E
102
{ACAD_REACTORS
330
2A
102
}
330
2A
100
AcDbProxyObject
 90
      499
 91
      501
 93
      500
310
4411DBDD5C985D5915DA5D1A115919D95CD0340902404333333333333E3BF0000000000000F9010740901411070040501600405405064090741402480A1B50
1001
ACAD
1000
AcDbSavedByObjectVersion
1070
     0
  0
ACAD_PROXY_OBJECT
  5
38
102
{ACAD_REACTORS
330
2A
102
}
330
2A
100
AcDbProxyObject
 90
      499
 91
      501
 93
      444
310
42D31A5B995C185D1D195C9B90E409028333333333333E3BF0000000000000FB010790141107004050750841D405064090741402483A0350
1001
ACAD
1000
AcDbSavedByObjectVersion
1070
     0
  0
ACAD_PROXY_OBJECT
  5
33
102
{ACAD_REACTORS
330
2A
102
}
330
2A
100
AcDbProxyObject
 90
      499
 91
      501
 93
      420
310
425499585B1A5CDD1A58D08409028333333333333E3BF0000000000000FB01079019070040501508421405064090741402480A1B40
1001
ACAD
1000
AcDbSavedByObjectVersion
1070
     0
  0
ACAD_PROXY_OBJECT
  5
37
102
{ACAD_REACTORS
330
2A
102
}
330
2A
100
AcDbProxyObject
 90
      499
 91
      501
 93
      412
310
41D51A1A58DAD95B90D409028333333333333E3BF0000000000000FB010790141107004050150C41D405064090741402480A0350
1001
ACAD
1000
AcDbSavedByObjectVersion
1070
     0
  0
XRECORD
  5
87
102
{ACAD_REACTORS
330
7E
102
}
330
7E
100
AcDbXrecord
 90
        0
  0
XRECORD
  5
9D
102
{ACAD_REACTORS
330
7E
102
}
330
7E
100
AcDbXrecord
1000
DSTYLE
1002
{
1070
   340
340
11
1002
}
  0
XRECORD
  5
88
102
{ACAD_REACTORS
330
7E
102
}
330
7E
100
AcDbXrecord
  1
{5C640E5F-7FEA-4FDE-A1FB-B8F5828D8756}
  0
XRECORD
  5
81
102
{ACAD_REACTORS
330
7E
102
}
330
7E
100
AcDbXrecord
  1

  0
XRECORD
  5
86
102
{ACAD_REACTORS
330
7E
102
}
330
7E
100
AcDbXrecord
 90
        4
  0
XRECORD
  5
83
102
{ACAD_REACTORS
330
7E
102
}
330
7E
100
AcDbXrecord
340
1A
  0
XRECORD
  5
85
102
{ACAD_REACTORS
330
7E
102
}
330
7E
100
AcDbXrecord
 90
    10781
  0
XRECORD
  5
84
102
{ACAD_REACTORS
330
7E
102
}
330
7E
100
AcDbXrecord
340
19
  0
XRECORD
  5
8A
102
{ACAD_REACTORS
330
7E
102
}
330
7E
100
AcDbXrecord
 40
0.0
  0
XRECORD
  5
8D
102
{ACAD_REACTORS
330
7E
102
}
330
7E
100
AcDbXrecord
340
0
  0
XRECORD
  5
93
102
{ACAD_REACTORS
330
7E
102
}
330
7E
100
AcDbXrecord
 10
0.0
 20
0.0
 30
0.0
  0
XRECORD
  5
8F
102
{ACAD_REACTORS
330
7E
102
}
330
7E
100
AcDbXrecord
 10
0.0
 20
0.0
 30
0.0
  0
XRECORD
  5
92
102
{ACAD_REACTORS
330
7E
102
}
330
7E
100
AcDbXrecord
 10
0.0
 20
0.0
 30
0.0
  0
XRECORD
  5
90
102
{ACAD_REACTORS
330
7E
102
}
330
7E
100
AcDbXrecord
 10
0.0
 20
0.0
 30
0.0
  0
XRECORD
  5
91
102
{ACAD_REACTORS
330
7E
102
}
330
7E
100
AcDbXrecord
 10
0.0
 20
0.0
 30
0.0
  0
XRECORD
  5
8E
102
{ACAD_REACTORS
330
7E
102
}
330
7E
100
AcDbXrecord
 10
0.0
 20
0.0
 30
0.0
  0
XRECORD
  5
8B
102
{ACAD_REACTORS
330
7E
102
}
330
7E
100
AcDbXrecord
340
0
  0
XRECORD
  5
8C
102
{ACAD_REACTORS
330
7E
102
}
330
7E
100
AcDbXrecord
 70
     0
  0
XRECORD
  5
82
102
{ACAD_REACTORS
330
7E
102
}
330
7E
100
AcDbXrecord
  1

  0
XRECORD
  5
7F
102
{ACAD_REACTORS
330
7E
102
}
330
7E
100
AcDbXrecord
 90
        1
  0
XRECORD
  5
80
102
{ACAD_REACTORS
330
7E
102
}
330
7E
100
AcDbXrecord
 90
       70
  0
XRECORD
  5
96
102
{ACAD_REACTORS
330
7E
102
}
330
7E
100
AcDbXrecord
340
0
  0
XRECORD
  5
9C
102
{ACAD_REACTORS
330
7E
102
}
330
7E
100
AcDbXrecord
 10
0.0
 20
0.0
 30
0.0
  0
XRECORD
  5
98
102
{ACAD_REACTORS
330
7E
102
}
330
7E
100
AcDbXrecord
 10
0.0
 20
0.0
 30
0.0
  0
XRECORD
  5
9B
102
{ACAD_REACTORS
330
7E
102
}
330
7E
100
AcDbXrecord
 10
0.0
 20
0.0
 30
0.0
  0
XRECORD
  5
99
102
{ACAD_REACTORS
330
7E
102
}
330
7E
100
AcDbXrecord
 10
0.0
 20
0.0
 30
0.0
  0
XRECORD
  5
9A
102
{ACAD_REACTORS
330
7E
102
}
330
7E
100
AcDbXrecord
 10
0.0
 20
0.0
 30
0.0
  0
XRECORD
  5
97
102
{ACAD_REACTORS
330
7E
102
}
330
7E
100
AcDbXrecord
 10
0.0
 20
0.0
 30
0.0
  0
XRECORD
  5
94
102
{ACAD_REACTORS
330
7E
102
}
330
7E
100
AcDbXrecord
340
0
  0
XRECORD
  5
95
102
{ACAD_REACTORS
330
7E
102
}
330
7E
100
AcDbXrecord
 70
     0
  0
XRECORD
  5
89
102
{ACAD_REACTORS
330
7E
102
}
330
7E
100
AcDbXrecord
  1
{FAEB1C32-E019-11D5-929B-00C0DF256EC4}
  0
DICTIONARYVAR
  5
A1
102
{ACAD_REACTORS
330
9E
102
}
330
9E
100
DictionaryVariables
280
     0
  1
2
  0
DICTIONARYVAR
  5
A2
102
{ACAD_REACTORS
330
9E
102
}
330
9E
100
DictionaryVariables
280
     0
  1
1
  0
DICTIONARY
  5
A5
330
3D
100
AcDbDictionary
280
     1
  3
ACAD_XREC_ROUNDTRIP
360
A6
  0
DICTIONARY
  5
A3
330
3C
100
AcDbDictionary
280
     1
  3
ACAD_XREC_ROUNDTRIP
360
A4
  0
DICTIONARY
  5
A7
330
3E
100
AcDbDictionary
280
     1
  3
ACAD_XREC_ROUNDTRIP
360
A8
  0
XRECORD
  5
A6
102
{ACAD_REACTORS
330
A5
102
}
330
A5
100
AcDbXrecord
102
MATERIAL
148
0.0
149
0.0
149
0.0
 93
        0
 94
      127
282
     0
 72
     1
 77
     1
171
     1
175
     1
179
     1
273
     0
  0
XRECORD
  5
A4
102
{ACAD_REACTORS
330
A3
102
}
330
A3
100
AcDbXrecord
102
MATERIAL
148
0.0
149
0.0
149
0.0
 93
        0
 94
      127
282
     0
 72
     1
 77
     1
171
     1
175
     1
179
     1
273
     0
  0
XRECORD
  5
A8
102
{ACAD_REACTORS
330
A7
102
}
330
A7
100
AcDbXrecord
102
MATERIAL
148
0.0
149
0.0
149
0.0
 93
        0
 94
      127
282
     0
 72
     1
 77
     1
171
     1
175
     1
179
     1
273
     0
  0
ENDSEC
  0
EOF
