  0
SECTION
  2
HEADER
  9
$ACADVER
  1
AC1014
  9
$ACADMAINTVER
 70
     9
  9
$DWGCODEPAGE
  3
ANSI_1250
  9
$INSBASE
 10
0.0
 20
0.0
 30
0.0
  9
$EXTMIN
 10
-38.553
 20
-37.0995
 30
0.0
  9
$EXTMAX
 10
38.5533
 20
37.0995
 30
0.0
  9
$LIMMIN
 10
0.0
 20
0.0
  9
$LIMMAX
 10
12.0
 20
9.0
  9
$ORTHOMODE
 70
     0
  9
$REGENMODE
 70
     1
  9
$FILLMODE
 70
     1
  9
$QTEXTMODE
 70
     0
  9
$MIRRTEXT
 70
     1
  9
$DRAGMODE
 70
     2
  9
$LTSCALE
 40
1.0
  9
$OSMODE
 70
    37
  9
$ATTMODE
 70
     1
  9
$TEXTSIZE
 40
0.2
  9
$TRACEWID
 40
0.05
  9
$TEXTSTYLE
  7
STANDARD
  9
$CLAYER
  8
0
  9
$CELTYPE
  6
BYLAYER
  9
$CECOLOR
 62
   256
  9
$CELTSCALE
 40
1.0
  9
$DELOBJ
 70
     1
  9
$DISPSILH
 70
     0
  9
$DIMSCALE
 40
1.0
  9
$DIMASZ
 40
0.18
  9
$DIMEXO
 40
0.0625
  9
$DIMDLI
 40
0.38
  9
$DIMRND
 40
0.0
  9
$DIMDLE
 40
0.0
  9
$DIMEXE
 40
0.18
  9
$DIMTP
 40
0.0
  9
$DIMTM
 40
0.0
  9
$DIMTXT
 40
0.18
  9
$DIMCEN
 40
0.09
  9
$DIMTSZ
 40
0.0
  9
$DIMTOL
 70
     0
  9
$DIMLIM
 70
     0
  9
$DIMTIH
 70
     1
  9
$DIMTOH
 70
     1
  9
$DIMSE1
 70
     0
  9
$DIMSE2
 70
     0
  9
$DIMTAD
 70
     0
  9
$DIMZIN
 70
     0
  9
$DIMBLK
  1

  9
$DIMASO
 70
     1
  9
$DIMSHO
 70
     1
  9
$DIMPOST
  1

  9
$DIMAPOST
  1

  9
$DIMALT
 70
     0
  9
$DIMALTD
 70
     2
  9
$DIMALTF
 40
25.4
  9
$DIMLFAC
 40
1.0
  9
$DIMTOFL
 70
     0
  9
$DIMTVP
 40
0.0
  9
$DIMTIX
 70
     0
  9
$DIMSOXD
 70
     0
  9
$DIMSAH
 70
     0
  9
$DIMBLK1
  1

  9
$DIMBLK2
  1

  9
$DIMSTYLE
  2
STANDARD
  9
$DIMCLRD
 70
     0
  9
$DIMCLRE
 70
     0
  9
$DIMCLRT
 70
     0
  9
$DIMTFAC
 40
1.0
  9
$DIMGAP
 40
0.09
  9
$DIMJUST
 70
     0
  9
$DIMSD1
 70
     0
  9
$DIMSD2
 70
     0
  9
$DIMTOLJ
 70
     1
  9
$DIMTZIN
 70
     0
  9
$DIMALTZ
 70
     0
  9
$DIMALTTZ
 70
     0
  9
$DIMFIT
 70
     3
  9
$DIMUPT
 70
     0
  9
$DIMUNIT
 70
     2
  9
$DIMDEC
 70
     4
  9
$DIMTDEC
 70
     4
  9
$DIMALTU
 70
     2
  9
$DIMALTTD
 70
     2
  9
$DIMTXSTY
  7
STANDARD
  9
$DIMAUNIT
 70
     0
  9
$LUNITS
 70
     2
  9
$LUPREC
 70
     4
  9
$SKETCHINC
 40
0.1
  9
$FILLETRAD
 40
0.5
  9
$AUNITS
 70
     0
  9
$AUPREC
 70
     0
  9
$MENU
  1
.
  9
$ELEVATION
 40
0.0
  9
$PELEVATION
 40
0.0
  9
$THICKNESS
 40
0.0
  9
$LIMCHECK
 70
     0
  9
$CHAMFERA
 40
0.5
  9
$CHAMFERB
 40
0.5
  9
$CHAMFERC
 40
1.0
  9
$CHAMFERD
 40
0.0
  9
$SKPOLY
 70
     0
  9
$TDCREATE
 40
2456272.427424433
  9
$TDUPDATE
 40
2456272.427424444
  9
$TDINDWG
 40
0.0000000116
  9
$TDUSRTIMER
 40
0.0000000116
  9
$USRTIMER
 70
     1
  9
$ANGBASE
 50
0.0
  9
$ANGDIR
 70
     0
  9
$PDMODE
 70
     0
  9
$PDSIZE
 40
0.0
  9
$PLINEWID
 40
0.0
  9
$COORDS
 70
     1
  9
$SPLFRAME
 70
     0
  9
$SPLINETYPE
 70
     6
  9
$SPLINESEGS
 70
     8
  9
$ATTDIA
 70
     0
  9
$ATTREQ
 70
     1
  9
$HANDLING
 70
     1
  9
$HANDSEED
  5
108
  9
$SURFTAB1
 70
     6
  9
$SURFTAB2
 70
     6
  9
$SURFTYPE
 70
     6
  9
$SURFU
 70
     6
  9
$SURFV
 70
     6
  9
$UCSNAME
  2

  9
$UCSORG
 10
0.0
 20
0.0
 30
0.0
  9
$UCSXDIR
 10
1.0
 20
0.0
 30
0.0
  9
$UCSYDIR
 10
0.0
 20
1.0
 30
0.0
  9
$PUCSNAME
  2

  9
$PUCSORG
 10
0.0
 20
0.0
 30
0.0
  9
$PUCSXDIR
 10
1.0
 20
0.0
 30
0.0
  9
$PUCSYDIR
 10
0.0
 20
1.0
 30
0.0
  9
$USERI1
 70
     0
  9
$USERI2
 70
     0
  9
$USERI3
 70
     0
  9
$USERI4
 70
     0
  9
$USERI5
 70
     0
  9
$USERR1
 40
0.0
  9
$USERR2
 40
0.0
  9
$USERR3
 40
0.0
  9
$USERR4
 40
0.0
  9
$USERR5
 40
0.0
  9
$WORLDVIEW
 70
     1
  9
$SHADEDGE
 70
     3
  9
$SHADEDIF
 70
    70
  9
$TILEMODE
 70
     1
  9
$MAXACTVP
 70
    64
  9
$PINSBASE
 10
0.0
 20
0.0
 30
0.0
  9
$PLIMCHECK
 70
     0
  9
$PEXTMIN
 10
1.000000000000000E+20
 20
1.000000000000000E+20
 30
1.000000000000000E+20
  9
$PEXTMAX
 10
-1.000000000000000E+20
 20
-1.000000000000000E+20
 30
-1.000000000000000E+20
  9
$PLIMMIN
 10
0.0
 20
0.0
  9
$PLIMMAX
 10
12.0
 20
9.0
  9
$UNITMODE
 70
     0
  9
$VISRETAIN
 70
     1
  9
$PLINEGEN
 70
     0
  9
$PSLTSCALE
 70
     1
  9
$TREEDEPTH
 70
  3020
  9
$PICKSTYLE
 70
     1
  9
$CMLSTYLE
  2
STANDARD
  9
$CMLJUST
 70
     0
  9
$CMLSCALE
 40
1.0
  9
$PROXYGRAPHICS
 70
     1
  9
$MEASUREMENT
 70
     0
  0
ENDSEC
  0
SECTION
  2
CLASSES
  0
CLASS
  1
ACDBDICTIONARYWDFLT
  2
AcDbDictionaryWithDefault
  3
ObjectDBX Classes
 90
        0
280
     0
281
     0
  0
CLASS
  1
VISUALSTYLE
  2
AcDbVisualStyle
  3
ObjectDBX Classes
 90
     4095
280
     0
281
     0
  0
CLASS
  1
MATERIAL
  2
AcDbMaterial
  3
ObjectDBX Classes
 90
     1153
280
     0
281
     0
  0
CLASS
  1
DICTIONARYVAR
  2
AcDbDictionaryVar
  3
ObjectDBX Classes
 90
        0
280
     0
281
     0
  0
CLASS
  1
XRECORD
  2
AcDbXrecord
  3
AutoCAD 2000
 90
        0
280
     0
281
     0
  0
CLASS
  1
LWPOLYLINE
  2
AcDbPolyline
  3
AutoCAD 2000
 90
        0
280
     0
281
     1
  0
CLASS
  1
HATCH
  2
AcDbHatch
  3
AutoCAD 2000
 90
        0
280
     0
281
     1
  0
CLASS
  1
ACDBPLACEHOLDER
  2
AcDbPlaceHolder
  3
ObjectDBX Classes
 90
        0
280
     0
281
     0
  0
CLASS
  1
LAYOUT
  2
AcDbLayout
  3
ObjectDBX Classes
 90
        0
280
     0
281
     0
  0
ENDSEC
  0
SECTION
  2
TABLES
  0
TABLE
  2
VPORT
  5
8
330
0
100
AcDbSymbolTable
 70
     1
  0
VPORT
  5
29
330
8
100
AcDbSymbolTableRecord
100
AcDbViewportTableRecord
  2
*ACTIVE
 70
     0
 10
0.0
 20
0.0
 11
1.0
 21
1.0
 12
10.42990654205607
 22
4.5
 13
0.0
 23
0.0
 14
0.5
 24
0.5
 15
0.5
 25
0.5
 16
0.0
 26
0.0
 36
1.0
 17
0.0
 27
0.0
 37
0.0
 40
9.0
 41
1.972972972850329
 42
50.0
 43
0.0
 44
0.0
 50
0.0
 51
0.0
 71
     0
 72
   100
 73
     1
 74
     3
 75
     0
 76
     0
 77
     0
 78
     0
  0
ENDTAB
  0
TABLE
  2
LTYPE
  5
5
330
0
100
AcDbSymbolTable
 70
     2
  0
LTYPE
  5
14
330
5
100
AcDbSymbolTableRecord
100
AcDbLinetypeTableRecord
  2
BYBLOCK
 70
     0
  3

 72
    65
 73
     0
 40
0.0
  0
LTYPE
  5
15
330
5
100
AcDbSymbolTableRecord
100
AcDbLinetypeTableRecord
  2
BYLAYER
 70
     0
  3

 72
    65
 73
     0
 40
0.0
  0
LTYPE
  5
16
330
5
100
AcDbSymbolTableRecord
100
AcDbLinetypeTableRecord
  2
CONTINUOUS
 70
     0
  3
Solid line
 72
    65
 73
     0
 40
0.0
  0
LTYPE
  5
64
330
5
100
AcDbSymbolTableRecord
100
AcDbLinetypeTableRecord
  2
NEW_LINE1
 70
     0
  3

 72
    65
 73
     4
 40
1.2
 49
0.5
 74
     4
 75
     0
340
0
 46
1.0
 50
0.0
 44
0.0
 45
0.0
 49
-0.3
 74
     4
 75
     0
340
0
 46
1.0
 50
0.0
 44
0.0
 45
0.0
 49
0.1
 74
     4
 75
     0
340
0
 46
1.0
 50
0.0
 44
0.0
 45
0.0
 49
-0.3
 74
     4
 75
     0
340
0
 46
1.0
 50
0.0
 44
0.0
 45
0.0
  0
ENDTAB
  0
TABLE
  2
LAYER
  5
2
330
0
100
AcDbSymbolTable
 70
     3
  0
LAYER
  5
10
330
2
100
AcDbSymbolTableRecord
100
AcDbLayerTableRecord
  2
0
 70
     0
 62
     7
  6
CONTINUOUS
  0
LAYER
  5
40
330
2
100
AcDbSymbolTableRecord
100
AcDbLayerTableRecord
  2
VRSTVA_1
 70
     0
 62
     7
  6
CONTINUOUS
  0
LAYER
  5
A5
330
2
100
AcDbSymbolTableRecord
100
AcDbLayerTableRecord
  2
DEFAULT_2
 70
     0
 62
     7
  6
CONTINUOUS
  0
ENDTAB
  0
TABLE
  2
STYLE
  5
3
330
0
100
AcDbSymbolTable
 70
     1
  0
STYLE
  5
11
330
3
100
AcDbSymbolTableRecord
100
AcDbTextStyleTableRecord
  2
STANDARD
 70
     0
 40
0.0
 41
1.0
 50
0.0
 71
     0
 42
0.2
  3
txt
  4

  0
ENDTAB
  0
TABLE
  2
VIEW
  5
6
330
0
100
AcDbSymbolTable
 70
     0
  0
ENDTAB
  0
TABLE
  2
UCS
  5
7
330
0
100
AcDbSymbolTable
 70
     0
  0
ENDTAB
  0
TABLE
  2
APPID
  5
9
330
0
100
AcDbSymbolTable
 70
     2
  0
APPID
  5
12
330
9
100
AcDbSymbolTableRecord
100
AcDbRegAppTableRecord
  2
ACAD
 70
     0
  0
APPID
  5
3F
330
9
100
AcDbSymbolTableRecord
100
AcDbRegAppTableRecord
  2
ODA
 70
     0
  0
ENDTAB
  0
TABLE
  2
DIMSTYLE
  5
A
330
0
100
AcDbSymbolTable
 70
     1
  0
DIMSTYLE
105
27
330
A
100
AcDbSymbolTableRecord
100
AcDbDimStyleTableRecord
  2
STANDARD
 70
     0
  3

  4

  5

  6

  7

 40
1.0
 41
0.18
 42
0.0625
 43
0.38
 44
0.18
 45
0.0
 46
0.0
 47
0.0
 48
0.0
140
0.18
141
0.09
142
0.0
143
25.4
144
1.0
145
0.0
146
1.0
147
0.09
 71
     0
 72
     0
 73
     1
 74
     1
 75
     0
 76
     0
 77
     0
 78
     0
170
     0
171
     2
172
     0
173
     0
174
     0
175
     0
176
     0
177
     0
178
     0
270
     2
271
     4
272
     4
273
     2
274
     2
340
11
275
     0
280
     0
281
     0
282
     0
283
     1
284
     0
285
     0
286
     0
287
     3
288
     0
  0
ENDTAB
  0
TABLE
  2
BLOCK_RECORD
  5
1
330
0
100
AcDbSymbolTable
 70
     1
  0
BLOCK_RECORD
  5
1F
330
1
100
AcDbSymbolTableRecord
100
AcDbBlockTableRecord
  2
*MODEL_SPACE
  0
BLOCK_RECORD
  5
1B
330
1
100
AcDbSymbolTableRecord
100
AcDbBlockTableRecord
  2
*PAPER_SPACE
  0
ENDTAB
  0
ENDSEC
  0
SECTION
  2
BLOCKS
  0
BLOCK
  5
20
330
1F
100
AcDbEntity
  8
0
100
AcDbBlockBegin
  2
*MODEL_SPACE
 70
     0
 10
0.0
 20
0.0
 30
0.0
  3
*MODEL_SPACE
  1

  0
ENDBLK
  5
21
330
1F
100
AcDbEntity
  8
0
100
AcDbBlockEnd
  0
BLOCK
  5
1C
330
1B
100
AcDbEntity
 67
     1
  8
0
100
AcDbBlockBegin
  2
*PAPER_SPACE
 70
     0
 10
0.0
 20
0.0
 30
0.0
  3
*PAPER_SPACE
  1

  0
ENDBLK
  5
1D
330
1B
100
AcDbEntity
 67
     1
  8
0
100
AcDbBlockEnd
  0
ENDSEC
  0
SECTION
  2
ENTITIES
  0
SPLINE
  5
41
330
1F
100
AcDbEntity
  8
VRSTVA_1
 62
   250
100
AcDbSpline
210
0.0
220
0.0
230
1.0
 70
    24
 71
     3
 72
     8
 73
     4
 74
     0
 42
0.0000000001
 43
0.0000000001
 40
0.0
 40
0.0
 40
0.0
 40
0.0
 40
1.0
 40
1.0
 40
1.0
 40
1.0
 10
-11.4458
 20
-31.0138
 30
0.0
 10
-11.4458
 20
-31.0138
 30
0.0
 10
-10.6561
 20
-31.0138
 30
0.0
 10
-10.6561
 20
-31.0138
 30
0.0
  0
SPLINE
  5
42
330
1F
100
AcDbEntity
  8
VRSTVA_1
 62
   250
100
AcDbSpline
210
0.0
220
0.0
230
1.0
 70
    24
 71
     3
 72
     8
 73
     4
 74
     0
 42
0.0000000001
 43
0.0000000001
 40
0.0
 40
0.0
 40
0.0
 40
0.0
 40
1.0
 40
1.0
 40
1.0
 40
1.0
 10
-5.9176
 20
-31.0138
 30
0.0
 10
-5.9176
 20
-31.0138
 30
0.0
 10
-5.1279
 20
-31.0138
 30
0.0
 10
-5.1279
 20
-31.0138
 30
0.0
  0
SPLINE
  5
43
330
1F
100
AcDbEntity
  8
VRSTVA_1
 62
   250
100
AcDbSpline
210
0.0
220
0.0
230
1.0
 70
    24
 71
     3
 72
     8
 73
     4
 74
     0
 42
0.0000000001
 43
0.0000000001
 40
0.0
 40
0.0
 40
0.0
 40
0.0
 40
1.0
 40
1.0
 40
1.0
 40
1.0
 10
-5.1279
 20
-30.7177
 30
0.0
 10
-5.1279
 20
-30.7177
 30
0.0
 10
-5.9176
 20
-30.7177
 30
0.0
 10
-5.9176
 20
-30.7177
 30
0.0
  0
SPLINE
  5
44
330
1F
100
AcDbEntity
  8
VRSTVA_1
 62
   250
100
AcDbSpline
210
0.0
220
0.0
230
1.0
 70
    24
 71
     3
 72
     8
 73
     4
 74
     0
 42
0.0000000001
 43
0.0000000001
 40
0.0
 40
0.0
 40
0.0
 40
0.0
 40
1.0
 40
1.0
 40
1.0
 40
1.0
 10
-10.6561
 20
-30.7177
 30
0.0
 10
-10.6561
 20
-30.7177
 30
0.0
 10
-11.4458
 20
-30.7177
 30
0.0
 10
-11.4458
 20
-30.7177
 30
0.0
  0
SPLINE
  5
45
330
1F
100
AcDbEntity
  8
VRSTVA_1
 62
   250
100
AcDbSpline
210
0.0
220
0.0
230
1.0
 70
    24
 71
     3
 72
     8
 73
     4
 74
     0
 42
0.0000000001
 43
0.0000000001
 40
0.0
 40
0.0
 40
0.0
 40
0.0
 40
1.0
 40
1.0
 40
1.0
 40
1.0
 10
-11.4458
 20
-28.3484
 30
0.0
 10
-11.4458
 20
-28.3484
 30
0.0
 10
-5.1279
 20
-28.3484
 30
0.0
 10
-5.1279
 20
-28.3484
 30
0.0
  0
SPLINE
  5
46
330
1F
100
AcDbEntity
  8
VRSTVA_1
 62
   250
100
AcDbSpline
210
0.0
220
0.0
230
1.0
 70
    24
 71
     3
 72
     8
 73
     4
 74
     0
 42
0.0000000001
 43
0.0000000001
 40
0.0
 40
0.0
 40
0.0
 40
0.0
 40
1.0
 40
1.0
 40
1.0
 40
1.0
 10
-5.1279
 20
-28.0523
 30
0.0
 10
-5.1279
 20
-28.0523
 30
0.0
 10
-11.4458
 20
-28.0523
 30
0.0
 10
-11.4458
 20
-28.0523
 30
0.0
  0
SPLINE
  5
47
330
1F
100
AcDbEntity
  8
VRSTVA_1
 62
   250
100
AcDbSpline
210
0.0
220
0.0
230
1.0
 70
    24
 71
     3
 72
     8
 73
     4
 74
     0
 42
0.0000000001
 43
0.0000000001
 40
0.0
 40
0.0
 40
0.0
 40
0.0
 40
1.0
 40
1.0
 40
1.0
 40
1.0
 10
-4.3382
 20
-30.2241
 30
0.0
 10
-4.3382
 20
-30.2241
 30
0.0
 10
-4.3382
 20
-6.3627
 30
0.0
 10
-4.3382
 20
-6.3627
 30
0.0
  0
SPLINE
  5
48
330
1F
100
AcDbEntity
  8
VRSTVA_1
 62
   250
100
AcDbSpline
210
0.0
220
0.0
230
1.0
 70
    24
 71
     3
 72
     8
 73
     4
 74
     0
 42
0.0000000001
 43
0.0000000001
 40
0.0
 40
0.0
 40
0.0
 40
0.0
 40
1.0
 40
1.0
 40
1.0
 40
1.0
 10
-4.6343
 20
-28.842
 30
0.0
 10
-4.6343
 20
-28.842
 30
0.0
 10
-4.6343
 20
-30.2241
 30
0.0
 10
-4.6343
 20
-30.2241
 30
0.0
  0
SPLINE
  5
49
330
1F
100
AcDbEntity
  8
VRSTVA_1
 62
   250
100
AcDbSpline
210
0.0
220
0.0
230
1.0
 70
    24
 71
     3
 72
     8
 73
     4
 74
     0
 42
0.0000000001
 43
0.0000000001
 40
0.0
 40
0.0
 40
0.0
 40
0.0
 40
1.0
 40
1.0
 40
1.0
 40
1.0
 10
-4.3382
 20
-20.1548
 30
0.0
 10
-4.3382
 20
-20.1548
 30
0.0
 10
-12.2356
 20
-20.1548
 30
0.0
 10
-12.2356
 20
-20.1548
 30
0.0
  0
SPLINE
  5
4A
330
1F
100
AcDbEntity
  8
VRSTVA_1
 62
   250
100
AcDbSpline
210
0.0
220
0.0
230
1.0
 70
    24
 71
     3
 72
     8
 73
     4
 74
     0
 42
0.0000000001
 43
0.0000000001
 40
0.0
 40
0.0
 40
0.0
 40
0.0
 40
1.0
 40
1.0
 40
1.0
 40
1.0
 10
-5.9176
 20
-28.3484
 30
0.0
 10
-5.9176
 20
-28.3484
 30
0.0
 10
-5.9176
 20
-31.0138
 30
0.0
 10
-5.9176
 20
-31.0138
 30
0.0
  0
SPLINE
  5
4B
330
1F
100
AcDbEntity
  8
VRSTVA_1
 62
   250
100
AcDbSpline
210
0.0
220
0.0
230
1.0
 70
    24
 71
     3
 72
     8
 73
     4
 74
     0
 42
0.0000000001
 43
0.0000000001
 40
0.0
 40
0.0
 40
0.0
 40
0.0
 40
1.0
 40
1.0
 40
1.0
 40
1.0
 10
-10.6561
 20
-31.0138
 30
0.0
 10
-10.6561
 20
-31.0138
 30
0.0
 10
-10.6561
 20
-28.3484
 30
0.0
 10
-10.6561
 20
-28.3484
 30
0.0
  0
SPLINE
  5
4C
330
1F
100
AcDbEntity
  8
VRSTVA_1
 62
   250
100
AcDbSpline
210
0.0
220
0.0
230
1.0
 70
    24
 71
     3
 72
     8
 73
     4
 74
     0
 42
0.0000000001
 43
0.0000000001
 40
0.0
 40
0.0
 40
0.0
 40
0.0
 40
1.0
 40
1.0
 40
1.0
 40
1.0
 10
-11.9394
 20
-30.2241
 30
0.0
 10
-11.9394
 20
-30.2241
 30
0.0
 10
-11.9394
 20
-28.842
 30
0.0
 10
-11.9394
 20
-28.842
 30
0.0
  0
SPLINE
  5
4D
330
1F
100
AcDbEntity
  8
VRSTVA_1
 62
   250
100
AcDbSpline
210
0.0
220
0.0
230
1.0
 70
    24
 71
     3
 72
     8
 73
     4
 74
     0
 42
0.0000000001
 43
0.0000000001
 40
0.0
 40
0.0
 40
0.0
 40
0.0
 40
1.0
 40
1.0
 40
1.0
 40
1.0
 10
-12.2356
 20
-8.7079
 30
0.0
 10
-12.2356
 20
-8.7079
 30
0.0
 10
-12.2356
 20
-30.2241
 30
0.0
 10
-12.2356
 20
-30.2241
 30
0.0
  0
SPLINE
  5
4E
330
1F
100
AcDbEntity
  8
VRSTVA_1
 62
   250
100
AcDbSpline
210
0.0
220
0.0
230
1.0
 70
    24
 71
     3
 72
     8
 73
     4
 74
     0
 42
0.0000000001
 43
0.0000000001
 40
0.0
 40
0.0
 40
0.0
 40
0.0
 40
1.0
 40
1.0
 40
1.0
 40
1.0
 10
-9.9221
 20
-6.3627
 30
0.0
 10
-9.9221
 20
-6.3627
 30
0.0
 10
-11.7701
 20
-8.5889
 30
0.0
 10
-11.7701
 20
-8.5889
 30
0.0
  0
SPLINE
  5
4F
330
1F
100
AcDbEntity
  8
VRSTVA_1
 62
   250
100
AcDbSpline
210
0.0
220
0.0
230
1.0
 70
    24
 71
     3
 72
     8
 73
     4
 74
     0
 42
0.0000000001
 43
0.0000000001
 40
0.0
 40
0.0
 40
0.0
 40
0.0
 40
1.0
 40
1.0
 40
1.0
 40
1.0
 10
-11.7701
 20
-8.5889
 30
0.0
 10
-11.7701
 20
-8.5889
 30
0.0
 10
-12.2356
 20
-8.7079
 30
0.0
 10
-12.2356
 20
-8.7079
 30
0.0
  0
SPLINE
  5
50
330
1F
100
AcDbEntity
  8
VRSTVA_1
 62
   250
100
AcDbSpline
210
0.0
220
0.0
230
1.0
 70
    24
 71
     3
 72
     8
 73
     4
 74
     0
 42
0.0000000001
 43
0.0000000001
 40
0.0
 40
0.0
 40
0.0
 40
0.0
 40
1.0
 40
1.0
 40
1.0
 40
1.0
 10
-4.3382
 20
-6.3627
 30
0.0
 10
-4.3382
 20
-6.3627
 30
0.0
 10
-9.9221
 20
-6.3627
 30
0.0
 10
-9.9221
 20
-6.3627
 30
0.0
  0
SPLINE
  5
51
330
1F
100
AcDbEntity
  8
VRSTVA_1
 62
   250
100
AcDbSpline
210
0.0
220
0.0
230
1.0
 70
    24
 71
     3
 72
     8
 73
     4
 74
     0
 42
0.0000000001
 43
0.0000000001
 40
0.0
 40
0.0
 40
0.0
 40
0.0
 40
1.0
 40
1.0
 40
1.0
 40
1.0
 10
-12.2356
 20
-7.8618
 30
0.0
 10
-12.2356
 20
-7.8618
 30
0.0
 10
-11.7701
 20
-7.7428
 30
0.0
 10
-11.7701
 20
-7.7428
 30
0.0
  0
SPLINE
  5
52
330
1F
100
AcDbEntity
  8
VRSTVA_1
 62
   250
100
AcDbSpline
210
0.0
220
0.0
230
1.0
 70
    24
 71
     3
 72
     8
 73
     4
 74
     0
 42
0.0000000001
 43
0.0000000001
 40
0.0
 40
0.0
 40
0.0
 40
0.0
 40
1.0
 40
1.0
 40
1.0
 40
1.0
 10
-9.9221
 20
-5.5166
 30
0.0
 10
-9.9221
 20
-5.5166
 30
0.0
 10
-4.3382
 20
-5.5166
 30
0.0
 10
-4.3382
 20
-5.5166
 30
0.0
  0
SPLINE
  5
53
330
1F
100
AcDbEntity
  8
VRSTVA_1
 62
   250
100
AcDbSpline
210
0.0
220
0.0
230
1.0
 70
    24
 71
     3
 72
     8
 73
     4
 74
     0
 42
0.0000000001
 43
0.0000000001
 40
0.0
 40
0.0
 40
0.0
 40
0.0
 40
1.0
 40
1.0
 40
1.0
 40
1.0
 10
-11.7701
 20
-7.7428
 30
0.0
 10
-11.7701
 20
-7.7428
 30
0.0
 10
-9.9221
 20
-5.5166
 30
0.0
 10
-9.9221
 20
-5.5166
 30
0.0
  0
SPLINE
  5
54
330
1F
100
AcDbEntity
  8
VRSTVA_1
 62
   250
100
AcDbSpline
210
0.0
220
0.0
230
1.0
 70
    24
 71
     3
 72
     8
 73
     4
 74
     0
 42
0.0000000001
 43
0.0000000001
 40
0.0
 40
0.0
 40
0.0
 40
0.0
 40
1.0
 40
1.0
 40
1.0
 40
1.0
 10
-4.3382
 20
33.0881
 30
0.0
 10
-4.3382
 20
33.0881
 30
0.0
 10
-4.3382
 20
-5.5166
 30
0.0
 10
-4.3382
 20
-5.5166
 30
0.0
  0
SPLINE
  5
55
330
1F
100
AcDbEntity
  8
VRSTVA_1
 62
   250
100
AcDbSpline
210
0.0
220
0.0
230
1.0
 70
    24
 71
     3
 72
     8
 73
     4
 74
     0
 42
0.0000000001
 43
0.0000000001
 40
0.0
 40
0.0
 40
0.0
 40
0.0
 40
1.0
 40
1.0
 40
1.0
 40
1.0
 10
-7.0035
 20
27.165
 30
0.0
 10
-7.0035
 20
27.165
 30
0.0
 10
-7.0035
 20
6.0394
 30
0.0
 10
-7.0035
 20
6.0394
 30
0.0
  0
SPLINE
  5
56
330
1F
100
AcDbEntity
  8
VRSTVA_1
 62
   250
100
AcDbSpline
210
0.0
220
0.0
230
1.0
 70
    24
 71
     3
 72
     8
 73
     4
 74
     0
 42
0.0000000001
 43
0.0000000001
 40
0.0
 40
0.0
 40
0.0
 40
0.0
 40
1.0
 40
1.0
 40
1.0
 40
1.0
 10
-9.5702
 20
6.0394
 30
0.0
 10
-9.5702
 20
6.0394
 30
0.0
 10
-9.5702
 20
27.165
 30
0.0
 10
-9.5702
 20
27.165
 30
0.0
  0
SPLINE
  5
57
330
1F
100
AcDbEntity
  8
VRSTVA_1
 62
   250
100
AcDbSpline
210
0.0
220
0.0
230
1.0
 70
    24
 71
     3
 72
     8
 73
     4
 74
     0
 42
0.0000000001
 43
0.0000000001
 40
0.0
 40
0.0
 40
0.0
 40
0.0
 40
1.0
 40
1.0
 40
1.0
 40
1.0
 10
-12.2356
 20
33.0881
 30
0.0
 10
-12.2356
 20
33.0881
 30
0.0
 10
-12.2356
 20
-7.8618
 30
0.0
 10
-12.2356
 20
-7.8618
 30
0.0
  0
SPLINE
  5
58
330
1F
100
AcDbEntity
  8
VRSTVA_1
 62
   250
100
AcDbSpline
210
0.0
220
0.0
230
1.0
 70
    24
 71
     3
 72
     8
 73
     4
 74
     0
 42
0.0000000001
 43
0.0000000001
 40
0.0
 40
0.0
 40
0.0
 40
0.0
 40
1.0
 40
1.0
 40
1.0
 40
1.0
 10
-4.3382
 20
33.0881
 30
0.0
 10
-4.3382
 20
33.0881
 30
0.0
 10
-12.2356
 20
33.0881
 30
0.0
 10
-12.2356
 20
33.0881
 30
0.0
  0
SPLINE
  5
59
330
1F
100
AcDbEntity
  8
VRSTVA_1
 62
   250
100
AcDbSpline
210
0.0
220
0.0
230
1.0
 70
     8
 71
     3
 72
     8
 73
     4
 74
     0
 42
0.0000000001
 43
0.0000000001
 40
0.0
 40
0.0
 40
0.0
 40
0.0
 40
1.0
 40
1.0
 40
1.0
 40
1.0
 10
-5.1279
 20
-31.0138
 30
0.0
 10
-4.6917
 20
-31.0138
 30
0.0
 10
-4.3382
 20
-30.6602
 30
0.0
 10
-4.3382
 20
-30.2241
 30
0.0
  0
SPLINE
  5
5A
330
1F
100
AcDbEntity
  8
VRSTVA_1
 62
   250
100
AcDbSpline
210
0.0
220
0.0
230
1.0
 70
     8
 71
     3
 72
     8
 73
     4
 74
     0
 42
0.0000000001
 43
0.0000000001
 40
0.0
 40
0.0
 40
0.0
 40
0.0
 40
1.0
 40
1.0
 40
1.0
 40
1.0
 10
-4.3382
 20
-28.842
 30
0.0
 10
-4.3382
 20
-28.4058
 30
0.0
 10
-4.6917
 20
-28.0523
 30
0.0
 10
-5.1279
 20
-28.0523
 30
0.0
  0
SPLINE
  5
5B
330
1F
100
AcDbEntity
  8
VRSTVA_1
 62
   250
100
AcDbSpline
210
0.0
220
0.0
230
1.0
 70
     8
 71
     3
 72
     8
 73
     4
 74
     0
 42
0.0000000001
 43
0.0000000001
 40
0.0
 40
0.0
 40
0.0
 40
0.0
 40
1.0
 40
1.0
 40
1.0
 40
1.0
 10
-11.4458
 20
-28.0523
 30
0.0
 10
-11.882
 20
-28.0523
 30
0.0
 10
-12.2356
 20
-28.4058
 30
0.0
 10
-12.2356
 20
-28.842
 30
0.0
  0
SPLINE
  5
5C
330
1F
100
AcDbEntity
  8
VRSTVA_1
 62
   250
100
AcDbSpline
210
0.0
220
0.0
230
1.0
 70
     8
 71
     3
 72
     8
 73
     4
 74
     0
 42
0.0000000001
 43
0.0000000001
 40
0.0
 40
0.0
 40
0.0
 40
0.0
 40
1.0
 40
1.0
 40
1.0
 40
1.0
 10
-12.2356
 20
-30.2241
 30
0.0
 10
-12.2356
 20
-30.6602
 30
0.0
 10
-11.882
 20
-31.0138
 30
0.0
 10
-11.4458
 20
-31.0138
 30
0.0
  0
SPLINE
  5
5D
330
1F
100
AcDbEntity
  8
VRSTVA_1
 62
   250
100
AcDbSpline
210
0.0
220
0.0
230
1.0
 70
     8
 71
     3
 72
     8
 73
     4
 74
     0
 42
0.0000000001
 43
0.0000000001
 40
0.0
 40
0.0
 40
0.0
 40
0.0
 40
1.0
 40
1.0
 40
1.0
 40
1.0
 10
-5.1279
 20
-30.7177
 30
0.0
 10
-4.8553
 20
-30.7177
 30
0.0
 10
-4.6343
 20
-30.4967
 30
0.0
 10
-4.6343
 20
-30.2241
 30
0.0
  0
SPLINE
  5
5E
330
1F
100
AcDbEntity
  8
VRSTVA_1
 62
   250
100
AcDbSpline
210
0.0
220
0.0
230
1.0
 70
     8
 71
     3
 72
     8
 73
     4
 74
     0
 42
0.0000000001
 43
0.0000000001
 40
0.0
 40
0.0
 40
0.0
 40
0.0
 40
1.0
 40
1.0
 40
1.0
 40
1.0
 10
-4.6343
 20
-28.842
 30
0.0
 10
-4.6343
 20
-28.5694
 30
0.0
 10
-4.8553
 20
-28.3484
 30
0.0
 10
-5.1279
 20
-28.3484
 30
0.0
  0
SPLINE
  5
5F
330
1F
100
AcDbEntity
  8
VRSTVA_1
 62
   250
100
AcDbSpline
210
0.0
220
0.0
230
1.0
 70
     8
 71
     3
 72
     8
 73
     4
 74
     0
 42
0.0000000001
 43
0.0000000001
 40
0.0
 40
0.0
 40
0.0
 40
0.0
 40
1.0
 40
1.0
 40
1.0
 40
1.0
 10
-11.4458
 20
-28.3484
 30
0.0
 10
-11.7185
 20
-28.3484
 30
0.0
 10
-11.9394
 20
-28.5694
 30
0.0
 10
-11.9394
 20
-28.842
 30
0.0
  0
SPLINE
  5
60
330
1F
100
AcDbEntity
  8
VRSTVA_1
 62
   250
100
AcDbSpline
210
0.0
220
0.0
230
1.0
 70
     8
 71
     3
 72
     8
 73
     4
 74
     0
 42
0.0000000001
 43
0.0000000001
 40
0.0
 40
0.0
 40
0.0
 40
0.0
 40
1.0
 40
1.0
 40
1.0
 40
1.0
 10
-11.9394
 20
-30.2241
 30
0.0
 10
-11.9394
 20
-30.4967
 30
0.0
 10
-11.7185
 20
-30.7177
 30
0.0
 10
-11.4458
 20
-30.7177
 30
0.0
  0
SPLINE
  5
61
330
1F
100
AcDbEntity
  8
VRSTVA_1
 62
   250
100
AcDbSpline
210
0.0
220
0.0
230
1.0
 70
     8
 71
     3
 72
    12
 73
     8
 74
     0
 42
0.0000000001
 43
0.0000000001
 40
0.0
 40
0.0
 40
0.0
 40
0.0
 40
0.3333333333333333
 40
0.3333333333333333
 40
0.3333333333333333
 40
0.3333333333333333
 40
1.0
 40
1.0
 40
1.0
 40
1.0
 10
-9.5702
 20
6.0394
 30
0.0
 10
-9.5702
 20
5.3306
 30
0.0
 10
-8.9957
 20
4.7561
 30
0.0
 10
-8.2869
 20
4.7561
 30
0.0
 10
-8.2869
 20
4.7561
 30
0.0
 10
-7.5781
 20
4.7561
 30
0.0
 10
-7.0035
 20
5.3306
 30
0.0
 10
-7.0035
 20
6.0394
 30
0.0
  0
SPLINE
  5
62
330
1F
100
AcDbEntity
  8
VRSTVA_1
 62
   250
100
AcDbSpline
210
0.0
220
0.0
230
1.0
 70
     8
 71
     3
 72
    12
 73
     8
 74
     0
 42
0.0000000001
 43
0.0000000001
 40
0.0
 40
0.0
 40
0.0
 40
0.0
 40
0.3333333333333333
 40
0.3333333333333333
 40
0.3333333333333333
 40
0.3333333333333333
 40
1.0
 40
1.0
 40
1.0
 40
1.0
 10
-7.0035
 20
27.165
 30
0.0
 10
-7.0035
 20
27.8738
 30
0.0
 10
-7.5781
 20
28.4484
 30
0.0
 10
-8.2869
 20
28.4484
 30
0.0
 10
-8.2869
 20
28.4484
 30
0.0
 10
-8.9957
 20
28.4484
 30
0.0
 10
-9.5702
 20
27.8738
 30
0.0
 10
-9.5702
 20
27.165
 30
0.0
  0
SPLINE
  5
63
330
1F
100
AcDbEntity
  8
VRSTVA_1
  6
NEW_LINE1
 62
   250
100
AcDbSpline
210
0.0
220
0.0
230
1.0
 70
    24
 71
     3
 72
     8
 73
     4
 74
     0
 42
0.0000000001
 43
0.0000000001
 40
0.0
 40
0.0
 40
0.0
 40
0.0
 40
1.0
 40
1.0
 40
1.0
 40
1.0
 10
25.4484
 20
-31.6552
 30
0.0
 10
25.4484
 20
-31.6552
 30
0.0
 10
25.4484
 20
-24.7158
 30
0.0
 10
25.4484
 20
-24.7158
 30
0.0
  0
SPLINE
  5
65
330
1F
100
AcDbEntity
  8
VRSTVA_1
 62
   250
100
AcDbSpline
210
0.0
220
0.0
230
1.0
 70
    24
 71
     3
 72
     8
 73
     4
 74
     0
 42
0.0000000001
 43
0.0000000001
 40
0.0
 40
0.0
 40
0.0
 40
0.0
 40
1.0
 40
1.0
 40
1.0
 40
1.0
 10
33.3448
 20
-14.2107
 30
0.0
 10
33.3448
 20
-14.2107
 30
0.0
 10
33.3448
 20
-27.7413
 30
0.0
 10
33.3448
 20
-27.7413
 30
0.0
  0
SPLINE
  5
66
330
1F
100
AcDbEntity
  8
VRSTVA_1
 62
   250
100
AcDbSpline
210
0.0
220
0.0
230
1.0
 70
    24
 71
     3
 72
     8
 73
     4
 74
     0
 42
0.0000000001
 43
0.0000000001
 40
0.0
 40
0.0
 40
0.0
 40
0.0
 40
1.0
 40
1.0
 40
1.0
 40
1.0
 10
24.9495
 20
-27.9597
 30
0.0
 10
24.9495
 20
-27.9597
 30
0.0
 10
24.9495
 20
-23.6594
 30
0.0
 10
24.9495
 20
-23.6594
 30
0.0
  0
SPLINE
  5
67
330
1F
100
AcDbEntity
  8
VRSTVA_1
 62
   250
100
AcDbSpline
210
0.0
220
0.0
230
1.0
 70
    24
 71
     3
 72
     8
 73
     4
 74
     0
 42
0.0000000001
 43
0.0000000001
 40
0.0
 40
0.0
 40
0.0
 40
0.0
 40
1.0
 40
1.0
 40
1.0
 40
1.0
 10
25.9134
 20
-27.9718
 30
0.0
 10
25.9134
 20
-27.9718
 30
0.0
 10
25.9134
 20
-23.6593
 30
0.0
 10
25.9134
 20
-23.6593
 30
0.0
  0
SPLINE
  5
68
330
1F
100
AcDbEntity
  8
VRSTVA_1
 62
   250
100
AcDbSpline
210
0.0
220
0.0
230
1.0
 70
    24
 71
     3
 72
     8
 73
     4
 74
     0
 42
0.0000000001
 43
0.0000000001
 40
0.0
 40
0.0
 40
0.0
 40
0.0
 40
1.0
 40
1.0
 40
1.0
 40
1.0
 10
-26.708
 20
4.7561
 30
0.0
 10
-26.708
 20
4.7561
 30
0.0
 10
-17.0633
 20
4.7561
 30
0.0
 10
-17.0633
 20
4.7561
 30
0.0
  0
SPLINE
  5
69
330
1F
100
AcDbEntity
  8
VRSTVA_1
 62
   250
100
AcDbSpline
210
0.0
220
0.0
230
1.0
 70
    24
 71
     3
 72
     8
 73
     4
 74
     0
 42
0.0000000001
 43
0.0000000001
 40
0.0
 40
0.0
 40
0.0
 40
0.0
 40
1.0
 40
1.0
 40
1.0
 40
1.0
 10
-26.508
 20
28.4484
 30
0.0
 10
-26.508
 20
28.4484
 30
0.0
 10
-16.9951
 20
28.4484
 30
0.0
 10
-16.9951
 20
28.4484
 30
0.0
  0
SPLINE
  5
6A
330
1F
100
AcDbEntity
  8
VRSTVA_1
 62
   250
100
AcDbSpline
210
0.0
220
0.0
230
1.0
 70
    24
 71
     3
 72
     8
 73
     4
 74
     0
 42
0.0000000001
 43
0.0000000001
 40
0.0
 40
0.0
 40
0.0
 40
0.0
 40
1.0
 40
1.0
 40
1.0
 40
1.0
 10
-31.7508
 20
33.0881
 30
0.0
 10
-31.7508
 20
33.0881
 30
0.0
 10
-36.5832
 20
33.0881
 30
0.0
 10
-36.5832
 20
33.0881
 30
0.0
  0
SPLINE
  5
6B
330
1F
100
AcDbEntity
  8
VRSTVA_1
 62
   250
100
AcDbSpline
210
0.0
220
0.0
230
1.0
 70
    24
 71
     3
 72
     8
 73
     4
 74
     0
 42
0.0000000001
 43
0.0000000001
 40
0.0
 40
0.0
 40
0.0
 40
0.0
 40
1.0
 40
1.0
 40
1.0
 40
1.0
 10
-28.3643
 20
27.165
 30
0.0
 10
-28.3643
 20
27.165
 30
0.0
 10
-36.7878
 20
27.165
 30
0.0
 10
-36.7878
 20
27.165
 30
0.0
  0
SPLINE
  5
6C
330
1F
100
AcDbEntity
  8
VRSTVA_1
 62
   250
100
AcDbSpline
210
0.0
220
0.0
230
1.0
 70
    24
 71
     3
 72
     8
 73
     4
 74
     0
 42
0.0000000001
 43
0.0000000001
 40
0.0
 40
0.0
 40
0.0
 40
0.0
 40
1.0
 40
1.0
 40
1.0
 40
1.0
 10
-28.9866
 20
5.2075
 30
0.0
 10
-28.9866
 20
5.2075
 30
0.0
 10
-28.9866
 20
-3.0116
 30
0.0
 10
-28.9866
 20
-3.0116
 30
0.0
  0
SPLINE
  5
6D
330
1F
100
AcDbEntity
  8
VRSTVA_1
 62
   250
100
AcDbSpline
210
0.0
220
0.0
230
1.0
 70
    24
 71
     3
 72
     8
 73
     4
 74
     0
 42
0.0000000001
 43
0.0000000001
 40
0.0
 40
0.0
 40
0.0
 40
0.0
 40
1.0
 40
1.0
 40
1.0
 40
1.0
 10
-26.4199
 20
5.0721
 30
0.0
 10
-26.4199
 20
5.0721
 30
0.0
 10
-26.4199
 20
-2.9704
 30
0.0
 10
-26.4199
 20
-2.9704
 30
0.0
  0
SPLINE
  5
6E
330
1F
100
AcDbEntity
  8
VRSTVA_1
 62
   250
100
AcDbSpline
210
0.0
220
0.0
230
1.0
 70
    24
 71
     3
 72
     8
 73
     4
 74
     0
 42
0.0000000001
 43
0.0000000001
 40
0.0
 40
0.0
 40
0.0
 40
0.0
 40
1.0
 40
1.0
 40
1.0
 40
1.0
 10
16.2439
 20
-31.0137
 30
0.0
 10
16.2439
 20
-31.0137
 30
0.0
 10
4.3248
 20
-31.0137
 30
0.0
 10
4.3248
 20
-31.0137
 30
0.0
  0
SPLINE
  5
6F
330
1F
100
AcDbEntity
  8
VRSTVA_1
 62
   250
100
AcDbSpline
210
0.0
220
0.0
230
1.0
 70
    24
 71
     3
 72
     8
 73
     4
 74
     0
 42
0.0000000001
 43
0.0000000001
 40
0.0
 40
0.0
 40
0.0
 40
0.0
 40
1.0
 40
1.0
 40
1.0
 40
1.0
 10
8.0527
 20
33.0881
 30
0.0
 10
8.0527
 20
33.0881
 30
0.0
 10
4.3247
 20
33.0881
 30
0.0
 10
4.3247
 20
33.0881
 30
0.0
  0
SPLINE
  5
70
330
1F
100
AcDbEntity
  8
VRSTVA_1
 62
   250
100
AcDbSpline
210
0.0
220
0.0
230
1.0
 70
    24
 71
     3
 72
     8
 73
     4
 74
     0
 42
0.0000000001
 43
0.0000000001
 40
0.0
 40
0.0
 40
0.0
 40
0.0
 40
1.0
 40
1.0
 40
1.0
 40
1.0
 10
8.6648
 20
-23.5277
 30
0.0
 10
8.6648
 20
-23.5277
 30
0.0
 10
8.6648
 20
-37.0995
 30
0.0
 10
8.6648
 20
-37.0995
 30
0.0
  0
SPLINE
  5
71
330
1F
100
AcDbEntity
  8
VRSTVA_1
 62
   250
100
AcDbSpline
210
0.0
220
0.0
230
1.0
 70
    24
 71
     3
 72
     8
 73
     4
 74
     0
 42
0.0000000001
 43
0.0000000001
 40
0.0
 40
0.0
 40
0.0
 40
0.0
 40
1.0
 40
1.0
 40
1.0
 40
1.0
 10
33.3443
 20
-31.4509
 30
0.0
 10
33.3443
 20
-31.4509
 30
0.0
 10
33.3443
 20
-37.0788
 30
0.0
 10
33.3443
 20
-37.0788
 30
0.0
  0
SPLINE
  5
72
330
1F
100
AcDbEntity
  8
VRSTVA_1
 62
   250
100
AcDbSpline
210
0.0
220
0.0
230
1.0
 70
    24
 71
     3
 72
     8
 73
     4
 74
     0
 42
0.0000000001
 43
0.0000000001
 40
0.0
 40
0.0
 40
0.0
 40
0.0
 40
1.0
 40
1.0
 40
1.0
 40
1.0
 10
19.5238
 20
-31.0138
 30
0.0
 10
19.5238
 20
-31.0138
 30
0.0
 10
33.3444
 20
-31.0138
 30
0.0
 10
33.3444
 20
-31.0138
 30
0.0
  0
SPLINE
  5
73
330
1F
100
AcDbEntity
  8
VRSTVA_1
 62
   250
100
AcDbSpline
210
0.0
220
0.0
230
1.0
 70
    24
 71
     3
 72
     8
 73
     4
 74
     0
 42
0.0000000001
 43
0.0000000001
 40
0.0
 40
0.0
 40
0.0
 40
0.0
 40
1.0
 40
1.0
 40
1.0
 40
1.0
 10
33.3444
 20
-28.0523
 30
0.0
 10
33.3444
 20
-28.0523
 30
0.0
 10
33.3444
 20
-31.0138
 30
0.0
 10
33.3444
 20
-31.0138
 30
0.0
  0
SPLINE
  5
74
330
1F
100
AcDbEntity
  8
VRSTVA_1
 62
   250
100
AcDbSpline
210
0.0
220
0.0
230
1.0
 70
    24
 71
     3
 72
     8
 73
     4
 74
     0
 42
0.0000000001
 43
0.0000000001
 40
0.0
 40
0.0
 40
0.0
 40
0.0
 40
1.0
 40
1.0
 40
1.0
 40
1.0
 10
19.5238
 20
-28.0523
 30
0.0
 10
19.5238
 20
-28.0523
 30
0.0
 10
33.3444
 20
-28.0523
 30
0.0
 10
33.3444
 20
-28.0523
 30
0.0
  0
SPLINE
  5
75
330
1F
100
AcDbEntity
  8
VRSTVA_1
 62
   250
100
AcDbSpline
210
0.0
220
0.0
230
1.0
 70
    24
 71
     3
 72
     8
 73
     4
 74
     0
 42
0.0000000001
 43
0.0000000001
 40
0.0
 40
0.0
 40
0.0
 40
0.0
 40
1.0
 40
1.0
 40
1.0
 40
1.0
 10
11.6264
 20
-6.3627
 30
0.0
 10
11.6264
 20
-6.3627
 30
0.0
 10
11.6264
 20
-20.1548
 30
0.0
 10
11.6264
 20
-20.1548
 30
0.0
  0
SPLINE
  5
76
330
1F
100
AcDbEntity
  8
VRSTVA_1
 62
   250
100
AcDbSpline
210
0.0
220
0.0
230
1.0
 70
    24
 71
     3
 72
     8
 73
     4
 74
     0
 42
0.0000000001
 43
0.0000000001
 40
0.0
 40
0.0
 40
0.0
 40
0.0
 40
1.0
 40
1.0
 40
1.0
 40
1.0
 10
11.6264
 20
-6.3627
 30
0.0
 10
11.6264
 20
-6.3627
 30
0.0
 10
11.4719
 20
-6.3627
 30
0.0
 10
11.4719
 20
-6.3627
 30
0.0
  0
SPLINE
  5
77
330
1F
100
AcDbEntity
  8
VRSTVA_1
 62
   250
100
AcDbSpline
210
0.0
220
0.0
230
1.0
 70
    24
 71
     3
 72
     8
 73
     4
 74
     0
 42
0.0000000001
 43
0.0000000001
 40
0.0
 40
0.0
 40
0.0
 40
0.0
 40
1.0
 40
1.0
 40
1.0
 40
1.0
 10
8.6648
 20
-8.8341
 30
0.0
 10
8.6648
 20
-8.8341
 30
0.0
 10
8.6648
 20
-20.1548
 30
0.0
 10
8.6648
 20
-20.1548
 30
0.0
  0
SPLINE
  5
78
330
1F
100
AcDbEntity
  8
VRSTVA_1
 62
   250
100
AcDbSpline
210
0.0
220
0.0
230
1.0
 70
    24
 71
     3
 72
     8
 73
     4
 74
     0
 42
0.0000000001
 43
0.0000000001
 40
0.0
 40
0.0
 40
0.0
 40
0.0
 40
1.0
 40
1.0
 40
1.0
 40
1.0
 10
9.624
 20
-8.5889
 30
0.0
 10
9.624
 20
-8.5889
 30
0.0
 10
8.6648
 20
-8.8341
 30
0.0
 10
8.6648
 20
-8.8341
 30
0.0
  0
SPLINE
  5
79
330
1F
100
AcDbEntity
  8
VRSTVA_1
 62
   250
100
AcDbSpline
210
0.0
220
0.0
230
1.0
 70
    24
 71
     3
 72
     8
 73
     4
 74
     0
 42
0.0000000001
 43
0.0000000001
 40
0.0
 40
0.0
 40
0.0
 40
0.0
 40
1.0
 40
1.0
 40
1.0
 40
1.0
 10
11.4719
 20
-6.3627
 30
0.0
 10
11.4719
 20
-6.3627
 30
0.0
 10
9.624
 20
-8.5889
 30
0.0
 10
9.624
 20
-8.5889
 30
0.0
  0
SPLINE
  5
7A
330
1F
100
AcDbEntity
  8
VRSTVA_1
 62
   250
100
AcDbSpline
210
0.0
220
0.0
230
1.0
 70
    24
 71
     3
 72
     8
 73
     4
 74
     0
 42
0.0000000001
 43
0.0000000001
 40
0.0
 40
0.0
 40
0.0
 40
0.0
 40
1.0
 40
1.0
 40
1.0
 40
1.0
 10
11.4719
 20
-5.5166
 30
0.0
 10
11.4719
 20
-5.5166
 30
0.0
 10
11.6264
 20
-5.5166
 30
0.0
 10
11.6264
 20
-5.5166
 30
0.0
  0
SPLINE
  5
7B
330
1F
100
AcDbEntity
  8
VRSTVA_1
 62
   250
100
AcDbSpline
210
0.0
220
0.0
230
1.0
 70
    24
 71
     3
 72
     8
 73
     4
 74
     0
 42
0.0000000001
 43
0.0000000001
 40
0.0
 40
0.0
 40
0.0
 40
0.0
 40
1.0
 40
1.0
 40
1.0
 40
1.0
 10
8.6648
 20
-7.9879
 30
0.0
 10
8.6648
 20
-7.9879
 30
0.0
 10
9.624
 20
-7.7428
 30
0.0
 10
9.624
 20
-7.7428
 30
0.0
  0
SPLINE
  5
7C
330
1F
100
AcDbEntity
  8
VRSTVA_1
 62
   250
100
AcDbSpline
210
0.0
220
0.0
230
1.0
 70
    24
 71
     3
 72
     8
 73
     4
 74
     0
 42
0.0000000001
 43
0.0000000001
 40
0.0
 40
0.0
 40
0.0
 40
0.0
 40
1.0
 40
1.0
 40
1.0
 40
1.0
 10
9.624
 20
-7.7428
 30
0.0
 10
9.624
 20
-7.7428
 30
0.0
 10
11.4719
 20
-5.5166
 30
0.0
 10
11.4719
 20
-5.5166
 30
0.0
  0
SPLINE
  5
7D
330
1F
100
AcDbEntity
  8
VRSTVA_1
 62
   250
100
AcDbSpline
210
0.0
220
0.0
230
1.0
 70
    24
 71
     3
 72
     8
 73
     4
 74
     0
 42
0.0000000001
 43
0.0000000001
 40
0.0
 40
0.0
 40
0.0
 40
0.0
 40
1.0
 40
1.0
 40
1.0
 40
1.0
 10
11.6264
 20
33.0881
 30
0.0
 10
11.6264
 20
33.0881
 30
0.0
 10
11.6264
 20
-5.5166
 30
0.0
 10
11.6264
 20
-5.5166
 30
0.0
  0
SPLINE
  5
7E
330
1F
100
AcDbEntity
  8
VRSTVA_1
 62
   250
100
AcDbSpline
210
0.0
220
0.0
230
1.0
 70
    24
 71
     3
 72
     8
 73
     4
 74
     0
 42
0.0000000001
 43
0.0000000001
 40
0.0
 40
0.0
 40
0.0
 40
0.0
 40
1.0
 40
1.0
 40
1.0
 40
1.0
 10
8.6648
 20
33.0881
 30
0.0
 10
8.6648
 20
33.0881
 30
0.0
 10
8.6648
 20
-7.9879
 30
0.0
 10
8.6648
 20
-7.9879
 30
0.0
  0
SPLINE
  5
7F
330
1F
100
AcDbEntity
  8
VRSTVA_1
 62
   250
100
AcDbSpline
210
0.0
220
0.0
230
1.0
 70
    24
 71
     3
 72
     8
 73
     4
 74
     0
 42
0.0000000001
 43
0.0000000001
 40
0.0
 40
0.0
 40
0.0
 40
0.0
 40
1.0
 40
1.0
 40
1.0
 40
1.0
 10
11.6264
 20
33.0881
 30
0.0
 10
11.6264
 20
33.0881
 30
0.0
 10
8.6648
 20
33.0881
 30
0.0
 10
8.6648
 20
33.0881
 30
0.0
  0
SPLINE
  5
80
330
1F
100
AcDbEntity
  8
VRSTVA_1
 62
   250
100
AcDbSpline
210
0.0
220
0.0
230
1.0
 70
    24
 71
     3
 72
     8
 73
     4
 74
     0
 42
0.0000000001
 43
0.0000000001
 40
0.0
 40
0.0
 40
0.0
 40
0.0
 40
1.0
 40
1.0
 40
1.0
 40
1.0
 10
-30.8316
 20
-31.0138
 30
0.0
 10
-30.8316
 20
-31.0138
 30
0.0
 10
-30.0419
 20
-31.0138
 30
0.0
 10
-30.0419
 20
-31.0138
 30
0.0
  0
SPLINE
  5
81
330
1F
100
AcDbEntity
  8
VRSTVA_1
 62
   250
100
AcDbSpline
210
0.0
220
0.0
230
1.0
 70
    24
 71
     3
 72
     8
 73
     4
 74
     0
 42
0.0000000001
 43
0.0000000001
 40
0.0
 40
0.0
 40
0.0
 40
0.0
 40
1.0
 40
1.0
 40
1.0
 40
1.0
 10
-25.3034
 20
-31.0138
 30
0.0
 10
-25.3034
 20
-31.0138
 30
0.0
 10
-24.5137
 20
-31.0138
 30
0.0
 10
-24.5137
 20
-31.0138
 30
0.0
  0
SPLINE
  5
82
330
1F
100
AcDbEntity
  8
VRSTVA_1
 62
   250
100
AcDbSpline
210
0.0
220
0.0
230
1.0
 70
    24
 71
     3
 72
     8
 73
     4
 74
     0
 42
0.0000000001
 43
0.0000000001
 40
0.0
 40
0.0
 40
0.0
 40
0.0
 40
1.0
 40
1.0
 40
1.0
 40
1.0
 10
-24.5137
 20
-30.7177
 30
0.0
 10
-24.5137
 20
-30.7177
 30
0.0
 10
-25.3034
 20
-30.7177
 30
0.0
 10
-25.3034
 20
-30.7177
 30
0.0
  0
SPLINE
  5
83
330
1F
100
AcDbEntity
  8
VRSTVA_1
 62
   250
100
AcDbSpline
210
0.0
220
0.0
230
1.0
 70
    24
 71
     3
 72
     8
 73
     4
 74
     0
 42
0.0000000001
 43
0.0000000001
 40
0.0
 40
0.0
 40
0.0
 40
0.0
 40
1.0
 40
1.0
 40
1.0
 40
1.0
 10
-30.0419
 20
-30.7177
 30
0.0
 10
-30.0419
 20
-30.7177
 30
0.0
 10
-30.8316
 20
-30.7177
 30
0.0
 10
-30.8316
 20
-30.7177
 30
0.0
  0
SPLINE
  5
84
330
1F
100
AcDbEntity
  8
VRSTVA_1
 62
   250
100
AcDbSpline
210
0.0
220
0.0
230
1.0
 70
    24
 71
     3
 72
     8
 73
     4
 74
     0
 42
0.0000000001
 43
0.0000000001
 40
0.0
 40
0.0
 40
0.0
 40
0.0
 40
1.0
 40
1.0
 40
1.0
 40
1.0
 10
-30.8316
 20
-28.3484
 30
0.0
 10
-30.8316
 20
-28.3484
 30
0.0
 10
-24.5137
 20
-28.3484
 30
0.0
 10
-24.5137
 20
-28.3484
 30
0.0
  0
SPLINE
  5
85
330
1F
100
AcDbEntity
  8
VRSTVA_1
 62
   250
100
AcDbSpline
210
0.0
220
0.0
230
1.0
 70
    24
 71
     3
 72
     8
 73
     4
 74
     0
 42
0.0000000001
 43
0.0000000001
 40
0.0
 40
0.0
 40
0.0
 40
0.0
 40
1.0
 40
1.0
 40
1.0
 40
1.0
 10
-24.5137
 20
-28.0523
 30
0.0
 10
-24.5137
 20
-28.0523
 30
0.0
 10
-30.8316
 20
-28.0523
 30
0.0
 10
-30.8316
 20
-28.0523
 30
0.0
  0
SPLINE
  5
86
330
1F
100
AcDbEntity
  8
VRSTVA_1
 62
   250
100
AcDbSpline
210
0.0
220
0.0
230
1.0
 70
    24
 71
     3
 72
     8
 73
     4
 74
     0
 42
0.0000000001
 43
0.0000000001
 40
0.0
 40
0.0
 40
0.0
 40
0.0
 40
1.0
 40
1.0
 40
1.0
 40
1.0
 10
-23.7239
 20
-30.2241
 30
0.0
 10
-23.7239
 20
-30.2241
 30
0.0
 10
-23.7239
 20
-6.3627
 30
0.0
 10
-23.7239
 20
-6.3627
 30
0.0
  0
SPLINE
  5
87
330
1F
100
AcDbEntity
  8
VRSTVA_1
 62
   250
100
AcDbSpline
210
0.0
220
0.0
230
1.0
 70
    24
 71
     3
 72
     8
 73
     4
 74
     0
 42
0.0000000001
 43
0.0000000001
 40
0.0
 40
0.0
 40
0.0
 40
0.0
 40
1.0
 40
1.0
 40
1.0
 40
1.0
 10
-24.0201
 20
-28.842
 30
0.0
 10
-24.0201
 20
-28.842
 30
0.0
 10
-24.0201
 20
-30.2241
 30
0.0
 10
-24.0201
 20
-30.2241
 30
0.0
  0
SPLINE
  5
88
330
1F
100
AcDbEntity
  8
VRSTVA_1
 62
   250
100
AcDbSpline
210
0.0
220
0.0
230
1.0
 70
    24
 71
     3
 72
     8
 73
     4
 74
     0
 42
0.0000000001
 43
0.0000000001
 40
0.0
 40
0.0
 40
0.0
 40
0.0
 40
1.0
 40
1.0
 40
1.0
 40
1.0
 10
-23.7239
 20
-20.1548
 30
0.0
 10
-23.7239
 20
-20.1548
 30
0.0
 10
-31.6214
 20
-20.1548
 30
0.0
 10
-31.6214
 20
-20.1548
 30
0.0
  0
SPLINE
  5
89
330
1F
100
AcDbEntity
  8
VRSTVA_1
 62
   250
100
AcDbSpline
210
0.0
220
0.0
230
1.0
 70
    24
 71
     3
 72
     8
 73
     4
 74
     0
 42
0.0000000001
 43
0.0000000001
 40
0.0
 40
0.0
 40
0.0
 40
0.0
 40
1.0
 40
1.0
 40
1.0
 40
1.0
 10
-25.3034
 20
-28.3484
 30
0.0
 10
-25.3034
 20
-28.3484
 30
0.0
 10
-25.3034
 20
-31.0138
 30
0.0
 10
-25.3034
 20
-31.0138
 30
0.0
  0
SPLINE
  5
8A
330
1F
100
AcDbEntity
  8
VRSTVA_1
 62
   250
100
AcDbSpline
210
0.0
220
0.0
230
1.0
 70
    24
 71
     3
 72
     8
 73
     4
 74
     0
 42
0.0000000001
 43
0.0000000001
 40
0.0
 40
0.0
 40
0.0
 40
0.0
 40
1.0
 40
1.0
 40
1.0
 40
1.0
 10
-30.0419
 20
-31.0138
 30
0.0
 10
-30.0419
 20
-31.0138
 30
0.0
 10
-30.0419
 20
-28.3484
 30
0.0
 10
-30.0419
 20
-28.3484
 30
0.0
  0
SPLINE
  5
8B
330
1F
100
AcDbEntity
  8
VRSTVA_1
 62
   250
100
AcDbSpline
210
0.0
220
0.0
230
1.0
 70
    24
 71
     3
 72
     8
 73
     4
 74
     0
 42
0.0000000001
 43
0.0000000001
 40
0.0
 40
0.0
 40
0.0
 40
0.0
 40
1.0
 40
1.0
 40
1.0
 40
1.0
 10
-31.3252
 20
-30.2241
 30
0.0
 10
-31.3252
 20
-30.2241
 30
0.0
 10
-31.3252
 20
-28.842
 30
0.0
 10
-31.3252
 20
-28.842
 30
0.0
  0
SPLINE
  5
8C
330
1F
100
AcDbEntity
  8
VRSTVA_1
 62
   250
100
AcDbSpline
210
0.0
220
0.0
230
1.0
 70
    24
 71
     3
 72
     8
 73
     4
 74
     0
 42
0.0000000001
 43
0.0000000001
 40
0.0
 40
0.0
 40
0.0
 40
0.0
 40
1.0
 40
1.0
 40
1.0
 40
1.0
 10
-31.6214
 20
-8.7079
 30
0.0
 10
-31.6214
 20
-8.7079
 30
0.0
 10
-31.6214
 20
-30.2241
 30
0.0
 10
-31.6214
 20
-30.2241
 30
0.0
  0
SPLINE
  5
8D
330
1F
100
AcDbEntity
  8
VRSTVA_1
 62
   250
100
AcDbSpline
210
0.0
220
0.0
230
1.0
 70
    24
 71
     3
 72
     8
 73
     4
 74
     0
 42
0.0000000001
 43
0.0000000001
 40
0.0
 40
0.0
 40
0.0
 40
0.0
 40
1.0
 40
1.0
 40
1.0
 40
1.0
 10
-29.3079
 20
-6.3627
 30
0.0
 10
-29.3079
 20
-6.3627
 30
0.0
 10
-31.1558
 20
-8.5889
 30
0.0
 10
-31.1558
 20
-8.5889
 30
0.0
  0
SPLINE
  5
8E
330
1F
100
AcDbEntity
  8
VRSTVA_1
 62
   250
100
AcDbSpline
210
0.0
220
0.0
230
1.0
 70
    24
 71
     3
 72
     8
 73
     4
 74
     0
 42
0.0000000001
 43
0.0000000001
 40
0.0
 40
0.0
 40
0.0
 40
0.0
 40
1.0
 40
1.0
 40
1.0
 40
1.0
 10
-31.1558
 20
-8.5889
 30
0.0
 10
-31.1558
 20
-8.5889
 30
0.0
 10
-31.6214
 20
-8.7079
 30
0.0
 10
-31.6214
 20
-8.7079
 30
0.0
  0
SPLINE
  5
8F
330
1F
100
AcDbEntity
  8
VRSTVA_1
 62
   250
100
AcDbSpline
210
0.0
220
0.0
230
1.0
 70
    24
 71
     3
 72
     8
 73
     4
 74
     0
 42
0.0000000001
 43
0.0000000001
 40
0.0
 40
0.0
 40
0.0
 40
0.0
 40
1.0
 40
1.0
 40
1.0
 40
1.0
 10
-23.7239
 20
-6.3627
 30
0.0
 10
-23.7239
 20
-6.3627
 30
0.0
 10
-29.3079
 20
-6.3627
 30
0.0
 10
-29.3079
 20
-6.3627
 30
0.0
  0
SPLINE
  5
90
330
1F
100
AcDbEntity
  8
VRSTVA_1
 62
   250
100
AcDbSpline
210
0.0
220
0.0
230
1.0
 70
    24
 71
     3
 72
     8
 73
     4
 74
     0
 42
0.0000000001
 43
0.0000000001
 40
0.0
 40
0.0
 40
0.0
 40
0.0
 40
1.0
 40
1.0
 40
1.0
 40
1.0
 10
-31.6214
 20
-7.8618
 30
0.0
 10
-31.6214
 20
-7.8618
 30
0.0
 10
-31.1558
 20
-7.7428
 30
0.0
 10
-31.1558
 20
-7.7428
 30
0.0
  0
SPLINE
  5
91
330
1F
100
AcDbEntity
  8
VRSTVA_1
 62
   250
100
AcDbSpline
210
0.0
220
0.0
230
1.0
 70
    24
 71
     3
 72
     8
 73
     4
 74
     0
 42
0.0000000001
 43
0.0000000001
 40
0.0
 40
0.0
 40
0.0
 40
0.0
 40
1.0
 40
1.0
 40
1.0
 40
1.0
 10
-29.3079
 20
-5.5166
 30
0.0
 10
-29.3079
 20
-5.5166
 30
0.0
 10
-23.7239
 20
-5.5166
 30
0.0
 10
-23.7239
 20
-5.5166
 30
0.0
  0
SPLINE
  5
92
330
1F
100
AcDbEntity
  8
VRSTVA_1
 62
   250
100
AcDbSpline
210
0.0
220
0.0
230
1.0
 70
    24
 71
     3
 72
     8
 73
     4
 74
     0
 42
0.0000000001
 43
0.0000000001
 40
0.0
 40
0.0
 40
0.0
 40
0.0
 40
1.0
 40
1.0
 40
1.0
 40
1.0
 10
-31.1558
 20
-7.7428
 30
0.0
 10
-31.1558
 20
-7.7428
 30
0.0
 10
-29.3079
 20
-5.5166
 30
0.0
 10
-29.3079
 20
-5.5166
 30
0.0
  0
SPLINE
  5
93
330
1F
100
AcDbEntity
  8
VRSTVA_1
 62
   250
100
AcDbSpline
210
0.0
220
0.0
230
1.0
 70
    24
 71
     3
 72
     8
 73
     4
 74
     0
 42
0.0000000001
 43
0.0000000001
 40
0.0
 40
0.0
 40
0.0
 40
0.0
 40
1.0
 40
1.0
 40
1.0
 40
1.0
 10
-23.7239
 20
33.0881
 30
0.0
 10
-23.7239
 20
33.0881
 30
0.0
 10
-23.7239
 20
-5.5166
 30
0.0
 10
-23.7239
 20
-5.5166
 30
0.0
  0
SPLINE
  5
94
330
1F
100
AcDbEntity
  8
VRSTVA_1
 62
   250
100
AcDbSpline
210
0.0
220
0.0
230
1.0
 70
    24
 71
     3
 72
     8
 73
     4
 74
     0
 42
0.0000000001
 43
0.0000000001
 40
0.0
 40
0.0
 40
0.0
 40
0.0
 40
1.0
 40
1.0
 40
1.0
 40
1.0
 10
-26.3893
 20
27.165
 30
0.0
 10
-26.3893
 20
27.165
 30
0.0
 10
-26.3893
 20
6.0394
 30
0.0
 10
-26.3893
 20
6.0394
 30
0.0
  0
SPLINE
  5
95
330
1F
100
AcDbEntity
  8
VRSTVA_1
 62
   250
100
AcDbSpline
210
0.0
220
0.0
230
1.0
 70
    24
 71
     3
 72
     8
 73
     4
 74
     0
 42
0.0000000001
 43
0.0000000001
 40
0.0
 40
0.0
 40
0.0
 40
0.0
 40
1.0
 40
1.0
 40
1.0
 40
1.0
 10
-28.956
 20
6.0394
 30
0.0
 10
-28.956
 20
6.0394
 30
0.0
 10
-28.956
 20
27.165
 30
0.0
 10
-28.956
 20
27.165
 30
0.0
  0
SPLINE
  5
96
330
1F
100
AcDbEntity
  8
VRSTVA_1
 62
   250
100
AcDbSpline
210
0.0
220
0.0
230
1.0
 70
    24
 71
     3
 72
     8
 73
     4
 74
     0
 42
0.0000000001
 43
0.0000000001
 40
0.0
 40
0.0
 40
0.0
 40
0.0
 40
1.0
 40
1.0
 40
1.0
 40
1.0
 10
-31.6214
 20
33.0881
 30
0.0
 10
-31.6214
 20
33.0881
 30
0.0
 10
-31.6214
 20
-7.8618
 30
0.0
 10
-31.6214
 20
-7.8618
 30
0.0
  0
SPLINE
  5
97
330
1F
100
AcDbEntity
  8
VRSTVA_1
 62
   250
100
AcDbSpline
210
0.0
220
0.0
230
1.0
 70
    24
 71
     3
 72
     8
 73
     4
 74
     0
 42
0.0000000001
 43
0.0000000001
 40
0.0
 40
0.0
 40
0.0
 40
0.0
 40
1.0
 40
1.0
 40
1.0
 40
1.0
 10
-23.7239
 20
33.0881
 30
0.0
 10
-23.7239
 20
33.0881
 30
0.0
 10
-31.6214
 20
33.0881
 30
0.0
 10
-31.6214
 20
33.0881
 30
0.0
  0
SPLINE
  5
98
330
1F
100
AcDbEntity
  8
VRSTVA_1
 62
   250
100
AcDbSpline
210
0.0
220
0.0
230
1.0
 70
     8
 71
     3
 72
     8
 73
     4
 74
     0
 42
0.0000000001
 43
0.0000000001
 40
0.0
 40
0.0
 40
0.0
 40
0.0
 40
1.0
 40
1.0
 40
1.0
 40
1.0
 10
8.6648
 20
-20.1548
 30
0.0
 10
8.6648
 20
-26.1521
 30
0.0
 10
13.5266
 20
-31.0138
 30
0.0
 10
19.5238
 20
-31.0138
 30
0.0
  0
SPLINE
  5
99
330
1F
100
AcDbEntity
  8
VRSTVA_1
 62
   250
100
AcDbSpline
210
0.0
220
0.0
230
1.0
 70
     8
 71
     3
 72
     8
 73
     4
 74
     0
 42
0.0000000001
 43
0.0000000001
 40
0.0
 40
0.0
 40
0.0
 40
0.0
 40
1.0
 40
1.0
 40
1.0
 40
1.0
 10
11.6264
 20
-20.1548
 30
0.0
 10
11.6264
 20
-24.5165
 30
0.0
 10
15.1622
 20
-28.0523
 30
0.0
 10
19.5238
 20
-28.0523
 30
0.0
  0
SPLINE
  5
9A
330
1F
100
AcDbEntity
  8
VRSTVA_1
 62
   250
100
AcDbSpline
210
0.0
220
0.0
230
1.0
 70
     8
 71
     3
 72
     8
 73
     4
 74
     0
 42
0.0000000001
 43
0.0000000001
 40
0.0
 40
0.0
 40
0.0
 40
0.0
 40
1.0
 40
1.0
 40
1.0
 40
1.0
 10
-24.5137
 20
-31.0138
 30
0.0
 10
-24.0775
 20
-31.0138
 30
0.0
 10
-23.7239
 20
-30.6602
 30
0.0
 10
-23.7239
 20
-30.2241
 30
0.0
  0
SPLINE
  5
9B
330
1F
100
AcDbEntity
  8
VRSTVA_1
 62
   250
100
AcDbSpline
210
0.0
220
0.0
230
1.0
 70
     8
 71
     3
 72
     8
 73
     4
 74
     0
 42
0.0000000001
 43
0.0000000001
 40
0.0
 40
0.0
 40
0.0
 40
0.0
 40
1.0
 40
1.0
 40
1.0
 40
1.0
 10
-23.7239
 20
-28.842
 30
0.0
 10
-23.7239
 20
-28.4058
 30
0.0
 10
-24.0775
 20
-28.0523
 30
0.0
 10
-24.5137
 20
-28.0523
 30
0.0
  0
SPLINE
  5
9C
330
1F
100
AcDbEntity
  8
VRSTVA_1
 62
   250
100
AcDbSpline
210
0.0
220
0.0
230
1.0
 70
     8
 71
     3
 72
     8
 73
     4
 74
     0
 42
0.0000000001
 43
0.0000000001
 40
0.0
 40
0.0
 40
0.0
 40
0.0
 40
1.0
 40
1.0
 40
1.0
 40
1.0
 10
-30.8316
 20
-28.0523
 30
0.0
 10
-31.2678
 20
-28.0523
 30
0.0
 10
-31.6214
 20
-28.4058
 30
0.0
 10
-31.6214
 20
-28.842
 30
0.0
  0
SPLINE
  5
9D
330
1F
100
AcDbEntity
  8
VRSTVA_1
 62
   250
100
AcDbSpline
210
0.0
220
0.0
230
1.0
 70
     8
 71
     3
 72
     8
 73
     4
 74
     0
 42
0.0000000001
 43
0.0000000001
 40
0.0
 40
0.0
 40
0.0
 40
0.0
 40
1.0
 40
1.0
 40
1.0
 40
1.0
 10
-31.6214
 20
-30.2241
 30
0.0
 10
-31.6214
 20
-30.6602
 30
0.0
 10
-31.2678
 20
-31.0138
 30
0.0
 10
-30.8316
 20
-31.0138
 30
0.0
  0
SPLINE
  5
9E
330
1F
100
AcDbEntity
  8
VRSTVA_1
 62
   250
100
AcDbSpline
210
0.0
220
0.0
230
1.0
 70
     8
 71
     3
 72
     8
 73
     4
 74
     0
 42
0.0000000001
 43
0.0000000001
 40
0.0
 40
0.0
 40
0.0
 40
0.0
 40
1.0
 40
1.0
 40
1.0
 40
1.0
 10
-24.5137
 20
-30.7177
 30
0.0
 10
-24.241
 20
-30.7177
 30
0.0
 10
-24.0201
 20
-30.4967
 30
0.0
 10
-24.0201
 20
-30.2241
 30
0.0
  0
SPLINE
  5
9F
330
1F
100
AcDbEntity
  8
VRSTVA_1
 62
   250
100
AcDbSpline
210
0.0
220
0.0
230
1.0
 70
     8
 71
     3
 72
     8
 73
     4
 74
     0
 42
0.0000000001
 43
0.0000000001
 40
0.0
 40
0.0
 40
0.0
 40
0.0
 40
1.0
 40
1.0
 40
1.0
 40
1.0
 10
-24.0201
 20
-28.842
 30
0.0
 10
-24.0201
 20
-28.5694
 30
0.0
 10
-24.241
 20
-28.3484
 30
0.0
 10
-24.5137
 20
-28.3484
 30
0.0
  0
SPLINE
  5
A0
330
1F
100
AcDbEntity
  8
VRSTVA_1
 62
   250
100
AcDbSpline
210
0.0
220
0.0
230
1.0
 70
     8
 71
     3
 72
     8
 73
     4
 74
     0
 42
0.0000000001
 43
0.0000000001
 40
0.0
 40
0.0
 40
0.0
 40
0.0
 40
1.0
 40
1.0
 40
1.0
 40
1.0
 10
-30.8316
 20
-28.3484
 30
0.0
 10
-31.1042
 20
-28.3484
 30
0.0
 10
-31.3252
 20
-28.5694
 30
0.0
 10
-31.3252
 20
-28.842
 30
0.0
  0
SPLINE
  5
A1
330
1F
100
AcDbEntity
  8
VRSTVA_1
 62
   250
100
AcDbSpline
210
0.0
220
0.0
230
1.0
 70
     8
 71
     3
 72
     8
 73
     4
 74
     0
 42
0.0000000001
 43
0.0000000001
 40
0.0
 40
0.0
 40
0.0
 40
0.0
 40
1.0
 40
1.0
 40
1.0
 40
1.0
 10
-31.3252
 20
-30.2241
 30
0.0
 10
-31.3252
 20
-30.4967
 30
0.0
 10
-31.1042
 20
-30.7177
 30
0.0
 10
-30.8316
 20
-30.7177
 30
0.0
  0
SPLINE
  5
A2
330
1F
100
AcDbEntity
  8
VRSTVA_1
 62
   250
100
AcDbSpline
210
0.0
220
0.0
230
1.0
 70
     8
 71
     3
 72
    12
 73
     8
 74
     0
 42
0.0000000001
 43
0.0000000001
 40
0.0
 40
0.0
 40
0.0
 40
0.0
 40
0.3333333333333333
 40
0.3333333333333333
 40
0.3333333333333333
 40
0.3333333333333333
 40
1.0
 40
1.0
 40
1.0
 40
1.0
 10
-28.956
 20
6.0394
 30
0.0
 10
-28.956
 20
5.3306
 30
0.0
 10
-28.3814
 20
4.7561
 30
0.0
 10
-27.6726
 20
4.7561
 30
0.0
 10
-27.6726
 20
4.7561
 30
0.0
 10
-26.9639
 20
4.7561
 30
0.0
 10
-26.3893
 20
5.3306
 30
0.0
 10
-26.3893
 20
6.0394
 30
0.0
  0
SPLINE
  5
A3
330
1F
100
AcDbEntity
  8
VRSTVA_1
 62
   250
100
AcDbSpline
210
0.0
220
0.0
230
1.0
 70
     8
 71
     3
 72
    12
 73
     8
 74
     0
 42
0.0000000001
 43
0.0000000001
 40
0.0
 40
0.0
 40
0.0
 40
0.0
 40
0.3333333333333333
 40
0.3333333333333333
 40
0.3333333333333333
 40
0.3333333333333333
 40
1.0
 40
1.0
 40
1.0
 40
1.0
 10
-26.3893
 20
27.165
 30
0.0
 10
-26.3893
 20
27.8738
 30
0.0
 10
-26.9639
 20
28.4484
 30
0.0
 10
-27.6726
 20
28.4484
 30
0.0
 10
-27.6726
 20
28.4484
 30
0.0
 10
-28.3814
 20
28.4484
 30
0.0
 10
-28.956
 20
27.8738
 30
0.0
 10
-28.956
 20
27.165
 30
0.0
  0
SPLINE
  5
A4
330
1F
100
AcDbEntity
  8
VRSTVA_1
 62
   250
100
AcDbSpline
210
0.0
220
0.0
230
1.0
 70
    24
 71
     3
 72
     8
 73
     4
 74
     0
 42
0.0000000001
 43
0.0000000001
 40
0.0
 40
0.0
 40
0.0
 40
0.0
 40
1.0
 40
1.0
 40
1.0
 40
1.0
 10
25.4501
 20
-22.9104
 30
0.0
 10
25.4501
 20
-22.9104
 30
0.0
 10
25.4501
 20
-14.2116
 30
0.0
 10
25.4501
 20
-14.2116
 30
0.0
  0
SPLINE
  5
A6
330
1F
100
AcDbEntity
  8
DEFAULT_2
 62
   250
100
AcDbSpline
210
0.0
220
0.0
230
1.0
 70
    24
 71
     3
 72
     8
 73
     4
 74
     0
 42
0.0000000001
 43
0.0000000001
 40
0.0
 40
0.0
 40
0.0
 40
0.0
 40
1.0
 40
1.0
 40
1.0
 40
1.0
 10
4.6911
 20
-29.9214
 30
0.0
 10
4.6911
 20
-29.9214
 30
0.0
 10
4.6911
 20
32.3128
 30
0.0
 10
4.6911
 20
32.3128
 30
0.0
  0
SPLINE
  5
A7
330
1F
100
AcDbEntity
  8
DEFAULT_2
 62
   250
100
AcDbSpline
210
0.0
220
0.0
230
1.0
 70
    11
 71
     3
 72
    20
 73
    16
 74
     0
 42
0.0000000001
 43
0.0000000001
 40
0.0
 40
0.0
 40
0.0
 40
0.0
 40
0.2
 40
0.2
 40
0.2
 40
0.2
 40
0.4
 40
0.4
 40
0.4
 40
0.4
 40
0.6
 40
0.6
 40
0.6
 40
0.6
 40
1.0
 40
1.0
 40
1.0
 40
1.0
 10
5.1973
 20
-27.918
 30
0.0
 10
5.1973
 20
-27.918
 30
0.0
 10
4.774
 20
-30.918
 30
0.0
 10
4.774
 20
-30.918
 30
0.0
 10
4.774
 20
-30.918
 30
0.0
 10
4.774
 20
-30.918
 30
0.0
 10
4.68
 20
-30.918
 30
0.0
 10
4.68
 20
-30.918
 30
0.0
 10
4.68
 20
-30.918
 30
0.0
 10
4.68
 20
-30.918
 30
0.0
 10
4.2285
 20
-27.918
 30
0.0
 10
4.2285
 20
-27.918
 30
0.0
 10
4.2285
 20
-27.918
 30
0.0
 10
4.2285
 20
-27.918
 30
0.0
 10
5.1973
 20
-27.918
 30
0.0
 10
5.1973
 20
-27.918
 30
0.0
  0
SPLINE
  5
A8
330
1F
100
AcDbEntity
  8
DEFAULT_2
 62
   250
100
AcDbSpline
210
0.0
220
0.0
230
1.0
 70
    11
 71
     3
 72
    20
 73
    16
 74
     0
 42
0.0000000001
 43
0.0000000001
 40
0.0
 40
0.0
 40
0.0
 40
0.0
 40
0.2
 40
0.2
 40
0.2
 40
0.2
 40
0.4
 40
0.4
 40
0.4
 40
0.4
 40
0.6
 40
0.6
 40
0.6
 40
0.6
 40
1.0
 40
1.0
 40
1.0
 40
1.0
 10
4.2023
 20
30.01
 30
0.0
 10
4.2023
 20
30.01
 30
0.0
 10
4.6257
 20
33.01
 30
0.0
 10
4.6257
 20
33.01
 30
0.0
 10
4.6257
 20
33.01
 30
0.0
 10
4.6257
 20
33.01
 30
0.0
 10
4.7197
 20
33.01
 30
0.0
 10
4.7197
 20
33.01
 30
0.0
 10
4.7197
 20
33.01
 30
0.0
 10
4.7197
 20
33.01
 30
0.0
 10
5.1713
 20
30.01
 30
0.0
 10
5.1713
 20
30.01
 30
0.0
 10
5.1713
 20
30.01
 30
0.0
 10
5.1713
 20
30.01
 30
0.0
 10
4.2023
 20
30.01
 30
0.0
 10
4.2023
 20
30.01
 30
0.0
  0
SPLINE
  5
A9
330
1F
100
AcDbEntity
  8
DEFAULT_2
 62
   250
100
AcDbSpline
210
0.0
220
0.0
230
1.0
 70
    11
 71
     3
 72
    48
 73
    44
 74
     0
 42
0.0000000001
 43
0.0000000001
 40
0.0
 40
0.0
 40
0.0
 40
0.0
 40
0.0833333333333333
 40
0.0833333333333333
 40
0.0833333333333333
 40
0.0833333333333333
 40
0.1666666666666667
 40
0.1666666666666667
 40
0.1666666666666667
 40
0.1666666666666667
 40
0.25
 40
0.25
 40
0.25
 40
0.25
 40
0.3333333333333333
 40
0.3333333333333333
 40
0.3333333333333333
 40
0.3333333333333333
 40
0.4166666666666667
 40
0.4166666666666667
 40
0.4166666666666667
 40
0.4166666666666667
 40
0.5
 40
0.5
 40
0.5
 40
0.5
 40
0.5833333333333334
 40
0.5833333333333334
 40
0.5833333333333334
 40
0.5833333333333334
 40
0.6666666666666666
 40
0.6666666666666666
 40
0.6666666666666666
 40
0.6666666666666666
 40
0.75
 40
0.75
 40
0.75
 40
0.75
 40
0.8333333333333334
 40
0.8333333333333334
 40
0.8333333333333334
 40
0.8333333333333334
 40
1.0
 40
1.0
 40
1.0
 40
1.0
 10
4.2348
 20
0.2681
 30
0.0
 10
4.2348
 20
0.2681
 30
0.0
 10
3.7513
 20
0.2681
 30
0.0
 10
3.7513
 20
0.2681
 30
0.0
 10
3.7513
 20
0.2681
 30
0.0
 10
3.7513
 20
0.2681
 30
0.0
 10
3.7513
 20
-0.6082
 30
0.0
 10
3.7513
 20
-0.6082
 30
0.0
 10
3.7513
 20
-0.6082
 30
0.0
 10
3.7513
 20
-0.6082
 30
0.0
 10
3.5236
 20
-0.6082
 30
0.0
 10
3.5236
 20
-0.6082
 30
0.0
 10
3.5236
 20
-0.6082
 30
0.0
 10
3.5236
 20
-0.6082
 30
0.0
 10
2.2146
 20
0.3137
 30
0.0
 10
2.2146
 20
0.3137
 30
0.0
 10
2.2146
 20
0.3137
 30
0.0
 10
2.2146
 20
0.3137
 30
0.0
 10
2.2146
 20
0.5165
 30
0.0
 10
2.2146
 20
0.5165
 30
0.0
 10
2.2146
 20
0.5165
 30
0.0
 10
2.2146
 20
0.5165
 30
0.0
 10
3.5236
 20
0.5165
 30
0.0
 10
3.5236
 20
0.5165
 30
0.0
 10
3.5236
 20
0.5165
 30
0.0
 10
3.5236
 20
0.5165
 30
0.0
 10
3.5236
 20
0.7893
 30
0.0
 10
3.5236
 20
0.7893
 30
0.0
 10
3.5236
 20
0.7893
 30
0.0
 10
3.5236
 20
0.7893
 30
0.0
 10
3.7513
 20
0.7893
 30
0.0
 10
3.7513
 20
0.7893
 30
0.0
 10
3.7513
 20
0.7893
 30
0.0
 10
3.7513
 20
0.7893
 30
0.0
 10
3.7513
 20
0.5165
 30
0.0
 10
3.7513
 20
0.5165
 30
0.0
 10
3.7513
 20
0.5165
 30
0.0
 10
3.7513
 20
0.5165
 30
0.0
 10
4.2348
 20
0.5165
 30
0.0
 10
4.2348
 20
0.5165
 30
0.0
 10
4.2348
 20
0.5165
 30
0.0
 10
4.2348
 20
0.5165
 30
0.0
 10
4.2348
 20
0.2681
 30
0.0
 10
4.2348
 20
0.2681
 30
0.0
  0
SPLINE
  5
AA
330
1F
100
AcDbEntity
  8
DEFAULT_2
 62
   250
100
AcDbSpline
210
0.0
220
0.0
230
1.0
 70
    11
 71
     3
 72
    16
 73
    12
 74
     0
 42
0.0000000001
 43
0.0000000001
 40
0.0
 40
0.0
 40
0.0
 40
0.0
 40
0.25
 40
0.25
 40
0.25
 40
0.25
 40
0.5
 40
0.5
 40
0.5
 40
0.5
 40
1.0
 40
1.0
 40
1.0
 40
1.0
 10
3.5236
 20
0.2681
 30
0.0
 10
3.5236
 20
0.2681
 30
0.0
 10
2.613
 20
0.2681
 30
0.0
 10
2.613
 20
0.2681
 30
0.0
 10
2.613
 20
0.2681
 30
0.0
 10
2.613
 20
0.2681
 30
0.0
 10
3.5236
 20
-0.364
 30
0.0
 10
3.5236
 20
-0.364
 30
0.0
 10
3.5236
 20
-0.364
 30
0.0
 10
3.5236
 20
-0.364
 30
0.0
 10
3.5236
 20
0.2681
 30
0.0
 10
3.5236
 20
0.2681
 30
0.0
  0
SPLINE
  5
AB
330
1F
100
AcDbEntity
  8
DEFAULT_2
 62
   250
100
AcDbSpline
210
0.0
220
0.0
230
1.0
 70
    11
 71
     3
 72
    92
 73
    88
 74
     0
 42
0.0000000001
 43
0.0000000001
 40
0.0
 40
0.0
 40
0.0
 40
0.0
 40
0.0434782608695652
 40
0.0434782608695652
 40
0.0434782608695652
 40
0.0434782608695652
 40
0.0869565217391304
 40
0.0869565217391304
 40
0.0869565217391304
 40
0.0869565217391304
 40
0.1304347826086956
 40
0.1304347826086956
 40
0.1304347826086956
 40
0.1304347826086956
 40
0.1739130434782609
 40
0.1739130434782609
 40
0.1739130434782609
 40
0.1739130434782609
 40
0.2173913043478261
 40
0.2173913043478261
 40
0.2173913043478261
 40
0.2173913043478261
 40
0.2608695652173913
 40
0.2608695652173913
 40
0.2608695652173913
 40
0.2608695652173913
 40
0.3043478260869565
 40
0.3043478260869565
 40
0.3043478260869565
 40
0.3043478260869565
 40
0.3478260869565217
 40
0.3478260869565217
 40
0.3478260869565217
 40
0.3478260869565217
 40
0.391304347826087
 40
0.391304347826087
 40
0.391304347826087
 40
0.391304347826087
 40
0.4347826086956522
 40
0.4347826086956522
 40
0.4347826086956522
 40
0.4347826086956522
 40
0.4782608695652174
 40
0.4782608695652174
 40
0.4782608695652174
 40
0.4782608695652174
 40
0.5217391304347826
 40
0.5217391304347826
 40
0.5217391304347826
 40
0.5217391304347826
 40
0.5652173913043478
 40
0.5652173913043478
 40
0.5652173913043478
 40
0.5652173913043478
 40
0.6086956521739131
 40
0.6086956521739131
 40
0.6086956521739131
 40
0.6086956521739131
 40
0.6521739130434783
 40
0.6521739130434783
 40
0.6521739130434783
 40
0.6521739130434783
 40
0.6956521739130435
 40
0.6956521739130435
 40
0.6956521739130435
 40
0.6956521739130435
 40
0.7391304347826086
 40
0.7391304347826086
 40
0.7391304347826086
 40
0.7391304347826086
 40
0.782608695652174
 40
0.782608695652174
 40
0.782608695652174
 40
0.782608695652174
 40
0.8260869565217391
 40
0.8260869565217391
 40
0.8260869565217391
 40
0.8260869565217391
 40
0.8695652173913043
 40
0.8695652173913043
 40
0.8695652173913043
 40
0.8695652173913043
 40
0.9130434782608695
 40
0.9130434782608695
 40
0.9130434782608695
 40
0.9130434782608695
 40
1.0
 40
1.0
 40
1.0
 40
1.0
 10
3.7056
 20
1.0428
 30
0.0
 10
3.7056
 20
1.0428
 30
0.0
 10
3.6835
 20
1.3034
 30
0.0
 10
3.6835
 20
1.3034
 30
0.0
 10
3.6835
 20
1.3034
 30
0.0
 10
3.8105
 20
1.3227
 30
0.0
 10
3.9056
 20
1.3674
 30
0.0
 10
3.9695
 20
1.4374
 30
0.0
 10
3.9695
 20
1.4374
 30
0.0
 10
4.0335
 20
1.508
 30
0.0
 10
4.0655
 20
1.5927
 30
0.0
 10
4.0655
 20
1.6919
 30
0.0
 10
4.0655
 20
1.6919
 30
0.0
 10
4.0655
 20
1.8114
 30
0.0
 10
4.0203
 20
1.9125
 30
0.0
 10
3.9305
 20
1.9948
 30
0.0
 10
3.9305
 20
1.9948
 30
0.0
 10
3.8402
 20
2.0776
 30
0.0
 10
3.7207
 20
2.119
 30
0.0
 10
3.5721
 20
2.119
 30
0.0
 10
3.5721
 20
2.119
 30
0.0
 10
3.4305
 20
2.119
 30
0.0
 10
3.319
 20
2.0795
 30
0.0
 10
3.2372
 20
2.0
 30
0.0
 10
3.2372
 20
2.0
 30
0.0
 10
3.1553
 20
1.9205
 30
0.0
 10
3.1144
 20
1.8166
 30
0.0
 10
3.1144
 20
1.6877
 30
0.0
 10
3.1144
 20
1.6877
 30
0.0
 10
3.1144
 20
1.6077
 30
0.0
 10
3.1327
 20
1.5358
 30
0.0
 10
3.169
 20
1.4713
 30
0.0
 10
3.169
 20
1.4713
 30
0.0
 10
3.2052
 20
1.4069
 30
0.0
 10
3.2522
 20
1.3566
 30
0.0
 10
3.3101
 20
1.3199
 30
0.0
 10
3.3101
 20
1.3199
 30
0.0
 10
3.3101
 20
1.3199
 30
0.0
 10
3.28
 20
1.087
 30
0.0
 10
3.28
 20
1.087
 30
0.0
 10
3.28
 20
1.087
 30
0.0
 10
3.28
 20
1.087
 30
0.0
 10
2.2423
 20
1.2827
 30
0.0
 10
2.2423
 20
1.2827
 30
0.0
 10
2.2423
 20
1.2827
 30
0.0
 10
2.2423
 20
1.2827
 30
0.0
 10
2.2423
 20
2.2874
 30
0.0
 10
2.2423
 20
2.2874
 30
0.0
 10
2.2423
 20
2.2874
 30
0.0
 10
2.2423
 20
2.2874
 30
0.0
 10
2.4794
 20
2.2874
 30
0.0
 10
2.4794
 20
2.2874
 30
0.0
 10
2.4794
 20
2.2874
 30
0.0
 10
2.4794
 20
2.2874
 30
0.0
 10
2.4794
 20
1.4812
 30
0.0
 10
2.4794
 20
1.4812
 30
0.0
 10
2.4794
 20
1.4812
 30
0.0
 10
2.4794
 20
1.4812
 30
0.0
 10
3.0222
 20
1.3721
 30
0.0
 10
3.0222
 20
1.3721
 30
0.0
 10
3.0222
 20
1.3721
 30
0.0
 10
2.9375
 20
1.4934
 30
0.0
 10
2.8952
 20
1.6209
 30
0.0
 10
2.8952
 20
1.754
 30
0.0
 10
2.8952
 20
1.754
 30
0.0
 10
2.8952
 20
1.9304
 30
0.0
 10
2.9564
 20
2.079
 30
0.0
 10
3.0787
 20
2.2004
 30
0.0
 10
3.0787
 20
2.2004
 30
0.0
 10
3.2009
 20
2.3217
 30
0.0
 10
3.358
 20
2.3824
 30
0.0
 10
3.55
 20
2.3824
 30
0.0
 10
3.55
 20
2.3824
 30
0.0
 10
3.7329
 20
2.3824
 30
0.0
 10
3.891
 20
2.3288
 30
0.0
 10
4.0241
 20
2.2225
 30
0.0
 10
4.0241
 20
2.2225
 30
0.0
 10
4.1873
 20
2.0927
 30
0.0
 10
4.2691
 20
1.9158
 30
0.0
 10
4.2691
 20
1.6919
 30
0.0
 10
4.2691
 20
1.6919
 30
0.0
 10
4.2691
 20
1.508
 30
0.0
 10
4.2179
 20
1.358
 30
0.0
 10
4.1149
 20
1.2418
 30
0.0
 10
4.1149
 20
1.2418
 30
0.0
 10
4.0118
 20
1.1256
 30
0.0
 10
3.8755
 20
1.0593
 30
0.0
 10
3.7056
 20
1.0428
 30
0.0
  0
SPLINE
  5
AC
330
1F
100
AcDbEntity
  8
DEFAULT_2
 62
   250
100
AcDbSpline
210
0.0
220
0.0
230
1.0
 70
    11
 71
     3
 72
    52
 73
    48
 74
     0
 42
0.0000000001
 43
0.0000000001
 40
0.0
 40
0.0
 40
0.0
 40
0.0
 40
0.0769230769230769
 40
0.0769230769230769
 40
0.0769230769230769
 40
0.0769230769230769
 40
0.1538461538461539
 40
0.1538461538461539
 40
0.1538461538461539
 40
0.1538461538461539
 40
0.2307692307692308
 40
0.2307692307692308
 40
0.2307692307692308
 40
0.2307692307692308
 40
0.3076923076923077
 40
0.3076923076923077
 40
0.3076923076923077
 40
0.3076923076923077
 40
0.3846153846153846
 40
0.3846153846153846
 40
0.3846153846153846
 40
0.3846153846153846
 40
0.4615384615384616
 40
0.4615384615384616
 40
0.4615384615384616
 40
0.4615384615384616
 40
0.5384615384615384
 40
0.5384615384615384
 40
0.5384615384615384
 40
0.5384615384615384
 40
0.6153846153846154
 40
0.6153846153846154
 40
0.6153846153846154
 40
0.6153846153846154
 40
0.6923076923076923
 40
0.6923076923076923
 40
0.6923076923076923
 40
0.6923076923076923
 40
0.7692307692307693
 40
0.7692307692307693
 40
0.7692307692307693
 40
0.7692307692307693
 40
0.8461538461538461
 40
0.8461538461538461
 40
0.8461538461538461
 40
0.8461538461538461
 40
1.0
 40
1.0
 40
1.0
 40
1.0
 10
3.2386
 20
2.6124
 30
0.0
 10
2.9996
 20
2.6124
 30
0.0
 10
2.8072
 20
2.6369
 30
0.0
 10
2.6619
 20
2.6863
 30
0.0
 10
2.6619
 20
2.6863
 30
0.0
 10
2.5161
 20
2.7352
 30
0.0
 10
2.4037
 20
2.8086
 30
0.0
 10
2.3247
 20
2.9055
 30
0.0
 10
2.3247
 20
2.9055
 30
0.0
 10
2.2456
 20
3.0024
 30
0.0
 10
2.2061
 20
3.1242
 30
0.0
 10
2.2061
 20
3.2709
 30
0.0
 10
2.2061
 20
3.2709
 30
0.0
 10
2.2061
 20
3.3796
 30
0.0
 10
2.2282
 20
3.4746
 30
0.0
 10
2.272
 20
3.5564
 30
0.0
 10
2.272
 20
3.5564
 30
0.0
 10
2.3153
 20
3.6383
 30
0.0
 10
2.3783
 20
3.7055
 30
0.0
 10
2.4606
 20
3.7592
 30
0.0
 10
2.4606
 20
3.7592
 30
0.0
 10
2.5429
 20
3.8123
 30
0.0
 10
2.6431
 20
3.8542
 30
0.0
 10
2.7612
 20
3.8843
 30
0.0
 10
2.7612
 20
3.8843
 30
0.0
 10
2.8792
 20
3.9149
 30
0.0
 10
3.0382
 20
3.9299
 30
0.0
 10
3.2386
 20
3.9299
 30
0.0
 10
3.2386
 20
3.9299
 30
0.0
 10
3.4756
 20
3.9299
 30
0.0
 10
3.6666
 20
3.9054
 30
0.0
 10
3.8124
 20
3.857
 30
0.0
 10
3.8124
 20
3.857
 30
0.0
 10
3.9582
 20
3.8081
 30
0.0
 10
4.0707
 20
3.7352
 30
0.0
 10
4.1501
 20
3.6383
 30
0.0
 10
4.1501
 20
3.6383
 30
0.0
 10
4.2296
 20
3.5414
 30
0.0
 10
4.2691
 20
3.4191
 30
0.0
 10
4.2691
 20
3.2709
 30
0.0
 10
4.2691
 20
3.2709
 30
0.0
 10
4.2691
 20
3.0762
 30
0.0
 10
4.1995
 20
2.9233
 30
0.0
 10
4.0598
 20
2.8123
 30
0.0
 10
4.0598
 20
2.8123
 30
0.0
 10
3.8919
 20
2.6792
 30
0.0
 10
3.6177
 20
2.6124
 30
0.0
 10
3.2386
 20
2.6124
 30
0.0
  0
SPLINE
  5
AD
330
1F
100
AcDbEntity
  8
DEFAULT_2
 62
   250
100
AcDbSpline
210
0.0
220
0.0
230
1.0
 70
    11
 71
     3
 72
    36
 73
    32
 74
     0
 42
0.0000000001
 43
0.0000000001
 40
0.0
 40
0.0
 40
0.0
 40
0.0
 40
0.1111111111111111
 40
0.1111111111111111
 40
0.1111111111111111
 40
0.1111111111111111
 40
0.2222222222222222
 40
0.2222222222222222
 40
0.2222222222222222
 40
0.2222222222222222
 40
0.3333333333333333
 40
0.3333333333333333
 40
0.3333333333333333
 40
0.3333333333333333
 40
0.4444444444444444
 40
0.4444444444444444
 40
0.4444444444444444
 40
0.4444444444444444
 40
0.5555555555555556
 40
0.5555555555555556
 40
0.5555555555555556
 40
0.5555555555555556
 40
0.6666666666666666
 40
0.6666666666666666
 40
0.6666666666666666
 40
0.6666666666666666
 40
0.7777777777777778
 40
0.7777777777777778
 40
0.7777777777777778
 40
0.7777777777777778
 40
1.0
 40
1.0
 40
1.0
 40
1.0
 10
3.2386
 20
2.8674
 30
0.0
 10
3.5702
 20
2.8674
 30
0.0
 10
3.7908
 20
2.9064
 30
0.0
 10
3.9008
 20
2.984
 30
0.0
 10
3.9008
 20
2.984
 30
0.0
 10
4.0104
 20
3.0616
 30
0.0
 10
4.0655
 20
3.1571
 30
0.0
 10
4.0655
 20
3.2709
 30
0.0
 10
4.0655
 20
3.2709
 30
0.0
 10
4.0655
 20
3.3852
 30
0.0
 10
4.01
 20
3.4807
 30
0.0
 10
3.8999
 20
3.5583
 30
0.0
 10
3.8999
 20
3.5583
 30
0.0
 10
3.7898
 20
3.6359
 30
0.0
 10
3.5692
 20
3.675
 30
0.0
 10
3.2386
 20
3.675
 30
0.0
 10
3.2386
 20
3.675
 30
0.0
 10
2.906
 20
3.675
 30
0.0
 10
2.685
 20
3.6359
 30
0.0
 10
2.5758
 20
3.5583
 30
0.0
 10
2.5758
 20
3.5583
 30
0.0
 10
2.4662
 20
3.4807
 30
0.0
 10
2.4117
 20
3.3843
 30
0.0
 10
2.4117
 20
3.2686
 30
0.0
 10
2.4117
 20
3.2686
 30
0.0
 10
2.4117
 20
3.1543
 30
0.0
 10
2.4601
 20
3.0635
 30
0.0
 10
2.5565
 20
2.9953
 30
0.0
 10
2.5565
 20
2.9953
 30
0.0
 10
2.6793
 20
2.9102
 30
0.0
 10
2.907
 20
2.8674
 30
0.0
 10
3.2386
 20
2.8674
 30
0.0
  0
SPLINE
  5
AE
330
1F
100
AcDbEntity
  8
DEFAULT_2
 62
   250
100
AcDbSpline
210
0.0
220
0.0
230
1.0
 70
    24
 71
     3
 72
     8
 73
     4
 74
     0
 42
0.0000000001
 43
0.0000000001
 40
0.0
 40
0.0
 40
0.0
 40
0.0
 40
1.0
 40
1.0
 40
1.0
 40
1.0
 10
-17.6036
 20
5.1825
 30
0.0
 10
-17.6036
 20
5.1825
 30
0.0
 10
-17.6036
 20
27.3678
 30
0.0
 10
-17.6036
 20
27.3678
 30
0.0
  0
SPLINE
  5
AF
330
1F
100
AcDbEntity
  8
DEFAULT_2
 62
   250
100
AcDbSpline
210
0.0
220
0.0
230
1.0
 70
    11
 71
     3
 72
    20
 73
    16
 74
     0
 42
0.0000000001
 43
0.0000000001
 40
0.0
 40
0.0
 40
0.0
 40
0.0
 40
0.2
 40
0.2
 40
0.2
 40
0.2
 40
0.4
 40
0.4
 40
0.4
 40
0.4
 40
0.6
 40
0.6
 40
0.6
 40
0.6
 40
1.0
 40
1.0
 40
1.0
 40
1.0
 10
-17.1036
 20
7.8454
 30
0.0
 10
-17.1036
 20
7.8454
 30
0.0
 10
-17.5269
 20
4.8453
 30
0.0
 10
-17.5269
 20
4.8453
 30
0.0
 10
-17.5269
 20
4.8453
 30
0.0
 10
-17.5269
 20
4.8453
 30
0.0
 10
-17.621
 20
4.8453
 30
0.0
 10
-17.621
 20
4.8453
 30
0.0
 10
-17.621
 20
4.8453
 30
0.0
 10
-17.621
 20
4.8453
 30
0.0
 10
-18.0725
 20
7.8454
 30
0.0
 10
-18.0725
 20
7.8454
 30
0.0
 10
-18.0725
 20
7.8454
 30
0.0
 10
-18.0725
 20
7.8454
 30
0.0
 10
-17.1036
 20
7.8454
 30
0.0
 10
-17.1036
 20
7.8454
 30
0.0
  0
SPLINE
  5
B0
330
1F
100
AcDbEntity
  8
DEFAULT_2
 62
   250
100
AcDbSpline
210
0.0
220
0.0
230
1.0
 70
    11
 71
     3
 72
    20
 73
    16
 74
     0
 42
0.0000000001
 43
0.0000000001
 40
0.0
 40
0.0
 40
0.0
 40
0.0
 40
0.2
 40
0.2
 40
0.2
 40
0.2
 40
0.4
 40
0.4
 40
0.4
 40
0.4
 40
0.6
 40
0.6
 40
0.6
 40
0.6
 40
1.0
 40
1.0
 40
1.0
 40
1.0
 10
-18.1108
 20
25.36
 30
0.0
 10
-18.1108
 20
25.36
 30
0.0
 10
-17.6874
 20
28.3601
 30
0.0
 10
-17.6874
 20
28.3601
 30
0.0
 10
-17.6874
 20
28.3601
 30
0.0
 10
-17.6874
 20
28.3601
 30
0.0
 10
-17.5934
 20
28.3601
 30
0.0
 10
-17.5934
 20
28.3601
 30
0.0
 10
-17.5934
 20
28.3601
 30
0.0
 10
-17.5934
 20
28.3601
 30
0.0
 10
-17.1418
 20
25.36
 30
0.0
 10
-17.1418
 20
25.36
 30
0.0
 10
-17.1418
 20
25.36
 30
0.0
 10
-17.1418
 20
25.36
 30
0.0
 10
-18.1108
 20
25.36
 30
0.0
 10
-18.1108
 20
25.36
 30
0.0
  0
SPLINE
  5
B1
330
1F
100
AcDbEntity
  8
DEFAULT_2
 62
   250
100
AcDbSpline
210
0.0
220
0.0
230
1.0
 70
    11
 71
     3
 72
    40
 73
    36
 74
     0
 42
0.0000000001
 43
0.0000000001
 40
0.0
 40
0.0
 40
0.0
 40
0.0
 40
0.1
 40
0.1
 40
0.1
 40
0.1
 40
0.2
 40
0.2
 40
0.2
 40
0.2
 40
0.3
 40
0.3
 40
0.3
 40
0.3
 40
0.4
 40
0.4
 40
0.4
 40
0.4
 40
0.5
 40
0.5
 40
0.5
 40
0.5
 40
0.6
 40
0.6
 40
0.6
 40
0.6
 40
0.7
 40
0.7
 40
0.7
 40
0.7
 40
0.8
 40
0.8
 40
0.8
 40
0.8
 40
1.0
 40
1.0
 40
1.0
 40
1.0
 10
-18.026
 20
14.1814
 30
0.0
 10
-18.026
 20
14.1814
 30
0.0
 10
-18.026
 20
13.9335
 30
0.0
 10
-18.026
 20
13.9335
 30
0.0
 10
-18.026
 20
13.9335
 30
0.0
 10
-18.026
 20
13.9335
 30
0.0
 10
-19.6064
 20
13.9335
 30
0.0
 10
-19.6064
 20
13.9335
 30
0.0
 10
-19.6064
 20
13.9335
 30
0.0
 10
-19.5495
 20
13.8737
 30
0.0
 10
-19.4926
 20
13.7957
 30
0.0
 10
-19.4357
 20
13.6988
 30
0.0
 10
-19.4357
 20
13.6988
 30
0.0
 10
-19.3788
 20
13.6014
 30
0.0
 10
-19.3359
 20
13.5144
 30
0.0
 10
-19.3077
 20
13.4372
 30
0.0
 10
-19.3077
 20
13.4372
 30
0.0
 10
-19.3077
 20
13.4372
 30
0.0
 10
-19.5472
 20
13.4372
 30
0.0
 10
-19.5472
 20
13.4372
 30
0.0
 10
-19.5472
 20
13.4372
 30
0.0
 10
-19.6125
 20
13.576
 30
0.0
 10
-19.6915
 20
13.6974
 30
0.0
 10
-19.7842
 20
13.8013
 30
0.0
 10
-19.7842
 20
13.8013
 30
0.0
 10
-19.8773
 20
13.9048
 30
0.0
 10
-19.9672
 20
13.9786
 30
0.0
 10
-20.0547
 20
14.0219
 30
0.0
 10
-20.0547
 20
14.0219
 30
0.0
 10
-20.0547
 20
14.0219
 30
0.0
 10
-20.0547
 20
14.1814
 30
0.0
 10
-20.0547
 20
14.1814
 30
0.0
 10
-20.0547
 20
14.1814
 30
0.0
 10
-20.0547
 20
14.1814
 30
0.0
 10
-18.026
 20
14.1814
 30
0.0
 10
-18.026
 20
14.1814
 30
0.0
  0
SPLINE
  5
B2
330
1F
100
AcDbEntity
  8
DEFAULT_2
 62
   250
100
AcDbSpline
210
0.0
220
0.0
230
1.0
 70
    11
 71
     3
 72
    92
 73
    88
 74
     0
 42
0.0000000001
 43
0.0000000001
 40
0.0
 40
0.0
 40
0.0
 40
0.0
 40
0.0434782608695652
 40
0.0434782608695652
 40
0.0434782608695652
 40
0.0434782608695652
 40
0.0869565217391304
 40
0.0869565217391304
 40
0.0869565217391304
 40
0.0869565217391304
 40
0.1304347826086956
 40
0.1304347826086956
 40
0.1304347826086956
 40
0.1304347826086956
 40
0.1739130434782609
 40
0.1739130434782609
 40
0.1739130434782609
 40
0.1739130434782609
 40
0.2173913043478261
 40
0.2173913043478261
 40
0.2173913043478261
 40
0.2173913043478261
 40
0.2608695652173913
 40
0.2608695652173913
 40
0.2608695652173913
 40
0.2608695652173913
 40
0.3043478260869565
 40
0.3043478260869565
 40
0.3043478260869565
 40
0.3043478260869565
 40
0.3478260869565217
 40
0.3478260869565217
 40
0.3478260869565217
 40
0.3478260869565217
 40
0.391304347826087
 40
0.391304347826087
 40
0.391304347826087
 40
0.391304347826087
 40
0.4347826086956522
 40
0.4347826086956522
 40
0.4347826086956522
 40
0.4347826086956522
 40
0.4782608695652174
 40
0.4782608695652174
 40
0.4782608695652174
 40
0.4782608695652174
 40
0.5217391304347826
 40
0.5217391304347826
 40
0.5217391304347826
 40
0.5217391304347826
 40
0.5652173913043478
 40
0.5652173913043478
 40
0.5652173913043478
 40
0.5652173913043478
 40
0.6086956521739131
 40
0.6086956521739131
 40
0.6086956521739131
 40
0.6086956521739131
 40
0.6521739130434783
 40
0.6521739130434783
 40
0.6521739130434783
 40
0.6521739130434783
 40
0.6956521739130435
 40
0.6956521739130435
 40
0.6956521739130435
 40
0.6956521739130435
 40
0.7391304347826086
 40
0.7391304347826086
 40
0.7391304347826086
 40
0.7391304347826086
 40
0.782608695652174
 40
0.782608695652174
 40
0.782608695652174
 40
0.782608695652174
 40
0.8260869565217391
 40
0.8260869565217391
 40
0.8260869565217391
 40
0.8260869565217391
 40
0.8695652173913043
 40
0.8695652173913043
 40
0.8695652173913043
 40
0.8695652173913043
 40
0.9130434782608695
 40
0.9130434782608695
 40
0.9130434782608695
 40
0.9130434782608695
 40
1.0
 40
1.0
 40
1.0
 40
1.0
 10
-18.2645
 20
16.1207
 30
0.0
 10
-18.2645
 20
16.1207
 30
0.0
 10
-18.026
 20
16.1207
 30
0.0
 10
-18.026
 20
16.1207
 30
0.0
 10
-18.026
 20
16.1207
 30
0.0
 10
-18.026
 20
16.1207
 30
0.0
 10
-18.026
 20
14.7853
 30
0.0
 10
-18.026
 20
14.7853
 30
0.0
 10
-18.026
 20
14.7853
 30
0.0
 10
-18.0857
 20
14.7834
 30
0.0
 10
-18.1431
 20
14.7928
 30
0.0
 10
-18.1981
 20
14.814
 30
0.0
 10
-18.1981
 20
14.814
 30
0.0
 10
-18.2894
 20
14.8479
 30
0.0
 10
-18.3788
 20
14.9024
 30
0.0
 10
-18.4672
 20
14.9772
 30
0.0
 10
-18.4672
 20
14.9772
 30
0.0
 10
-18.5552
 20
15.0525
 30
0.0
 10
-18.6572
 20
15.1607
 30
0.0
 10
-18.7729
 20
15.3018
 30
0.0
 10
-18.7729
 20
15.3018
 30
0.0
 10
-18.9531
 20
15.5214
 30
0.0
 10
-19.0956
 20
15.6701
 30
0.0
 10
-19.201
 20
15.7472
 30
0.0
 10
-19.201
 20
15.7472
 30
0.0
 10
-19.3058
 20
15.8243
 30
0.0
 10
-19.4056
 20
15.8629
 30
0.0
 10
-19.4992
 20
15.8629
 30
0.0
 10
-19.4992
 20
15.8629
 30
0.0
 10
-19.5975
 20
15.8629
 30
0.0
 10
-19.6803
 20
15.8276
 30
0.0
 10
-19.748
 20
15.7575
 30
0.0
 10
-19.748
 20
15.7575
 30
0.0
 10
-19.8152
 20
15.687
 30
0.0
 10
-19.8491
 20
15.5953
 30
0.0
 10
-19.8491
 20
15.4824
 30
0.0
 10
-19.8491
 20
15.4824
 30
0.0
 10
-19.8491
 20
15.3629
 30
0.0
 10
-19.8134
 20
15.2674
 30
0.0
 10
-19.7414
 20
15.1959
 30
0.0
 10
-19.7414
 20
15.1959
 30
0.0
 10
-19.6699
 20
15.124
 30
0.0
 10
-19.5707
 20
15.0877
 30
0.0
 10
-19.4441
 20
15.0868
 30
0.0
 10
-19.4441
 20
15.0868
 30
0.0
 10
-19.4441
 20
15.0868
 30
0.0
 10
-19.47
 20
14.8319
 30
0.0
 10
-19.47
 20
14.8319
 30
0.0
 10
-19.47
 20
14.8319
 30
0.0
 10
-19.6605
 20
14.8493
 30
0.0
 10
-19.8054
 20
14.9151
 30
0.0
 10
-19.9051
 20
15.029
 30
0.0
 10
-19.9051
 20
15.029
 30
0.0
 10
-20.0048
 20
15.1428
 30
0.0
 10
-20.0547
 20
15.2961
 30
0.0
 10
-20.0547
 20
15.488
 30
0.0
 10
-20.0547
 20
15.488
 30
0.0
 10
-20.0547
 20
15.6818
 30
0.0
 10
-20.0006
 20
15.8352
 30
0.0
 10
-19.8933
 20
15.948
 30
0.0
 10
-19.8933
 20
15.948
 30
0.0
 10
-19.7856
 20
16.0614
 30
0.0
 10
-19.6525
 20
16.1178
 30
0.0
 10
-19.4935
 20
16.1178
 30
0.0
 10
-19.4935
 20
16.1178
 30
0.0
 10
-19.4126
 20
16.1178
 30
0.0
 10
-19.3331
 20
16.1014
 30
0.0
 10
-19.2551
 20
16.068
 30
0.0
 10
-19.2551
 20
16.068
 30
0.0
 10
-19.177
 20
16.0351
 30
0.0
 10
-19.0947
 20
15.98
 30
0.0
 10
-19.0086
 20
15.9034
 30
0.0
 10
-19.0086
 20
15.9034
 30
0.0
 10
-18.922
 20
15.8267
 30
0.0
 10
-18.8035
 20
15.6992
 30
0.0
 10
-18.653
 20
15.521
 30
0.0
 10
-18.653
 20
15.521
 30
0.0
 10
-18.5279
 20
15.3723
 30
0.0
 10
-18.4432
 20
15.2768
 30
0.0
 10
-18.3985
 20
15.2345
 30
0.0
 10
-18.3985
 20
15.2345
 30
0.0
 10
-18.3543
 20
15.1922
 30
0.0
 10
-18.3096
 20
15.1574
 30
0.0
 10
-18.2645
 20
15.1296
 30
0.0
 10
-18.2645
 20
15.1296
 30
0.0
 10
-18.2645
 20
15.1296
 30
0.0
 10
-18.2645
 20
16.1207
 30
0.0
 10
-18.2645
 20
16.1207
 30
0.0
  0
SPLINE
  5
B3
330
1F
100
AcDbEntity
  8
DEFAULT_2
 62
   250
100
AcDbSpline
210
0.0
220
0.0
230
1.0
 70
    11
 71
     3
 72
    52
 73
    48
 74
     0
 42
0.0000000001
 43
0.0000000001
 40
0.0
 40
0.0
 40
0.0
 40
0.0
 40
0.0769230769230769
 40
0.0769230769230769
 40
0.0769230769230769
 40
0.0769230769230769
 40
0.1538461538461539
 40
0.1538461538461539
 40
0.1538461538461539
 40
0.1538461538461539
 40
0.2307692307692308
 40
0.2307692307692308
 40
0.2307692307692308
 40
0.2307692307692308
 40
0.3076923076923077
 40
0.3076923076923077
 40
0.3076923076923077
 40
0.3076923076923077
 40
0.3846153846153846
 40
0.3846153846153846
 40
0.3846153846153846
 40
0.3846153846153846
 40
0.4615384615384616
 40
0.4615384615384616
 40
0.4615384615384616
 40
0.4615384615384616
 40
0.5384615384615384
 40
0.5384615384615384
 40
0.5384615384615384
 40
0.5384615384615384
 40
0.6153846153846154
 40
0.6153846153846154
 40
0.6153846153846154
 40
0.6153846153846154
 40
0.6923076923076923
 40
0.6923076923076923
 40
0.6923076923076923
 40
0.6923076923076923
 40
0.7692307692307693
 40
0.7692307692307693
 40
0.7692307692307693
 40
0.7692307692307693
 40
0.8461538461538461
 40
0.8461538461538461
 40
0.8461538461538461
 40
0.8461538461538461
 40
1.0
 40
1.0
 40
1.0
 40
1.0
 10
-19.0222
 20
16.3864
 30
0.0
 10
-19.2612
 20
16.3864
 30
0.0
 10
-19.4536
 20
16.4109
 30
0.0
 10
-19.5989
 20
16.4603
 30
0.0
 10
-19.5989
 20
16.4603
 30
0.0
 10
-19.7447
 20
16.5092
 30
0.0
 10
-19.8571
 20
16.5826
 30
0.0
 10
-19.9361
 20
16.6795
 30
0.0
 10
-19.9361
 20
16.6795
 30
0.0
 10
-20.0152
 20
16.7764
 30
0.0
 10
-20.0547
 20
16.8982
 30
0.0
 10
-20.0547
 20
17.0449
 30
0.0
 10
-20.0547
 20
17.0449
 30
0.0
 10
-20.0547
 20
17.1536
 30
0.0
 10
-20.0326
 20
17.2486
 30
0.0
 10
-19.9888
 20
17.3304
 30
0.0
 10
-19.9888
 20
17.3304
 30
0.0
 10
-19.9455
 20
17.4123
 30
0.0
 10
-19.8825
 20
17.4795
 30
0.0
 10
-19.8002
 20
17.5332
 30
0.0
 10
-19.8002
 20
17.5332
 30
0.0
 10
-19.7179
 20
17.5863
 30
0.0
 10
-19.6177
 20
17.6282
 30
0.0
 10
-19.4996
 20
17.6583
 30
0.0
 10
-19.4996
 20
17.6583
 30
0.0
 10
-19.3816
 20
17.6889
 30
0.0
 10
-19.2226
 20
17.7039
 30
0.0
 10
-19.0222
 20
17.7039
 30
0.0
 10
-19.0222
 20
17.7039
 30
0.0
 10
-18.7852
 20
17.7039
 30
0.0
 10
-18.5942
 20
17.6794
 30
0.0
 10
-18.4484
 20
17.631
 30
0.0
 10
-18.4484
 20
17.631
 30
0.0
 10
-18.3026
 20
17.5821
 30
0.0
 10
-18.1901
 20
17.5092
 30
0.0
 10
-18.1107
 20
17.4123
 30
0.0
 10
-18.1107
 20
17.4123
 30
0.0
 10
-18.0312
 20
17.3154
 30
0.0
 10
-17.9917
 20
17.1931
 30
0.0
 10
-17.9917
 20
17.0449
 30
0.0
 10
-17.9917
 20
17.0449
 30
0.0
 10
-17.9917
 20
16.8502
 30
0.0
 10
-18.0613
 20
16.6973
 30
0.0
 10
-18.201
 20
16.5863
 30
0.0
 10
-18.201
 20
16.5863
 30
0.0
 10
-18.3689
 20
16.4532
 30
0.0
 10
-18.6431
 20
16.3864
 30
0.0
 10
-19.0222
 20
16.3864
 30
0.0
  0
SPLINE
  5
B4
330
1F
100
AcDbEntity
  8
DEFAULT_2
 62
   250
100
AcDbSpline
210
0.0
220
0.0
230
1.0
 70
    11
 71
     3
 72
    36
 73
    32
 74
     0
 42
0.0000000001
 43
0.0000000001
 40
0.0
 40
0.0
 40
0.0
 40
0.0
 40
0.1111111111111111
 40
0.1111111111111111
 40
0.1111111111111111
 40
0.1111111111111111
 40
0.2222222222222222
 40
0.2222222222222222
 40
0.2222222222222222
 40
0.2222222222222222
 40
0.3333333333333333
 40
0.3333333333333333
 40
0.3333333333333333
 40
0.3333333333333333
 40
0.4444444444444444
 40
0.4444444444444444
 40
0.4444444444444444
 40
0.4444444444444444
 40
0.5555555555555556
 40
0.5555555555555556
 40
0.5555555555555556
 40
0.5555555555555556
 40
0.6666666666666666
 40
0.6666666666666666
 40
0.6666666666666666
 40
0.6666666666666666
 40
0.7777777777777778
 40
0.7777777777777778
 40
0.7777777777777778
 40
0.7777777777777778
 40
1.0
 40
1.0
 40
1.0
 40
1.0
 10
-19.0222
 20
16.6414
 30
0.0
 10
-18.6906
 20
16.6414
 30
0.0
 10
-18.47
 20
16.6804
 30
0.0
 10
-18.36
 20
16.758
 30
0.0
 10
-18.36
 20
16.758
 30
0.0
 10
-18.2504
 20
16.8356
 30
0.0
 10
-18.1953
 20
16.9311
 30
0.0
 10
-18.1953
 20
17.0449
 30
0.0
 10
-18.1953
 20
17.0449
 30
0.0
 10
-18.1953
 20
17.1592
 30
0.0
 10
-18.2508
 20
17.2547
 30
0.0
 10
-18.3609
 20
17.3323
 30
0.0
 10
-18.3609
 20
17.3323
 30
0.0
 10
-18.471
 20
17.4099
 30
0.0
 10
-18.6916
 20
17.449
 30
0.0
 10
-19.0222
 20
17.449
 30
0.0
 10
-19.0222
 20
17.449
 30
0.0
 10
-19.3548
 20
17.449
 30
0.0
 10
-19.5758
 20
17.4099
 30
0.0
 10
-19.685
 20
17.3323
 30
0.0
 10
-19.685
 20
17.3323
 30
0.0
 10
-19.7946
 20
17.2547
 30
0.0
 10
-19.8491
 20
17.1583
 30
0.0
 10
-19.8491
 20
17.0426
 30
0.0
 10
-19.8491
 20
17.0426
 30
0.0
 10
-19.8491
 20
16.9283
 30
0.0
 10
-19.8007
 20
16.8375
 30
0.0
 10
-19.7043
 20
16.7693
 30
0.0
 10
-19.7043
 20
16.7693
 30
0.0
 10
-19.5815
 20
16.6842
 30
0.0
 10
-19.3538
 20
16.6414
 30
0.0
 10
-19.0222
 20
16.6414
 30
0.0
  0
SPLINE
  5
B5
330
1F
100
AcDbEntity
  8
DEFAULT_2
 62
   250
100
AcDbSpline
210
0.0
220
0.0
230
1.0
 70
    24
 71
     3
 72
     8
 73
     4
 74
     0
 42
0.0000000001
 43
0.0000000001
 40
0.0
 40
0.0
 40
0.0
 40
0.0
 40
1.0
 40
1.0
 40
1.0
 40
1.0
 10
-36.1109
 20
23.3008
 30
0.0
 10
-36.1109
 20
23.3008
 30
0.0
 10
-36.1109
 20
37.0995
 30
0.0
 10
-36.1109
 20
37.0995
 30
0.0
  0
SPLINE
  5
B6
330
1F
100
AcDbEntity
  8
DEFAULT_2
 62
   250
100
AcDbSpline
210
0.0
220
0.0
230
1.0
 70
    11
 71
     3
 72
    20
 73
    16
 74
     0
 42
0.0000000001
 43
0.0000000001
 40
0.0
 40
0.0
 40
0.0
 40
0.0
 40
0.2
 40
0.2
 40
0.2
 40
0.2
 40
0.4
 40
0.4
 40
0.4
 40
0.4
 40
0.6
 40
0.6
 40
0.6
 40
0.6
 40
1.0
 40
1.0
 40
1.0
 40
1.0
 10
-35.6446
 20
36.1726
 30
0.0
 10
-35.6446
 20
36.1726
 30
0.0
 10
-36.068
 20
33.1726
 30
0.0
 10
-36.068
 20
33.1726
 30
0.0
 10
-36.068
 20
33.1726
 30
0.0
 10
-36.068
 20
33.1726
 30
0.0
 10
-36.162
 20
33.1726
 30
0.0
 10
-36.162
 20
33.1726
 30
0.0
 10
-36.162
 20
33.1726
 30
0.0
 10
-36.162
 20
33.1726
 30
0.0
 10
-36.6135
 20
36.1726
 30
0.0
 10
-36.6135
 20
36.1726
 30
0.0
 10
-36.6135
 20
36.1726
 30
0.0
 10
-36.6135
 20
36.1726
 30
0.0
 10
-35.6446
 20
36.1726
 30
0.0
 10
-35.6446
 20
36.1726
 30
0.0
  0
SPLINE
  5
B7
330
1F
100
AcDbEntity
  8
DEFAULT_2
 62
   250
100
AcDbSpline
210
0.0
220
0.0
230
1.0
 70
    11
 71
     3
 72
    20
 73
    16
 74
     0
 42
0.0000000001
 43
0.0000000001
 40
0.0
 40
0.0
 40
0.0
 40
0.0
 40
0.2
 40
0.2
 40
0.2
 40
0.2
 40
0.4
 40
0.4
 40
0.4
 40
0.4
 40
0.6
 40
0.6
 40
0.6
 40
0.6
 40
1.0
 40
1.0
 40
1.0
 40
1.0
 10
-36.5842
 20
24.0841
 30
0.0
 10
-36.5842
 20
24.0841
 30
0.0
 10
-36.1609
 20
27.0841
 30
0.0
 10
-36.1609
 20
27.0841
 30
0.0
 10
-36.1609
 20
27.0841
 30
0.0
 10
-36.1609
 20
27.0841
 30
0.0
 10
-36.0668
 20
27.0841
 30
0.0
 10
-36.0668
 20
27.0841
 30
0.0
 10
-36.0668
 20
27.0841
 30
0.0
 10
-36.0668
 20
27.0841
 30
0.0
 10
-35.6153
 20
24.0841
 30
0.0
 10
-35.6153
 20
24.0841
 30
0.0
 10
-35.6153
 20
24.0841
 30
0.0
 10
-35.6153
 20
24.0841
 30
0.0
 10
-36.5842
 20
24.0841
 30
0.0
 10
-36.5842
 20
24.0841
 30
0.0
  0
SPLINE
  5
B8
330
1F
100
AcDbEntity
  8
DEFAULT_2
 62
   250
100
AcDbSpline
210
0.0
220
0.0
230
1.0
 70
    11
 71
     3
 72
   124
 73
   120
 74
     0
 42
0.0000000001
 43
0.0000000001
 40
0.0
 40
0.0
 40
0.0
 40
0.0
 40
0.032258064516129
 40
0.032258064516129
 40
0.032258064516129
 40
0.032258064516129
 40
0.0645161290322581
 40
0.0645161290322581
 40
0.0645161290322581
 40
0.0645161290322581
 40
0.0967741935483871
 40
0.0967741935483871
 40
0.0967741935483871
 40
0.0967741935483871
 40
0.1290322580645161
 40
0.1290322580645161
 40
0.1290322580645161
 40
0.1290322580645161
 40
0.1612903225806452
 40
0.1612903225806452
 40
0.1612903225806452
 40
0.1612903225806452
 40
0.1935483870967742
 40
0.1935483870967742
 40
0.1935483870967742
 40
0.1935483870967742
 40
0.2258064516129032
 40
0.2258064516129032
 40
0.2258064516129032
 40
0.2258064516129032
 40
0.2580645161290323
 40
0.2580645161290323
 40
0.2580645161290323
 40
0.2580645161290323
 40
0.2903225806451613
 40
0.2903225806451613
 40
0.2903225806451613
 40
0.2903225806451613
 40
0.3225806451612903
 40
0.3225806451612903
 40
0.3225806451612903
 40
0.3225806451612903
 40
0.3548387096774194
 40
0.3548387096774194
 40
0.3548387096774194
 40
0.3548387096774194
 40
0.3870967741935484
 40
0.3870967741935484
 40
0.3870967741935484
 40
0.3870967741935484
 40
0.4193548387096774
 40
0.4193548387096774
 40
0.4193548387096774
 40
0.4193548387096774
 40
0.4516129032258064
 40
0.4516129032258064
 40
0.4516129032258064
 40
0.4516129032258064
 40
0.4838709677419355
 40
0.4838709677419355
 40
0.4838709677419355
 40
0.4838709677419355
 40
0.5161290322580645
 40
0.5161290322580645
 40
0.5161290322580645
 40
0.5161290322580645
 40
0.5483870967741935
 40
0.5483870967741935
 40
0.5483870967741935
 40
0.5483870967741935
 40
0.5806451612903226
 40
0.5806451612903226
 40
0.5806451612903226
 40
0.5806451612903226
 40
0.6129032258064516
 40
0.6129032258064516
 40
0.6129032258064516
 40
0.6129032258064516
 40
0.6451612903225806
 40
0.6451612903225806
 40
0.6451612903225806
 40
0.6451612903225806
 40
0.6774193548387096
 40
0.6774193548387096
 40
0.6774193548387096
 40
0.6774193548387096
 40
0.7096774193548387
 40
0.7096774193548387
 40
0.7096774193548387
 40
0.7096774193548387
 40
0.7419354838709677
 40
0.7419354838709677
 40
0.7419354838709677
 40
0.7419354838709677
 40
0.7741935483870968
 40
0.7741935483870968
 40
0.7741935483870968
 40
0.7741935483870968
 40
0.8064516129032258
 40
0.8064516129032258
 40
0.8064516129032258
 40
0.8064516129032258
 40
0.8387096774193549
 40
0.8387096774193549
 40
0.8387096774193549
 40
0.8387096774193549
 40
0.8709677419354839
 40
0.8709677419354839
 40
0.8709677419354839
 40
0.8709677419354839
 40
0.9032258064516129
 40
0.9032258064516129
 40
0.9032258064516129
 40
0.9032258064516129
 40
0.9354838709677419
 40
0.9354838709677419
 40
0.9354838709677419
 40
0.9354838709677419
 40
1.0
 40
1.0
 40
1.0
 40
1.0
 10
-37.0577
 20
28.8484
 30
0.0
 10
-37.0577
 20
28.8484
 30
0.0
 10
-37.0906
 20
29.0963
 30
0.0
 10
-37.0906
 20
29.0963
 30
0.0
 10
-37.0906
 20
29.0963
 30
0.0
 10
-36.95
 20
29.125
 30
0.0
 10
-36.8488
 20
29.1735
 30
0.0
 10
-36.7868
 20
29.2416
 30
0.0
 10
-36.7868
 20
29.2416
 30
0.0
 10
-36.7247
 20
29.3103
 30
0.0
 10
-36.6936
 20
29.3936
 30
0.0
 10
-36.6936
 20
29.4919
 30
0.0
 10
-36.6936
 20
29.4919
 30
0.0
 10
-36.6936
 20
29.6085
 30
0.0
 10
-36.7341
 20
29.7073
 30
0.0
 10
-36.815
 20
29.7877
 30
0.0
 10
-36.815
 20
29.7877
 30
0.0
 10
-36.8959
 20
29.8677
 30
0.0
 10
-36.9961
 20
29.9082
 30
0.0
 10
-37.1155
 20
29.9082
 30
0.0
 10
-37.1155
 20
29.9082
 30
0.0
 10
-37.2294
 20
29.9082
 30
0.0
 10
-37.3234
 20
29.871
 30
0.0
 10
-37.3973
 20
29.7967
 30
0.0
 10
-37.3973
 20
29.7967
 30
0.0
 10
-37.4711
 20
29.7219
 30
0.0
 10
-37.5083
 20
29.6273
 30
0.0
 10
-37.5083
 20
29.5126
 30
0.0
 10
-37.5083
 20
29.5126
 30
0.0
 10
-37.5083
 20
29.4655
 30
0.0
 10
-37.4989
 20
29.4072
 30
0.0
 10
-37.4805
 20
29.3376
 30
0.0
 10
-37.4805
 20
29.3376
 30
0.0
 10
-37.4805
 20
29.3376
 30
0.0
 10
-37.6983
 20
29.3654
 30
0.0
 10
-37.6983
 20
29.3654
 30
0.0
 10
-37.6983
 20
29.3654
 30
0.0
 10
-37.6964
 20
29.3818
 30
0.0
 10
-37.6955
 20
29.395
 30
0.0
 10
-37.6955
 20
29.4053
 30
0.0
 10
-37.6955
 20
29.4053
 30
0.0
 10
-37.6955
 20
29.5107
 30
0.0
 10
-37.7233
 20
29.6057
 30
0.0
 10
-37.7783
 20
29.6904
 30
0.0
 10
-37.7783
 20
29.6904
 30
0.0
 10
-37.8333
 20
29.7751
 30
0.0
 10
-37.9185
 20
29.8174
 30
0.0
 10
-38.0332
 20
29.8174
 30
0.0
 10
-38.0332
 20
29.8174
 30
0.0
 10
-38.124
 20
29.8174
 30
0.0
 10
-38.1997
 20
29.7863
 30
0.0
 10
-38.259
 20
29.7247
 30
0.0
 10
-38.259
 20
29.7247
 30
0.0
 10
-38.3187
 20
29.6631
 30
0.0
 10
-38.3488
 20
29.5836
 30
0.0
 10
-38.3488
 20
29.4862
 30
0.0
 10
-38.3488
 20
29.4862
 30
0.0
 10
-38.3488
 20
29.3898
 30
0.0
 10
-38.3183
 20
29.3094
 30
0.0
 10
-38.258
 20
29.2454
 30
0.0
 10
-38.258
 20
29.2454
 30
0.0
 10
-38.1974
 20
29.181
 30
0.0
 10
-38.1061
 20
29.1396
 30
0.0
 10
-37.9848
 20
29.1212
 30
0.0
 10
-37.9848
 20
29.1212
 30
0.0
 10
-37.9848
 20
29.1212
 30
0.0
 10
-38.029
 20
28.8734
 30
0.0
 10
-38.029
 20
28.8734
 30
0.0
 10
-38.029
 20
28.8734
 30
0.0
 10
-38.1955
 20
28.9035
 30
0.0
 10
-38.3244
 20
28.9726
 30
0.0
 10
-38.4156
 20
29.0798
 30
0.0
 10
-38.4156
 20
29.0798
 30
0.0
 10
-38.5069
 20
29.1876
 30
0.0
 10
-38.553
 20
29.3211
 30
0.0
 10
-38.553
 20
29.4811
 30
0.0
 10
-38.553
 20
29.4811
 30
0.0
 10
-38.553
 20
29.5911
 30
0.0
 10
-38.529
 20
29.6927
 30
0.0
 10
-38.4819
 20
29.7854
 30
0.0
 10
-38.4819
 20
29.7854
 30
0.0
 10
-38.4344
 20
29.878
 30
0.0
 10
-38.37
 20
29.9491
 30
0.0
 10
-38.2882
 20
29.9985
 30
0.0
 10
-38.2882
 20
29.9985
 30
0.0
 10
-38.2063
 20
30.0474
 30
0.0
 10
-38.1198
 20
30.0723
 30
0.0
 10
-38.0276
 20
30.0723
 30
0.0
 10
-38.0276
 20
30.0723
 30
0.0
 10
-37.9406
 20
30.0723
 30
0.0
 10
-37.8611
 20
30.0488
 30
0.0
 10
-37.7891
 20
30.0018
 30
0.0
 10
-37.7891
 20
30.0018
 30
0.0
 10
-37.7176
 20
29.9547
 30
0.0
 10
-37.6607
 20
29.8856
 30
0.0
 10
-37.6184
 20
29.7939
 30
0.0
 10
-37.6184
 20
29.7939
 30
0.0
 10
-37.5911
 20
29.9133
 30
0.0
 10
-37.5337
 20
30.006
 30
0.0
 10
-37.4467
 20
30.0723
 30
0.0
 10
-37.4467
 20
30.0723
 30
0.0
 10
-37.3601
 20
30.1382
 30
0.0
 10
-37.2515
 20
30.1711
 30
0.0
 10
-37.1212
 20
30.1711
 30
0.0
 10
-37.1212
 20
30.1711
 30
0.0
 10
-36.9448
 20
30.1711
 30
0.0
 10
-36.7952
 20
30.1071
 30
0.0
 10
-36.6725
 20
29.9782
 30
0.0
 10
-36.6725
 20
29.9782
 30
0.0
 10
-36.5497
 20
29.8498
 30
0.0
 10
-36.4886
 20
29.6871
 30
0.0
 10
-36.4886
 20
29.4905
 30
0.0
 10
-36.4886
 20
29.4905
 30
0.0
 10
-36.4886
 20
29.3131
 30
0.0
 10
-36.5412
 20
29.1659
 30
0.0
 10
-36.6471
 20
29.0488
 30
0.0
 10
-36.6471
 20
29.0488
 30
0.0
 10
-36.7524
 20
28.9317
 30
0.0
 10
-36.8893
 20
28.8649
 30
0.0
 10
-37.0577
 20
28.8484
 30
0.0
  0
SPLINE
  5
B9
330
1F
100
AcDbEntity
  8
DEFAULT_2
 62
   250
100
AcDbSpline
210
0.0
220
0.0
230
1.0
 70
    11
 71
     3
 72
    52
 73
    48
 74
     0
 42
0.0000000001
 43
0.0000000001
 40
0.0
 40
0.0
 40
0.0
 40
0.0
 40
0.0769230769230769
 40
0.0769230769230769
 40
0.0769230769230769
 40
0.0769230769230769
 40
0.1538461538461539
 40
0.1538461538461539
 40
0.1538461538461539
 40
0.1538461538461539
 40
0.2307692307692308
 40
0.2307692307692308
 40
0.2307692307692308
 40
0.2307692307692308
 40
0.3076923076923077
 40
0.3076923076923077
 40
0.3076923076923077
 40
0.3076923076923077
 40
0.3846153846153846
 40
0.3846153846153846
 40
0.3846153846153846
 40
0.3846153846153846
 40
0.4615384615384616
 40
0.4615384615384616
 40
0.4615384615384616
 40
0.4615384615384616
 40
0.5384615384615384
 40
0.5384615384615384
 40
0.5384615384615384
 40
0.5384615384615384
 40
0.6153846153846154
 40
0.6153846153846154
 40
0.6153846153846154
 40
0.6153846153846154
 40
0.6923076923076923
 40
0.6923076923076923
 40
0.6923076923076923
 40
0.6923076923076923
 40
0.7692307692307693
 40
0.7692307692307693
 40
0.7692307692307693
 40
0.7692307692307693
 40
0.8461538461538461
 40
0.8461538461538461
 40
0.8461538461538461
 40
0.8461538461538461
 40
1.0
 40
1.0
 40
1.0
 40
1.0
 10
-37.5205
 20
30.4166
 30
0.0
 10
-37.7595
 20
30.4166
 30
0.0
 10
-37.9519
 20
30.4411
 30
0.0
 10
-38.0972
 20
30.4905
 30
0.0
 10
-38.0972
 20
30.4905
 30
0.0
 10
-38.243
 20
30.5394
 30
0.0
 10
-38.3554
 20
30.6128
 30
0.0
 10
-38.4344
 20
30.7097
 30
0.0
 10
-38.4344
 20
30.7097
 30
0.0
 10
-38.5135
 20
30.8066
 30
0.0
 10
-38.553
 20
30.9284
 30
0.0
 10
-38.553
 20
31.0751
 30
0.0
 10
-38.553
 20
31.0751
 30
0.0
 10
-38.553
 20
31.1838
 30
0.0
 10
-38.5309
 20
31.2788
 30
0.0
 10
-38.4871
 20
31.3606
 30
0.0
 10
-38.4871
 20
31.3606
 30
0.0
 10
-38.4438
 20
31.4425
 30
0.0
 10
-38.3808
 20
31.5097
 30
0.0
 10
-38.2985
 20
31.5634
 30
0.0
 10
-38.2985
 20
31.5634
 30
0.0
 10
-38.2162
 20
31.6165
 30
0.0
 10
-38.116
 20
31.6584
 30
0.0
 10
-37.9979
 20
31.6885
 30
0.0
 10
-37.9979
 20
31.6885
 30
0.0
 10
-37.8799
 20
31.7191
 30
0.0
 10
-37.7209
 20
31.7341
 30
0.0
 10
-37.5205
 20
31.7341
 30
0.0
 10
-37.5205
 20
31.7341
 30
0.0
 10
-37.2835
 20
31.7341
 30
0.0
 10
-37.0925
 20
31.7096
 30
0.0
 10
-36.9467
 20
31.6612
 30
0.0
 10
-36.9467
 20
31.6612
 30
0.0
 10
-36.8009
 20
31.6123
 30
0.0
 10
-36.6884
 20
31.5394
 30
0.0
 10
-36.609
 20
31.4425
 30
0.0
 10
-36.609
 20
31.4425
 30
0.0
 10
-36.5295
 20
31.3456
 30
0.0
 10
-36.49
 20
31.2233
 30
0.0
 10
-36.49
 20
31.0751
 30
0.0
 10
-36.49
 20
31.0751
 30
0.0
 10
-36.49
 20
30.8804
 30
0.0
 10
-36.5596
 20
30.7275
 30
0.0
 10
-36.6993
 20
30.6165
 30
0.0
 10
-36.6993
 20
30.6165
 30
0.0
 10
-36.8672
 20
30.4834
 30
0.0
 10
-37.1414
 20
30.4166
 30
0.0
 10
-37.5205
 20
30.4166
 30
0.0
  0
SPLINE
  5
BA
330
1F
100
AcDbEntity
  8
DEFAULT_2
 62
   250
100
AcDbSpline
210
0.0
220
0.0
230
1.0
 70
    11
 71
     3
 72
    36
 73
    32
 74
     0
 42
0.0000000001
 43
0.0000000001
 40
0.0
 40
0.0
 40
0.0
 40
0.0
 40
0.1111111111111111
 40
0.1111111111111111
 40
0.1111111111111111
 40
0.1111111111111111
 40
0.2222222222222222
 40
0.2222222222222222
 40
0.2222222222222222
 40
0.2222222222222222
 40
0.3333333333333333
 40
0.3333333333333333
 40
0.3333333333333333
 40
0.3333333333333333
 40
0.4444444444444444
 40
0.4444444444444444
 40
0.4444444444444444
 40
0.4444444444444444
 40
0.5555555555555556
 40
0.5555555555555556
 40
0.5555555555555556
 40
0.5555555555555556
 40
0.6666666666666666
 40
0.6666666666666666
 40
0.6666666666666666
 40
0.6666666666666666
 40
0.7777777777777778
 40
0.7777777777777778
 40
0.7777777777777778
 40
0.7777777777777778
 40
1.0
 40
1.0
 40
1.0
 40
1.0
 10
-37.5205
 20
30.6716
 30
0.0
 10
-37.1889
 20
30.6716
 30
0.0
 10
-36.9683
 20
30.7106
 30
0.0
 10
-36.8583
 20
30.7882
 30
0.0
 10
-36.8583
 20
30.7882
 30
0.0
 10
-36.7487
 20
30.8658
 30
0.0
 10
-36.6936
 20
30.9613
 30
0.0
 10
-36.6936
 20
31.0751
 30
0.0
 10
-36.6936
 20
31.0751
 30
0.0
 10
-36.6936
 20
31.1894
 30
0.0
 10
-36.7491
 20
31.2849
 30
0.0
 10
-36.8592
 20
31.3625
 30
0.0
 10
-36.8592
 20
31.3625
 30
0.0
 10
-36.9693
 20
31.4401
 30
0.0
 10
-37.1899
 20
31.4792
 30
0.0
 10
-37.5205
 20
31.4792
 30
0.0
 10
-37.5205
 20
31.4792
 30
0.0
 10
-37.8531
 20
31.4792
 30
0.0
 10
-38.0741
 20
31.4401
 30
0.0
 10
-38.1833
 20
31.3625
 30
0.0
 10
-38.1833
 20
31.3625
 30
0.0
 10
-38.2929
 20
31.2849
 30
0.0
 10
-38.3474
 20
31.1885
 30
0.0
 10
-38.3474
 20
31.0728
 30
0.0
 10
-38.3474
 20
31.0728
 30
0.0
 10
-38.3474
 20
30.9585
 30
0.0
 10
-38.299
 20
30.8677
 30
0.0
 10
-38.2026
 20
30.7995
 30
0.0
 10
-38.2026
 20
30.7995
 30
0.0
 10
-38.0798
 20
30.7144
 30
0.0
 10
-37.8521
 20
30.6716
 30
0.0
 10
-37.5205
 20
30.6716
 30
0.0
  0
SPLINE
  5
BB
330
1F
100
AcDbEntity
  8
DEFAULT_2
 62
   250
100
AcDbSpline
210
0.0
220
0.0
230
1.0
 70
    11
 71
     3
 72
    40
 73
    36
 74
     0
 42
0.0000000001
 43
0.0000000001
 40
0.0
 40
0.0
 40
0.0
 40
0.0
 40
0.1
 40
0.1
 40
0.1
 40
0.1
 40
0.2
 40
0.2
 40
0.2
 40
0.2
 40
0.3
 40
0.3
 40
0.3
 40
0.3
 40
0.4
 40
0.4
 40
0.4
 40
0.4
 40
0.5
 40
0.5
 40
0.5
 40
0.5
 40
0.6
 40
0.6
 40
0.6
 40
0.6
 40
0.7
 40
0.7
 40
0.7
 40
0.7
 40
0.8
 40
0.8
 40
0.8
 40
0.8
 40
1.0
 40
1.0
 40
1.0
 40
1.0
 10
19.697
 20
-35.8451
 30
0.0
 10
19.697
 20
-35.8451
 30
0.0
 10
19.4491
 20
-35.8451
 30
0.0
 10
19.4491
 20
-35.8451
 30
0.0
 10
19.4491
 20
-35.8451
 30
0.0
 10
19.4491
 20
-35.8451
 30
0.0
 10
19.4491
 20
-34.2647
 30
0.0
 10
19.4491
 20
-34.2647
 30
0.0
 10
19.4491
 20
-34.2647
 30
0.0
 10
19.3893
 20
-34.3216
 30
0.0
 10
19.3113
 20
-34.3785
 30
0.0
 10
19.2144
 20
-34.4354
 30
0.0
 10
19.2144
 20
-34.4354
 30
0.0
 10
19.117
 20
-34.4923
 30
0.0
 10
19.03
 20
-34.5352
 30
0.0
 10
18.9528
 20
-34.5634
 30
0.0
 10
18.9528
 20
-34.5634
 30
0.0
 10
18.9528
 20
-34.5634
 30
0.0
 10
18.9528
 20
-34.3239
 30
0.0
 10
18.9528
 20
-34.3239
 30
0.0
 10
18.9528
 20
-34.3239
 30
0.0
 10
19.0916
 20
-34.2586
 30
0.0
 10
19.213
 20
-34.1796
 30
0.0
 10
19.3169
 20
-34.0869
 30
0.0
 10
19.3169
 20
-34.0869
 30
0.0
 10
19.4204
 20
-33.9938
 30
0.0
 10
19.4942
 20
-33.9039
 30
0.0
 10
19.5375
 20
-33.8164
 30
0.0
 10
19.5375
 20
-33.8164
 30
0.0
 10
19.5375
 20
-33.8164
 30
0.0
 10
19.697
 20
-33.8164
 30
0.0
 10
19.697
 20
-33.8164
 30
0.0
 10
19.697
 20
-33.8164
 30
0.0
 10
19.697
 20
-33.8164
 30
0.0
 10
19.697
 20
-35.8451
 30
0.0
 10
19.697
 20
-35.8451
 30
0.0
  0
SPLINE
  5
BC
330
1F
100
AcDbEntity
  8
DEFAULT_2
 62
   250
100
AcDbSpline
210
0.0
220
0.0
230
1.0
 70
    11
 71
     3
 72
    92
 73
    88
 74
     0
 42
0.0000000001
 43
0.0000000001
 40
0.0
 40
0.0
 40
0.0
 40
0.0
 40
0.0434782608695652
 40
0.0434782608695652
 40
0.0434782608695652
 40
0.0434782608695652
 40
0.0869565217391304
 40
0.0869565217391304
 40
0.0869565217391304
 40
0.0869565217391304
 40
0.1304347826086956
 40
0.1304347826086956
 40
0.1304347826086956
 40
0.1304347826086956
 40
0.1739130434782609
 40
0.1739130434782609
 40
0.1739130434782609
 40
0.1739130434782609
 40
0.2173913043478261
 40
0.2173913043478261
 40
0.2173913043478261
 40
0.2173913043478261
 40
0.2608695652173913
 40
0.2608695652173913
 40
0.2608695652173913
 40
0.2608695652173913
 40
0.3043478260869565
 40
0.3043478260869565
 40
0.3043478260869565
 40
0.3043478260869565
 40
0.3478260869565217
 40
0.3478260869565217
 40
0.3478260869565217
 40
0.3478260869565217
 40
0.391304347826087
 40
0.391304347826087
 40
0.391304347826087
 40
0.391304347826087
 40
0.4347826086956522
 40
0.4347826086956522
 40
0.4347826086956522
 40
0.4347826086956522
 40
0.4782608695652174
 40
0.4782608695652174
 40
0.4782608695652174
 40
0.4782608695652174
 40
0.5217391304347826
 40
0.5217391304347826
 40
0.5217391304347826
 40
0.5217391304347826
 40
0.5652173913043478
 40
0.5652173913043478
 40
0.5652173913043478
 40
0.5652173913043478
 40
0.6086956521739131
 40
0.6086956521739131
 40
0.6086956521739131
 40
0.6086956521739131
 40
0.6521739130434783
 40
0.6521739130434783
 40
0.6521739130434783
 40
0.6521739130434783
 40
0.6956521739130435
 40
0.6956521739130435
 40
0.6956521739130435
 40
0.6956521739130435
 40
0.7391304347826086
 40
0.7391304347826086
 40
0.7391304347826086
 40
0.7391304347826086
 40
0.782608695652174
 40
0.782608695652174
 40
0.782608695652174
 40
0.782608695652174
 40
0.8260869565217391
 40
0.8260869565217391
 40
0.8260869565217391
 40
0.8260869565217391
 40
0.8695652173913043
 40
0.8695652173913043
 40
0.8695652173913043
 40
0.8695652173913043
 40
0.9130434782608695
 40
0.9130434782608695
 40
0.9130434782608695
 40
0.9130434782608695
 40
1.0
 40
1.0
 40
1.0
 40
1.0
 10
21.6363
 20
-35.6066
 30
0.0
 10
21.6363
 20
-35.6066
 30
0.0
 10
21.6363
 20
-35.8451
 30
0.0
 10
21.6363
 20
-35.8451
 30
0.0
 10
21.6363
 20
-35.8451
 30
0.0
 10
21.6363
 20
-35.8451
 30
0.0
 10
20.3009
 20
-35.8451
 30
0.0
 10
20.3009
 20
-35.8451
 30
0.0
 10
20.3009
 20
-35.8451
 30
0.0
 10
20.299
 20
-35.7854
 30
0.0
 10
20.3084
 20
-35.728
 30
0.0
 10
20.3296
 20
-35.673
 30
0.0
 10
20.3296
 20
-35.673
 30
0.0
 10
20.3635
 20
-35.5817
 30
0.0
 10
20.418
 20
-35.4923
 30
0.0
 10
20.4928
 20
-35.4039
 30
0.0
 10
20.4928
 20
-35.4039
 30
0.0
 10
20.5681
 20
-35.3159
 30
0.0
 10
20.6763
 20
-35.2139
 30
0.0
 10
20.8174
 20
-35.0982
 30
0.0
 10
20.8174
 20
-35.0982
 30
0.0
 10
21.037
 20
-34.918
 30
0.0
 10
21.1857
 20
-34.7755
 30
0.0
 10
21.2628
 20
-34.6701
 30
0.0
 10
21.2628
 20
-34.6701
 30
0.0
 10
21.3399
 20
-34.5653
 30
0.0
 10
21.3785
 20
-34.4655
 30
0.0
 10
21.3785
 20
-34.3719
 30
0.0
 10
21.3785
 20
-34.3719
 30
0.0
 10
21.3785
 20
-34.2736
 30
0.0
 10
21.3432
 20
-34.1908
 30
0.0
 10
21.2731
 20
-34.1231
 30
0.0
 10
21.2731
 20
-34.1231
 30
0.0
 10
21.2026
 20
-34.0559
 30
0.0
 10
21.1109
 20
-34.022
 30
0.0
 10
20.998
 20
-34.022
 30
0.0
 10
20.998
 20
-34.022
 30
0.0
 10
20.8785
 20
-34.022
 30
0.0
 10
20.783
 20
-34.0577
 30
0.0
 10
20.7115
 20
-34.1297
 30
0.0
 10
20.7115
 20
-34.1297
 30
0.0
 10
20.6396
 20
-34.2012
 30
0.0
 10
20.6033
 20
-34.3004
 30
0.0
 10
20.6024
 20
-34.427
 30
0.0
 10
20.6024
 20
-34.427
 30
0.0
 10
20.6024
 20
-34.427
 30
0.0
 10
20.3475
 20
-34.4011
 30
0.0
 10
20.3475
 20
-34.4011
 30
0.0
 10
20.3475
 20
-34.4011
 30
0.0
 10
20.3649
 20
-34.2106
 30
0.0
 10
20.4307
 20
-34.0657
 30
0.0
 10
20.5446
 20
-33.966
 30
0.0
 10
20.5446
 20
-33.966
 30
0.0
 10
20.6584
 20
-33.8663
 30
0.0
 10
20.8117
 20
-33.8164
 30
0.0
 10
21.0036
 20
-33.8164
 30
0.0
 10
21.0036
 20
-33.8164
 30
0.0
 10
21.1974
 20
-33.8164
 30
0.0
 10
21.3508
 20
-33.8705
 30
0.0
 10
21.4636
 20
-33.9778
 30
0.0
 10
21.4636
 20
-33.9778
 30
0.0
 10
21.577
 20
-34.0855
 30
0.0
 10
21.6334
 20
-34.2186
 30
0.0
 10
21.6334
 20
-34.3776
 30
0.0
 10
21.6334
 20
-34.3776
 30
0.0
 10
21.6334
 20
-34.4585
 30
0.0
 10
21.617
 20
-34.538
 30
0.0
 10
21.5836
 20
-34.616
 30
0.0
 10
21.5836
 20
-34.616
 30
0.0
 10
21.5507
 20
-34.6941
 30
0.0
 10
21.4956
 20
-34.7764
 30
0.0
 10
21.419
 20
-34.8625
 30
0.0
 10
21.419
 20
-34.8625
 30
0.0
 10
21.3423
 20
-34.9491
 30
0.0
 10
21.2148
 20
-35.0676
 30
0.0
 10
21.0366
 20
-35.2181
 30
0.0
 10
21.0366
 20
-35.2181
 30
0.0
 10
20.8879
 20
-35.3432
 30
0.0
 10
20.7924
 20
-35.4279
 30
0.0
 10
20.7501
 20
-35.4726
 30
0.0
 10
20.7501
 20
-35.4726
 30
0.0
 10
20.7078
 20
-35.5168
 30
0.0
 10
20.673
 20
-35.5615
 30
0.0
 10
20.6452
 20
-35.6066
 30
0.0
 10
20.6452
 20
-35.6066
 30
0.0
 10
20.6452
 20
-35.6066
 30
0.0
 10
21.6363
 20
-35.6066
 30
0.0
 10
21.6363
 20
-35.6066
 30
0.0
  0
SPLINE
  5
BD
330
1F
100
AcDbEntity
  8
DEFAULT_2
 62
   250
100
AcDbSpline
210
0.0
220
0.0
230
1.0
 70
    11
 71
     3
 72
    92
 73
    88
 74
     0
 42
0.0000000001
 43
0.0000000001
 40
0.0
 40
0.0
 40
0.0
 40
0.0
 40
0.0434782608695652
 40
0.0434782608695652
 40
0.0434782608695652
 40
0.0434782608695652
 40
0.0869565217391304
 40
0.0869565217391304
 40
0.0869565217391304
 40
0.0869565217391304
 40
0.1304347826086956
 40
0.1304347826086956
 40
0.1304347826086956
 40
0.1304347826086956
 40
0.1739130434782609
 40
0.1739130434782609
 40
0.1739130434782609
 40
0.1739130434782609
 40
0.2173913043478261
 40
0.2173913043478261
 40
0.2173913043478261
 40
0.2173913043478261
 40
0.2608695652173913
 40
0.2608695652173913
 40
0.2608695652173913
 40
0.2608695652173913
 40
0.3043478260869565
 40
0.3043478260869565
 40
0.3043478260869565
 40
0.3043478260869565
 40
0.3478260869565217
 40
0.3478260869565217
 40
0.3478260869565217
 40
0.3478260869565217
 40
0.391304347826087
 40
0.391304347826087
 40
0.391304347826087
 40
0.391304347826087
 40
0.4347826086956522
 40
0.4347826086956522
 40
0.4347826086956522
 40
0.4347826086956522
 40
0.4782608695652174
 40
0.4782608695652174
 40
0.4782608695652174
 40
0.4782608695652174
 40
0.5217391304347826
 40
0.5217391304347826
 40
0.5217391304347826
 40
0.5217391304347826
 40
0.5652173913043478
 40
0.5652173913043478
 40
0.5652173913043478
 40
0.5652173913043478
 40
0.6086956521739131
 40
0.6086956521739131
 40
0.6086956521739131
 40
0.6086956521739131
 40
0.6521739130434783
 40
0.6521739130434783
 40
0.6521739130434783
 40
0.6521739130434783
 40
0.6956521739130435
 40
0.6956521739130435
 40
0.6956521739130435
 40
0.6956521739130435
 40
0.7391304347826086
 40
0.7391304347826086
 40
0.7391304347826086
 40
0.7391304347826086
 40
0.782608695652174
 40
0.782608695652174
 40
0.782608695652174
 40
0.782608695652174
 40
0.8260869565217391
 40
0.8260869565217391
 40
0.8260869565217391
 40
0.8260869565217391
 40
0.8695652173913043
 40
0.8695652173913043
 40
0.8695652173913043
 40
0.8695652173913043
 40
0.9130434782608695
 40
0.9130434782608695
 40
0.9130434782608695
 40
0.9130434782608695
 40
1.0
 40
1.0
 40
1.0
 40
1.0
 10
21.902
 20
-35.3159
 30
0.0
 10
21.902
 20
-35.3159
 30
0.0
 10
22.1626
 20
-35.2938
 30
0.0
 10
22.1626
 20
-35.2938
 30
0.0
 10
22.1626
 20
-35.2938
 30
0.0
 10
22.1819
 20
-35.4208
 30
0.0
 10
22.2266
 20
-35.5159
 30
0.0
 10
22.2966
 20
-35.5798
 30
0.0
 10
22.2966
 20
-35.5798
 30
0.0
 10
22.3672
 20
-35.6438
 30
0.0
 10
22.4519
 20
-35.6758
 30
0.0
 10
22.5511
 20
-35.6758
 30
0.0
 10
22.5511
 20
-35.6758
 30
0.0
 10
22.6706
 20
-35.6758
 30
0.0
 10
22.7717
 20
-35.6306
 30
0.0
 10
22.854
 20
-35.5408
 30
0.0
 10
22.854
 20
-35.5408
 30
0.0
 10
22.9368
 20
-35.4505
 30
0.0
 10
22.9782
 20
-35.331
 30
0.0
 10
22.9782
 20
-35.1824
 30
0.0
 10
22.9782
 20
-35.1824
 30
0.0
 10
22.9782
 20
-35.0408
 30
0.0
 10
22.9387
 20
-34.9293
 30
0.0
 10
22.8592
 20
-34.8475
 30
0.0
 10
22.8592
 20
-34.8475
 30
0.0
 10
22.7797
 20
-34.7656
 30
0.0
 10
22.6758
 20
-34.7247
 30
0.0
 10
22.5469
 20
-34.7247
 30
0.0
 10
22.5469
 20
-34.7247
 30
0.0
 10
22.4669
 20
-34.7247
 30
0.0
 10
22.395
 20
-34.743
 30
0.0
 10
22.3305
 20
-34.7793
 30
0.0
 10
22.3305
 20
-34.7793
 30
0.0
 10
22.2661
 20
-34.8155
 30
0.0
 10
22.2158
 20
-34.8625
 30
0.0
 10
22.1791
 20
-34.9204
 30
0.0
 10
22.1791
 20
-34.9204
 30
0.0
 10
22.1791
 20
-34.9204
 30
0.0
 10
21.9462
 20
-34.8903
 30
0.0
 10
21.9462
 20
-34.8903
 30
0.0
 10
21.9462
 20
-34.8903
 30
0.0
 10
21.9462
 20
-34.8903
 30
0.0
 10
22.1419
 20
-33.8526
 30
0.0
 10
22.1419
 20
-33.8526
 30
0.0
 10
22.1419
 20
-33.8526
 30
0.0
 10
22.1419
 20
-33.8526
 30
0.0
 10
23.1466
 20
-33.8526
 30
0.0
 10
23.1466
 20
-33.8526
 30
0.0
 10
23.1466
 20
-33.8526
 30
0.0
 10
23.1466
 20
-33.8526
 30
0.0
 10
23.1466
 20
-34.0897
 30
0.0
 10
23.1466
 20
-34.0897
 30
0.0
 10
23.1466
 20
-34.0897
 30
0.0
 10
23.1466
 20
-34.0897
 30
0.0
 10
22.3404
 20
-34.0897
 30
0.0
 10
22.3404
 20
-34.0897
 30
0.0
 10
22.3404
 20
-34.0897
 30
0.0
 10
22.3404
 20
-34.0897
 30
0.0
 10
22.2313
 20
-34.6325
 30
0.0
 10
22.2313
 20
-34.6325
 30
0.0
 10
22.2313
 20
-34.6325
 30
0.0
 10
22.3526
 20
-34.5478
 30
0.0
 10
22.4801
 20
-34.5055
 30
0.0
 10
22.6132
 20
-34.5055
 30
0.0
 10
22.6132
 20
-34.5055
 30
0.0
 10
22.7896
 20
-34.5055
 30
0.0
 10
22.9382
 20
-34.5667
 30
0.0
 10
23.0596
 20
-34.689
 30
0.0
 10
23.0596
 20
-34.689
 30
0.0
 10
23.1809
 20
-34.8112
 30
0.0
 10
23.2416
 20
-34.9683
 30
0.0
 10
23.2416
 20
-35.1603
 30
0.0
 10
23.2416
 20
-35.1603
 30
0.0
 10
23.2416
 20
-35.3432
 30
0.0
 10
23.188
 20
-35.5013
 30
0.0
 10
23.0817
 20
-35.6344
 30
0.0
 10
23.0817
 20
-35.6344
 30
0.0
 10
22.9519
 20
-35.7976
 30
0.0
 10
22.775
 20
-35.8794
 30
0.0
 10
22.5511
 20
-35.8794
 30
0.0
 10
22.5511
 20
-35.8794
 30
0.0
 10
22.3672
 20
-35.8794
 30
0.0
 10
22.2172
 20
-35.8282
 30
0.0
 10
22.101
 20
-35.7252
 30
0.0
 10
22.101
 20
-35.7252
 30
0.0
 10
21.9848
 20
-35.6221
 30
0.0
 10
21.9185
 20
-35.4858
 30
0.0
 10
21.902
 20
-35.3159
 30
0.0
  0
SPLINE
  5
BE
330
1F
100
AcDbEntity
  8
DEFAULT_2
 62
   250
100
AcDbSpline
210
0.0
220
0.0
230
1.0
 70
    24
 71
     3
 72
     8
 73
     4
 74
     0
 42
0.0000000001
 43
0.0000000001
 40
0.0
 40
0.0
 40
0.0
 40
0.0
 40
1.0
 40
1.0
 40
1.0
 40
1.0
 10
9.0946
 20
-36.4664
 30
0.0
 10
9.0946
 20
-36.4664
 30
0.0
 10
32.8931
 20
-36.4664
 30
0.0
 10
32.8931
 20
-36.4664
 30
0.0
  0
SPLINE
  5
BF
330
1F
100
AcDbEntity
  8
DEFAULT_2
 62
   250
100
AcDbSpline
210
0.0
220
0.0
230
1.0
 70
    11
 71
     3
 72
    20
 73
    16
 74
     0
 42
0.0000000001
 43
0.0000000001
 40
0.0
 40
0.0
 40
0.0
 40
0.0
 40
0.2
 40
0.2
 40
0.2
 40
0.2
 40
0.4
 40
0.4
 40
0.4
 40
0.4
 40
0.6
 40
0.6
 40
0.6
 40
0.6
 40
1.0
 40
1.0
 40
1.0
 40
1.0
 10
30.2575
 20
-36.0232
 30
0.0
 10
30.2575
 20
-36.0232
 30
0.0
 10
33.2576
 20
-36.4465
 30
0.0
 10
33.2576
 20
-36.4465
 30
0.0
 10
33.2576
 20
-36.4465
 30
0.0
 10
33.2576
 20
-36.4465
 30
0.0
 10
33.2576
 20
-36.5406
 30
0.0
 10
33.2576
 20
-36.5406
 30
0.0
 10
33.2576
 20
-36.5406
 30
0.0
 10
33.2576
 20
-36.5406
 30
0.0
 10
30.2575
 20
-36.9921
 30
0.0
 10
30.2575
 20
-36.9921
 30
0.0
 10
30.2575
 20
-36.9921
 30
0.0
 10
30.2575
 20
-36.9921
 30
0.0
 10
30.2575
 20
-36.0232
 30
0.0
 10
30.2575
 20
-36.0232
 30
0.0
  0
SPLINE
  5
C0
330
1F
100
AcDbEntity
  8
DEFAULT_2
 62
   250
100
AcDbSpline
210
0.0
220
0.0
230
1.0
 70
    11
 71
     3
 72
    20
 73
    16
 74
     0
 42
0.0000000001
 43
0.0000000001
 40
0.0
 40
0.0
 40
0.0
 40
0.0
 40
0.2
 40
0.2
 40
0.2
 40
0.2
 40
0.4
 40
0.4
 40
0.4
 40
0.4
 40
0.6
 40
0.6
 40
0.6
 40
0.6
 40
1.0
 40
1.0
 40
1.0
 40
1.0
 10
11.799
 20
-36.9186
 30
0.0
 10
11.799
 20
-36.9186
 30
0.0
 10
8.799
 20
-36.4953
 30
0.0
 10
8.799
 20
-36.4953
 30
0.0
 10
8.799
 20
-36.4953
 30
0.0
 10
8.799
 20
-36.4953
 30
0.0
 10
8.799
 20
-36.4012
 30
0.0
 10
8.799
 20
-36.4012
 30
0.0
 10
8.799
 20
-36.4012
 30
0.0
 10
8.799
 20
-36.4012
 30
0.0
 10
11.799
 20
-35.9497
 30
0.0
 10
11.799
 20
-35.9497
 30
0.0
 10
11.799
 20
-35.9497
 30
0.0
 10
11.799
 20
-35.9497
 30
0.0
 10
11.799
 20
-36.9186
 30
0.0
 10
11.799
 20
-36.9186
 30
0.0
  0
SPLINE
  5
C1
330
1F
100
AcDbEntity
  8
DEFAULT_2
 62
   250
100
AcDbSpline
210
0.0
220
0.0
230
1.0
 70
    11
 71
     3
 72
    48
 73
    44
 74
     0
 42
0.0000000001
 43
0.0000000001
 40
0.0
 40
0.0
 40
0.0
 40
0.0
 40
0.0833333333333333
 40
0.0833333333333333
 40
0.0833333333333333
 40
0.0833333333333333
 40
0.1666666666666667
 40
0.1666666666666667
 40
0.1666666666666667
 40
0.1666666666666667
 40
0.25
 40
0.25
 40
0.25
 40
0.25
 40
0.3333333333333333
 40
0.3333333333333333
 40
0.3333333333333333
 40
0.3333333333333333
 40
0.4166666666666667
 40
0.4166666666666667
 40
0.4166666666666667
 40
0.4166666666666667
 40
0.5
 40
0.5
 40
0.5
 40
0.5
 40
0.5833333333333334
 40
0.5833333333333334
 40
0.5833333333333334
 40
0.5833333333333334
 40
0.6666666666666666
 40
0.6666666666666666
 40
0.6666666666666666
 40
0.6666666666666666
 40
0.75
 40
0.75
 40
0.75
 40
0.75
 40
0.8333333333333334
 40
0.8333333333333334
 40
0.8333333333333334
 40
0.8333333333333334
 40
1.0
 40
1.0
 40
1.0
 40
1.0
 10
28.9351
 20
-14.4511
 30
0.0
 10
28.9351
 20
-14.4511
 30
0.0
 10
28.9351
 20
-13.9676
 30
0.0
 10
28.9351
 20
-13.9676
 30
0.0
 10
28.9351
 20
-13.9676
 30
0.0
 10
28.9351
 20
-13.9676
 30
0.0
 10
28.0588
 20
-13.9676
 30
0.0
 10
28.0588
 20
-13.9676
 30
0.0
 10
28.0588
 20
-13.9676
 30
0.0
 10
28.0588
 20
-13.9676
 30
0.0
 10
28.0588
 20
-13.7399
 30
0.0
 10
28.0588
 20
-13.7399
 30
0.0
 10
28.0588
 20
-13.7399
 30
0.0
 10
28.0588
 20
-13.7399
 30
0.0
 10
28.9807
 20
-12.4309
 30
0.0
 10
28.9807
 20
-12.4309
 30
0.0
 10
28.9807
 20
-12.4309
 30
0.0
 10
28.9807
 20
-12.4309
 30
0.0
 10
29.1835
 20
-12.4309
 30
0.0
 10
29.1835
 20
-12.4309
 30
0.0
 10
29.1835
 20
-12.4309
 30
0.0
 10
29.1835
 20
-12.4309
 30
0.0
 10
29.1835
 20
-13.7399
 30
0.0
 10
29.1835
 20
-13.7399
 30
0.0
 10
29.1835
 20
-13.7399
 30
0.0
 10
29.1835
 20
-13.7399
 30
0.0
 10
29.4563
 20
-13.7399
 30
0.0
 10
29.4563
 20
-13.7399
 30
0.0
 10
29.4563
 20
-13.7399
 30
0.0
 10
29.4563
 20
-13.7399
 30
0.0
 10
29.4563
 20
-13.9676
 30
0.0
 10
29.4563
 20
-13.9676
 30
0.0
 10
29.4563
 20
-13.9676
 30
0.0
 10
29.4563
 20
-13.9676
 30
0.0
 10
29.1835
 20
-13.9676
 30
0.0
 10
29.1835
 20
-13.9676
 30
0.0
 10
29.1835
 20
-13.9676
 30
0.0
 10
29.1835
 20
-13.9676
 30
0.0
 10
29.1835
 20
-14.4511
 30
0.0
 10
29.1835
 20
-14.4511
 30
0.0
 10
29.1835
 20
-14.4511
 30
0.0
 10
29.1835
 20
-14.4511
 30
0.0
 10
28.9351
 20
-14.4511
 30
0.0
 10
28.9351
 20
-14.4511
 30
0.0
  0
SPLINE
  5
C2
330
1F
100
AcDbEntity
  8
DEFAULT_2
 62
   250
100
AcDbSpline
210
0.0
220
0.0
230
1.0
 70
    11
 71
     3
 72
    16
 73
    12
 74
     0
 42
0.0000000001
 43
0.0000000001
 40
0.0
 40
0.0
 40
0.0
 40
0.0
 40
0.25
 40
0.25
 40
0.25
 40
0.25
 40
0.5
 40
0.5
 40
0.5
 40
0.5
 40
1.0
 40
1.0
 40
1.0
 40
1.0
 10
28.9351
 20
-13.7399
 30
0.0
 10
28.9351
 20
-13.7399
 30
0.0
 10
28.9351
 20
-12.8293
 30
0.0
 10
28.9351
 20
-12.8293
 30
0.0
 10
28.9351
 20
-12.8293
 30
0.0
 10
28.9351
 20
-12.8293
 30
0.0
 10
28.303
 20
-13.7399
 30
0.0
 10
28.303
 20
-13.7399
 30
0.0
 10
28.303
 20
-13.7399
 30
0.0
 10
28.303
 20
-13.7399
 30
0.0
 10
28.9351
 20
-13.7399
 30
0.0
 10
28.9351
 20
-13.7399
 30
0.0
  0
SPLINE
  5
C3
330
1F
100
AcDbEntity
  8
DEFAULT_2
 62
   250
100
AcDbSpline
210
0.0
220
0.0
230
1.0
 70
    11
 71
     3
 72
    52
 73
    48
 74
     0
 42
0.0000000001
 43
0.0000000001
 40
0.0
 40
0.0
 40
0.0
 40
0.0
 40
0.0769230769230769
 40
0.0769230769230769
 40
0.0769230769230769
 40
0.0769230769230769
 40
0.1538461538461539
 40
0.1538461538461539
 40
0.1538461538461539
 40
0.1538461538461539
 40
0.2307692307692308
 40
0.2307692307692308
 40
0.2307692307692308
 40
0.2307692307692308
 40
0.3076923076923077
 40
0.3076923076923077
 40
0.3076923076923077
 40
0.3076923076923077
 40
0.3846153846153846
 40
0.3846153846153846
 40
0.3846153846153846
 40
0.3846153846153846
 40
0.4615384615384616
 40
0.4615384615384616
 40
0.4615384615384616
 40
0.4615384615384616
 40
0.5384615384615384
 40
0.5384615384615384
 40
0.5384615384615384
 40
0.5384615384615384
 40
0.6153846153846154
 40
0.6153846153846154
 40
0.6153846153846154
 40
0.6153846153846154
 40
0.6923076923076923
 40
0.6923076923076923
 40
0.6923076923076923
 40
0.6923076923076923
 40
0.7692307692307693
 40
0.7692307692307693
 40
0.7692307692307693
 40
0.7692307692307693
 40
0.8461538461538461
 40
0.8461538461538461
 40
0.8461538461538461
 40
0.8461538461538461
 40
1.0
 40
1.0
 40
1.0
 40
1.0
 10
29.7098
 20
-13.4549
 30
0.0
 10
29.7098
 20
-13.2159
 30
0.0
 10
29.7343
 20
-13.0235
 30
0.0
 10
29.7837
 20
-12.8782
 30
0.0
 10
29.7837
 20
-12.8782
 30
0.0
 10
29.8326
 20
-12.7324
 30
0.0
 10
29.906
 20
-12.62
 30
0.0
 10
30.0029
 20
-12.541
 30
0.0
 10
30.0029
 20
-12.541
 30
0.0
 10
30.0998
 20
-12.4619
 30
0.0
 10
30.2216
 20
-12.4224
 30
0.0
 10
30.3683
 20
-12.4224
 30
0.0
 10
30.3683
 20
-12.4224
 30
0.0
 10
30.477
 20
-12.4224
 30
0.0
 10
30.572
 20
-12.4445
 30
0.0
 10
30.6538
 20
-12.4883
 30
0.0
 10
30.6538
 20
-12.4883
 30
0.0
 10
30.7357
 20
-12.5316
 30
0.0
 10
30.8029
 20
-12.5946
 30
0.0
 10
30.8566
 20
-12.6769
 30
0.0
 10
30.8566
 20
-12.6769
 30
0.0
 10
30.9097
 20
-12.7592
 30
0.0
 10
30.9516
 20
-12.8594
 30
0.0
 10
30.9817
 20
-12.9775
 30
0.0
 10
30.9817
 20
-12.9775
 30
0.0
 10
31.0123
 20
-13.0955
 30
0.0
 10
31.0273
 20
-13.2545
 30
0.0
 10
31.0273
 20
-13.4549
 30
0.0
 10
31.0273
 20
-13.4549
 30
0.0
 10
31.0273
 20
-13.6919
 30
0.0
 10
31.0028
 20
-13.8829
 30
0.0
 10
30.9544
 20
-14.0287
 30
0.0
 10
30.9544
 20
-14.0287
 30
0.0
 10
30.9055
 20
-14.1745
 30
0.0
 10
30.8326
 20
-14.287
 30
0.0
 10
30.7357
 20
-14.3664
 30
0.0
 10
30.7357
 20
-14.3664
 30
0.0
 10
30.6388
 20
-14.4459
 30
0.0
 10
30.5165
 20
-14.4854
 30
0.0
 10
30.3683
 20
-14.4854
 30
0.0
 10
30.3683
 20
-14.4854
 30
0.0
 10
30.1736
 20
-14.4854
 30
0.0
 10
30.0207
 20
-14.4158
 30
0.0
 10
29.9097
 20
-14.2761
 30
0.0
 10
29.9097
 20
-14.2761
 30
0.0
 10
29.7766
 20
-14.1082
 30
0.0
 10
29.7098
 20
-13.834
 30
0.0
 10
29.7098
 20
-13.4549
 30
0.0
  0
SPLINE
  5
C4
330
1F
100
AcDbEntity
  8
DEFAULT_2
 62
   250
100
AcDbSpline
210
0.0
220
0.0
230
1.0
 70
    11
 71
     3
 72
    36
 73
    32
 74
     0
 42
0.0000000001
 43
0.0000000001
 40
0.0
 40
0.0
 40
0.0
 40
0.0
 40
0.1111111111111111
 40
0.1111111111111111
 40
0.1111111111111111
 40
0.1111111111111111
 40
0.2222222222222222
 40
0.2222222222222222
 40
0.2222222222222222
 40
0.2222222222222222
 40
0.3333333333333333
 40
0.3333333333333333
 40
0.3333333333333333
 40
0.3333333333333333
 40
0.4444444444444444
 40
0.4444444444444444
 40
0.4444444444444444
 40
0.4444444444444444
 40
0.5555555555555556
 40
0.5555555555555556
 40
0.5555555555555556
 40
0.5555555555555556
 40
0.6666666666666666
 40
0.6666666666666666
 40
0.6666666666666666
 40
0.6666666666666666
 40
0.7777777777777778
 40
0.7777777777777778
 40
0.7777777777777778
 40
0.7777777777777778
 40
1.0
 40
1.0
 40
1.0
 40
1.0
 10
29.9648
 20
-13.4549
 30
0.0
 10
29.9648
 20
-13.7865
 30
0.0
 10
30.0038
 20
-14.0071
 30
0.0
 10
30.0814
 20
-14.1171
 30
0.0
 10
30.0814
 20
-14.1171
 30
0.0
 10
30.159
 20
-14.2267
 30
0.0
 10
30.2545
 20
-14.2818
 30
0.0
 10
30.3683
 20
-14.2818
 30
0.0
 10
30.3683
 20
-14.2818
 30
0.0
 10
30.4826
 20
-14.2818
 30
0.0
 10
30.5781
 20
-14.2263
 30
0.0
 10
30.6557
 20
-14.1162
 30
0.0
 10
30.6557
 20
-14.1162
 30
0.0
 10
30.7333
 20
-14.0061
 30
0.0
 10
30.7724
 20
-13.7855
 30
0.0
 10
30.7724
 20
-13.4549
 30
0.0
 10
30.7724
 20
-13.4549
 30
0.0
 10
30.7724
 20
-13.1223
 30
0.0
 10
30.7333
 20
-12.9013
 30
0.0
 10
30.6557
 20
-12.7921
 30
0.0
 10
30.6557
 20
-12.7921
 30
0.0
 10
30.5781
 20
-12.6825
 30
0.0
 10
30.4817
 20
-12.628
 30
0.0
 10
30.366
 20
-12.628
 30
0.0
 10
30.366
 20
-12.628
 30
0.0
 10
30.2517
 20
-12.628
 30
0.0
 10
30.1609
 20
-12.6764
 30
0.0
 10
30.0927
 20
-12.7728
 30
0.0
 10
30.0927
 20
-12.7728
 30
0.0
 10
30.0076
 20
-12.8956
 30
0.0
 10
29.9648
 20
-13.1233
 30
0.0
 10
29.9648
 20
-13.4549
 30
0.0
  0
SPLINE
  5
C5
330
1F
100
AcDbEntity
  8
DEFAULT_2
 62
   250
100
AcDbSpline
210
0.0
220
0.0
230
1.0
 70
    24
 71
     3
 72
     8
 73
     4
 74
     0
 42
0.0000000001
 43
0.0000000001
 40
0.0
 40
0.0
 40
0.0
 40
0.0
 40
1.0
 40
1.0
 40
1.0
 40
1.0
 10
20.4358
 20
-14.8745
 30
0.0
 10
20.4358
 20
-14.8745
 30
0.0
 10
38.5533
 20
-14.8745
 30
0.0
 10
38.5533
 20
-14.8745
 30
0.0
  0
SPLINE
  5
C6
330
1F
100
AcDbEntity
  8
DEFAULT_2
 62
   250
100
AcDbSpline
210
0.0
220
0.0
230
1.0
 70
    11
 71
     3
 72
    20
 73
    16
 74
     0
 42
0.0000000001
 43
0.0000000001
 40
0.0
 40
0.0
 40
0.0
 40
0.0
 40
0.2
 40
0.2
 40
0.2
 40
0.2
 40
0.4
 40
0.4
 40
0.4
 40
0.4
 40
0.6
 40
0.6
 40
0.6
 40
0.6
 40
1.0
 40
1.0
 40
1.0
 40
1.0
 10
22.3632
 20
-14.3978
 30
0.0
 10
22.3632
 20
-14.3978
 30
0.0
 10
25.3632
 20
-14.8211
 30
0.0
 10
25.3632
 20
-14.8211
 30
0.0
 10
25.3632
 20
-14.8211
 30
0.0
 10
25.3632
 20
-14.8211
 30
0.0
 10
25.3632
 20
-14.9151
 30
0.0
 10
25.3632
 20
-14.9151
 30
0.0
 10
25.3632
 20
-14.9151
 30
0.0
 10
25.3632
 20
-14.9151
 30
0.0
 10
22.3632
 20
-15.3666
 30
0.0
 10
22.3632
 20
-15.3666
 30
0.0
 10
22.3632
 20
-15.3666
 30
0.0
 10
22.3632
 20
-15.3666
 30
0.0
 10
22.3632
 20
-14.3978
 30
0.0
 10
22.3632
 20
-14.3978
 30
0.0
  0
SPLINE
  5
C7
330
1F
100
AcDbEntity
  8
DEFAULT_2
 62
   250
100
AcDbSpline
210
0.0
220
0.0
230
1.0
 70
    11
 71
     3
 72
    20
 73
    16
 74
     0
 42
0.0000000001
 43
0.0000000001
 40
0.0
 40
0.0
 40
0.0
 40
0.0
 40
0.2
 40
0.2
 40
0.2
 40
0.2
 40
0.4
 40
0.4
 40
0.4
 40
0.4
 40
0.6
 40
0.6
 40
0.6
 40
0.6
 40
1.0
 40
1.0
 40
1.0
 40
1.0
 10
36.4319
 20
-15.3315
 30
0.0
 10
36.4319
 20
-15.3315
 30
0.0
 10
33.432
 20
-14.9082
 30
0.0
 10
33.432
 20
-14.9082
 30
0.0
 10
33.432
 20
-14.9082
 30
0.0
 10
33.432
 20
-14.9082
 30
0.0
 10
33.432
 20
-14.8141
 30
0.0
 10
33.432
 20
-14.8141
 30
0.0
 10
33.432
 20
-14.8141
 30
0.0
 10
33.432
 20
-14.8141
 30
0.0
 10
36.4319
 20
-14.3626
 30
0.0
 10
36.4319
 20
-14.3626
 30
0.0
 10
36.4319
 20
-14.3626
 30
0.0
 10
36.4319
 20
-14.3626
 30
0.0
 10
36.4319
 20
-15.3315
 30
0.0
 10
36.4319
 20
-15.3315
 30
0.0
  0
SPLINE
  5
C8
330
1F
100
AcDbEntity
  8
DEFAULT_2
 62
   250
100
AcDbSpline
210
0.0
220
0.0
230
1.0
 70
    11
 71
     3
 72
    84
 73
    80
 74
     0
 42
0.0000000001
 43
0.0000000001
 40
0.0
 40
0.0
 40
0.0
 40
0.0
 40
0.0476190476190476
 40
0.0476190476190476
 40
0.0476190476190476
 40
0.0476190476190476
 40
0.0952380952380952
 40
0.0952380952380952
 40
0.0952380952380952
 40
0.0952380952380952
 40
0.1428571428571428
 40
0.1428571428571428
 40
0.1428571428571428
 40
0.1428571428571428
 40
0.1904761904761905
 40
0.1904761904761905
 40
0.1904761904761905
 40
0.1904761904761905
 40
0.2380952380952381
 40
0.2380952380952381
 40
0.2380952380952381
 40
0.2380952380952381
 40
0.2857142857142857
 40
0.2857142857142857
 40
0.2857142857142857
 40
0.2857142857142857
 40
0.3333333333333333
 40
0.3333333333333333
 40
0.3333333333333333
 40
0.3333333333333333
 40
0.3809523809523809
 40
0.3809523809523809
 40
0.3809523809523809
 40
0.3809523809523809
 40
0.4285714285714285
 40
0.4285714285714285
 40
0.4285714285714285
 40
0.4285714285714285
 40
0.4761904761904762
 40
0.4761904761904762
 40
0.4761904761904762
 40
0.4761904761904762
 40
0.5238095238095238
 40
0.5238095238095238
 40
0.5238095238095238
 40
0.5238095238095238
 40
0.5714285714285714
 40
0.5714285714285714
 40
0.5714285714285714
 40
0.5714285714285714
 40
0.6190476190476191
 40
0.6190476190476191
 40
0.6190476190476191
 40
0.6190476190476191
 40
0.6666666666666666
 40
0.6666666666666666
 40
0.6666666666666666
 40
0.6666666666666666
 40
0.7142857142857143
 40
0.7142857142857143
 40
0.7142857142857143
 40
0.7142857142857143
 40
0.7619047619047619
 40
0.7619047619047619
 40
0.7619047619047619
 40
0.7619047619047619
 40
0.8095238095238095
 40
0.8095238095238095
 40
0.8095238095238095
 40
0.8095238095238095
 40
0.8571428571428571
 40
0.8571428571428571
 40
0.8571428571428571
 40
0.8571428571428571
 40
0.9047619047619048
 40
0.9047619047619048
 40
0.9047619047619048
 40
0.9047619047619048
 40
1.0
 40
1.0
 40
1.0
 40
1.0
 10
19.4965
 20
-21.7949
 30
0.0
 10
19.4965
 20
-21.7949
 30
0.0
 10
19.7279
 20
-21.5358
 30
0.0
 10
19.7279
 20
-21.5358
 30
0.0
 10
19.7279
 20
-21.5358
 30
0.0
 10
19.7279
 20
-21.5358
 30
0.0
 10
19.8643
 20
-21.6515
 30
0.0
 10
19.8643
 20
-21.6515
 30
0.0
 10
19.8643
 20
-21.6515
 30
0.0
 10
19.8643
 20
-21.6515
 30
0.0
 10
19.622
 20
-21.9243
 30
0.0
 10
19.622
 20
-21.9243
 30
0.0
 10
19.622
 20
-21.9243
 30
0.0
 10
19.7011
 20
-22.0419
 30
0.0
 10
19.7542
 20
-22.1449
 30
0.0
 10
19.782
 20
-22.2328
 30
0.0
 10
19.782
 20
-22.2328
 30
0.0
 10
19.8187
 20
-22.3486
 30
0.0
 10
19.837
 20
-22.4784
 30
0.0
 10
19.837
 20
-22.6214
 30
0.0
 10
19.837
 20
-22.6214
 30
0.0
 10
19.837
 20
-22.8283
 30
0.0
 10
19.7951
 20
-23.0127
 30
0.0
 10
19.7114
 20
-23.1741
 30
0.0
 10
19.7114
 20
-23.1741
 30
0.0
 10
19.6277
 20
-23.3359
 30
0.0
 10
19.5106
 20
-23.4582
 30
0.0
 10
19.3596
 20
-23.5409
 30
0.0
 10
19.3596
 20
-23.5409
 30
0.0
 10
19.2081
 20
-23.6233
 30
0.0
 10
19.0477
 20
-23.6646
 30
0.0
 10
18.8779
 20
-23.6646
 30
0.0
 10
18.8779
 20
-23.6646
 30
0.0
 10
18.7509
 20
-23.6646
 30
0.0
 10
18.6362
 20
-23.6468
 30
0.0
 10
18.5332
 20
-23.611
 30
0.0
 10
18.5332
 20
-23.611
 30
0.0
 10
18.4541
 20
-23.5833
 30
0.0
 10
18.362
 20
-23.5306
 30
0.0
 10
18.2561
 20
-23.4525
 30
0.0
 10
18.2561
 20
-23.4525
 30
0.0
 10
18.2561
 20
-23.4525
 30
0.0
 10
18.0247
 20
-23.7117
 30
0.0
 10
18.0247
 20
-23.7117
 30
0.0
 10
18.0247
 20
-23.7117
 30
0.0
 10
18.0247
 20
-23.7117
 30
0.0
 10
17.8883
 20
-23.596
 30
0.0
 10
17.8883
 20
-23.596
 30
0.0
 10
17.8883
 20
-23.596
 30
0.0
 10
17.8883
 20
-23.596
 30
0.0
 10
18.131
 20
-23.3246
 30
0.0
 10
18.131
 20
-23.3246
 30
0.0
 10
18.131
 20
-23.3246
 30
0.0
 10
18.0407
 20
-23.1877
 30
0.0
 10
17.9805
 20
-23.0706
 30
0.0
 10
17.9504
 20
-22.9737
 30
0.0
 10
17.9504
 20
-22.9737
 30
0.0
 10
17.9203
 20
-22.8768
 30
0.0
 10
17.9047
 20
-22.7601
 30
0.0
 10
17.9047
 20
-22.6242
 30
0.0
 10
17.9047
 20
-22.6242
 30
0.0
 10
17.9047
 20
-22.4168
 30
0.0
 10
17.9461
 20
-22.2319
 30
0.0
 10
18.0289
 20
-22.0696
 30
0.0
 10
18.0289
 20
-22.0696
 30
0.0
 10
18.1117
 20
-21.9074
 30
0.0
 10
18.2274
 20
-21.7846
 30
0.0
 10
18.377
 20
-21.7009
 30
0.0
 10
18.377
 20
-21.7009
 30
0.0
 10
18.5261
 20
-21.6176
 30
0.0
 10
18.6922
 20
-21.5758
 30
0.0
 10
18.8751
 20
-21.5758
 30
0.0
 10
18.8751
 20
-21.5758
 30
0.0
 10
18.9983
 20
-21.5758
 30
0.0
 10
19.1061
 20
-21.5918
 30
0.0
 10
19.1983
 20
-21.6247
 30
0.0
 10
19.1983
 20
-21.6247
 30
0.0
 10
19.2904
 20
-21.6571
 30
0.0
 10
19.3902
 20
-21.7141
 30
0.0
 10
19.4965
 20
-21.7949
 30
0.0
  0
SPLINE
  5
C9
330
1F
100
AcDbEntity
  8
DEFAULT_2
 62
   250
100
AcDbSpline
210
0.0
220
0.0
230
1.0
 70
    11
 71
     3
 72
    32
 73
    28
 74
     0
 42
0.0000000001
 43
0.0000000001
 40
0.0
 40
0.0
 40
0.0
 40
0.0
 40
0.125
 40
0.125
 40
0.125
 40
0.125
 40
0.25
 40
0.25
 40
0.25
 40
0.25
 40
0.375
 40
0.375
 40
0.375
 40
0.375
 40
0.5
 40
0.5
 40
0.5
 40
0.5
 40
0.625
 40
0.625
 40
0.625
 40
0.625
 40
0.75
 40
0.75
 40
0.75
 40
0.75
 40
1.0
 40
1.0
 40
1.0
 40
1.0
 10
19.3314
 20
-21.9807
 30
0.0
 10
19.2448
 20
-21.913
 30
0.0
 10
19.1691
 20
-21.8664
 30
0.0
 10
19.1047
 20
-21.8415
 30
0.0
 10
19.1047
 20
-21.8415
 30
0.0
 10
19.0397
 20
-21.8171
 30
0.0
 10
18.9635
 20
-21.8044
 30
0.0
 10
18.8765
 20
-21.8044
 30
0.0
 10
18.8765
 20
-21.8044
 30
0.0
 10
18.6752
 20
-21.8044
 30
0.0
 10
18.5092
 20
-21.8726
 30
0.0
 10
18.3775
 20
-22.009
 30
0.0
 10
18.3775
 20
-22.009
 30
0.0
 10
18.2463
 20
-22.1454
 30
0.0
 10
18.1804
 20
-22.349
 30
0.0
 10
18.1804
 20
-22.6204
 30
0.0
 10
18.1804
 20
-22.6204
 30
0.0
 10
18.1804
 20
-22.7267
 30
0.0
 10
18.1907
 20
-22.8213
 30
0.0
 10
18.211
 20
-22.9041
 30
0.0
 10
18.211
 20
-22.9041
 30
0.0
 10
18.2255
 20
-22.9657
 30
0.0
 10
18.2561
 20
-23.0414
 30
0.0
 10
18.3032
 20
-23.1312
 30
0.0
 10
18.3032
 20
-23.1312
 30
0.0
 10
18.3032
 20
-23.1312
 30
0.0
 10
19.3314
 20
-21.9807
 30
0.0
 10
19.3314
 20
-21.9807
 30
0.0
  0
SPLINE
  5
CA
330
1F
100
AcDbEntity
  8
DEFAULT_2
 62
   250
100
AcDbSpline
210
0.0
220
0.0
230
1.0
 70
    11
 71
     3
 72
    28
 73
    24
 74
     0
 42
0.0000000001
 43
0.0000000001
 40
0.0
 40
0.0
 40
0.0
 40
0.0
 40
0.1428571428571428
 40
0.1428571428571428
 40
0.1428571428571428
 40
0.1428571428571428
 40
0.2857142857142857
 40
0.2857142857142857
 40
0.2857142857142857
 40
0.2857142857142857
 40
0.4285714285714285
 40
0.4285714285714285
 40
0.4285714285714285
 40
0.4285714285714285
 40
0.5714285714285714
 40
0.5714285714285714
 40
0.5714285714285714
 40
0.5714285714285714
 40
0.7142857142857143
 40
0.7142857142857143
 40
0.7142857142857143
 40
0.7142857142857143
 40
1.0
 40
1.0
 40
1.0
 40
1.0
 10
19.4443
 20
-22.1228
 30
0.0
 10
19.4443
 20
-22.1228
 30
0.0
 10
18.4203
 20
-23.2691
 30
0.0
 10
18.4203
 20
-23.2691
 30
0.0
 10
18.4203
 20
-23.2691
 30
0.0
 10
18.4908
 20
-23.3269
 30
0.0
 10
18.5562
 20
-23.3674
 30
0.0
 10
18.6159
 20
-23.3904
 30
0.0
 10
18.6159
 20
-23.3904
 30
0.0
 10
18.694
 20
-23.421
 30
0.0
 10
18.7787
 20
-23.4361
 30
0.0
 10
18.8695
 20
-23.4361
 30
0.0
 10
18.8695
 20
-23.4361
 30
0.0
 10
19.0699
 20
-23.4361
 30
0.0
 10
19.235
 20
-23.3655
 30
0.0
 10
19.3657
 20
-23.2239
 30
0.0
 10
19.3657
 20
-23.2239
 30
0.0
 10
19.496
 20
-23.0823
 30
0.0
 10
19.5614
 20
-22.8838
 30
0.0
 10
19.5614
 20
-22.6284
 30
0.0
 10
19.5614
 20
-22.6284
 30
0.0
 10
19.5614
 20
-22.4375
 30
0.0
 10
19.5223
 20
-22.2686
 30
0.0
 10
19.4443
 20
-22.1228
 30
0.0
  0
SPLINE
  5
CB
330
1F
100
AcDbEntity
  8
DEFAULT_2
 62
   250
100
AcDbSpline
210
0.0
220
0.0
230
1.0
 70
    11
 71
     3
 72
    68
 73
    64
 74
     0
 42
0.0000000001
 43
0.0000000001
 40
0.0
 40
0.0
 40
0.0
 40
0.0
 40
0.0588235294117647
 40
0.0588235294117647
 40
0.0588235294117647
 40
0.0588235294117647
 40
0.1176470588235294
 40
0.1176470588235294
 40
0.1176470588235294
 40
0.1176470588235294
 40
0.1764705882352941
 40
0.1764705882352941
 40
0.1764705882352941
 40
0.1764705882352941
 40
0.2352941176470588
 40
0.2352941176470588
 40
0.2352941176470588
 40
0.2352941176470588
 40
0.2941176470588235
 40
0.2941176470588235
 40
0.2941176470588235
 40
0.2941176470588235
 40
0.3529411764705883
 40
0.3529411764705883
 40
0.3529411764705883
 40
0.3529411764705883
 40
0.4117647058823529
 40
0.4117647058823529
 40
0.4117647058823529
 40
0.4117647058823529
 40
0.4705882352941176
 40
0.4705882352941176
 40
0.4705882352941176
 40
0.4705882352941176
 40
0.5294117647058824
 40
0.5294117647058824
 40
0.5294117647058824
 40
0.5294117647058824
 40
0.5882352941176471
 40
0.5882352941176471
 40
0.5882352941176471
 40
0.5882352941176471
 40
0.6470588235294118
 40
0.6470588235294118
 40
0.6470588235294118
 40
0.6470588235294118
 40
0.7058823529411765
 40
0.7058823529411765
 40
0.7058823529411765
 40
0.7058823529411765
 40
0.7647058823529411
 40
0.7647058823529411
 40
0.7647058823529411
 40
0.7647058823529411
 40
0.8235294117647058
 40
0.8235294117647058
 40
0.8235294117647058
 40
0.8235294117647058
 40
0.8823529411764706
 40
0.8823529411764706
 40
0.8823529411764706
 40
0.8823529411764706
 40
1.0
 40
1.0
 40
1.0
 40
1.0
 10
20.4682
 20
-22.5348
 30
0.0
 10
20.3652
 20
-22.4972
 30
0.0
 10
20.289
 20
-22.4436
 30
0.0
 10
20.2392
 20
-22.3735
 30
0.0
 10
20.2392
 20
-22.3735
 30
0.0
 10
20.1898
 20
-22.3039
 30
0.0
 10
20.1649
 20
-22.2202
 30
0.0
 10
20.1649
 20
-22.1228
 30
0.0
 10
20.1649
 20
-22.1228
 30
0.0
 10
20.1649
 20
-21.9756
 30
0.0
 10
20.2175
 20
-21.8523
 30
0.0
 10
20.3234
 20
-21.7521
 30
0.0
 10
20.3234
 20
-21.7521
 30
0.0
 10
20.4292
 20
-21.652
 30
0.0
 10
20.5694
 20
-21.6016
 30
0.0
 10
20.7448
 20
-21.6016
 30
0.0
 10
20.7448
 20
-21.6016
 30
0.0
 10
20.9212
 20
-21.6016
 30
0.0
 10
21.0632
 20
-21.6529
 30
0.0
 10
21.171
 20
-21.7554
 30
0.0
 10
21.171
 20
-21.7554
 30
0.0
 10
21.2782
 20
-21.858
 30
0.0
 10
21.3318
 20
-21.9826
 30
0.0
 10
21.3318
 20
-22.1299
 30
0.0
 10
21.3318
 20
-22.1299
 30
0.0
 10
21.3318
 20
-22.2235
 30
0.0
 10
21.3074
 20
-22.3048
 30
0.0
 10
21.2584
 20
-22.3744
 30
0.0
 10
21.2584
 20
-22.3744
 30
0.0
 10
21.2091
 20
-22.4436
 30
0.0
 10
21.1347
 20
-22.4972
 30
0.0
 10
21.0345
 20
-22.5348
 30
0.0
 10
21.0345
 20
-22.5348
 30
0.0
 10
21.1582
 20
-22.5753
 30
0.0
 10
21.2528
 20
-22.6402
 30
0.0
 10
21.3177
 20
-22.7305
 30
0.0
 10
21.3177
 20
-22.7305
 30
0.0
 10
21.3821
 20
-22.8203
 30
0.0
 10
21.4146
 20
-22.9281
 30
0.0
 10
21.4146
 20
-23.0527
 30
0.0
 10
21.4146
 20
-23.0527
 30
0.0
 10
21.4146
 20
-23.2258
 30
0.0
 10
21.3534
 20
-23.3707
 30
0.0
 10
21.2316
 20
-23.4883
 30
0.0
 10
21.2316
 20
-23.4883
 30
0.0
 10
21.1093
 20
-23.6058
 30
0.0
 10
20.9485
 20
-23.6646
 30
0.0
 10
20.749
 20
-23.6646
 30
0.0
 10
20.749
 20
-23.6646
 30
0.0
 10
20.5496
 20
-23.6646
 30
0.0
 10
20.3892
 20
-23.6058
 30
0.0
 10
20.2669
 20
-23.4878
 30
0.0
 10
20.2669
 20
-23.4878
 30
0.0
 10
20.1446
 20
-23.3697
 30
0.0
 10
20.0835
 20
-23.2225
 30
0.0
 10
20.0835
 20
-23.0461
 30
0.0
 10
20.0835
 20
-23.0461
 30
0.0
 10
20.0835
 20
-22.9149
 30
0.0
 10
20.1169
 20
-22.8048
 30
0.0
 10
20.1837
 20
-22.7159
 30
0.0
 10
20.1837
 20
-22.7159
 30
0.0
 10
20.25
 20
-22.6275
 30
0.0
 10
20.345
 20
-22.5668
 30
0.0
 10
20.4682
 20
-22.5348
 30
0.0
  0
SPLINE
  5
CC
330
1F
100
AcDbEntity
  8
DEFAULT_2
 62
   250
100
AcDbSpline
210
0.0
220
0.0
230
1.0
 70
    11
 71
     3
 72
    36
 73
    32
 74
     0
 42
0.0000000001
 43
0.0000000001
 40
0.0
 40
0.0
 40
0.0
 40
0.0
 40
0.1111111111111111
 40
0.1111111111111111
 40
0.1111111111111111
 40
0.1111111111111111
 40
0.2222222222222222
 40
0.2222222222222222
 40
0.2222222222222222
 40
0.2222222222222222
 40
0.3333333333333333
 40
0.3333333333333333
 40
0.3333333333333333
 40
0.3333333333333333
 40
0.4444444444444444
 40
0.4444444444444444
 40
0.4444444444444444
 40
0.4444444444444444
 40
0.5555555555555556
 40
0.5555555555555556
 40
0.5555555555555556
 40
0.5555555555555556
 40
0.6666666666666666
 40
0.6666666666666666
 40
0.6666666666666666
 40
0.6666666666666666
 40
0.7777777777777778
 40
0.7777777777777778
 40
0.7777777777777778
 40
0.7777777777777778
 40
1.0
 40
1.0
 40
1.0
 40
1.0
 10
20.4184
 20
-22.1143
 30
0.0
 10
20.4184
 20
-22.2098
 30
0.0
 10
20.4494
 20
-22.2879
 30
0.0
 10
20.5106
 20
-22.3486
 30
0.0
 10
20.5106
 20
-22.3486
 30
0.0
 10
20.5722
 20
-22.4092
 30
0.0
 10
20.6521
 20
-22.4398
 30
0.0
 10
20.7504
 20
-22.4398
 30
0.0
 10
20.7504
 20
-22.4398
 30
0.0
 10
20.8459
 20
-22.4398
 30
0.0
 10
20.9245
 20
-22.4097
 30
0.0
 10
20.9856
 20
-22.3495
 30
0.0
 10
20.9856
 20
-22.3495
 30
0.0
 10
21.0468
 20
-22.2893
 30
0.0
 10
21.0769
 20
-22.2155
 30
0.0
 10
21.0769
 20
-22.1284
 30
0.0
 10
21.0769
 20
-22.1284
 30
0.0
 10
21.0769
 20
-22.0372
 30
0.0
 10
21.0458
 20
-21.961
 30
0.0
 10
20.9828
 20
-21.8989
 30
0.0
 10
20.9828
 20
-21.8989
 30
0.0
 10
20.9198
 20
-21.8368
 30
0.0
 10
20.8417
 20
-21.8058
 30
0.0
 10
20.7476
 20
-21.8058
 30
0.0
 10
20.7476
 20
-21.8058
 30
0.0
 10
20.6531
 20
-21.8058
 30
0.0
 10
20.5745
 20
-21.8363
 30
0.0
 10
20.512
 20
-21.8966
 30
0.0
 10
20.512
 20
-21.8966
 30
0.0
 10
20.4494
 20
-21.9572
 30
0.0
 10
20.4184
 20
-22.0301
 30
0.0
 10
20.4184
 20
-22.1143
 30
0.0
  0
SPLINE
  5
CD
330
1F
100
AcDbEntity
  8
DEFAULT_2
 62
   250
100
AcDbSpline
210
0.0
220
0.0
230
1.0
 70
    11
 71
     3
 72
    40
 73
    36
 74
     0
 42
0.0000000001
 43
0.0000000001
 40
0.0
 40
0.0
 40
0.0
 40
0.0
 40
0.1
 40
0.1
 40
0.1
 40
0.1
 40
0.2
 40
0.2
 40
0.2
 40
0.2
 40
0.3
 40
0.3
 40
0.3
 40
0.3
 40
0.4
 40
0.4
 40
0.4
 40
0.4
 40
0.5
 40
0.5
 40
0.5
 40
0.5
 40
0.6
 40
0.6
 40
0.6
 40
0.6
 40
0.7
 40
0.7
 40
0.7
 40
0.7
 40
0.8
 40
0.8
 40
0.8
 40
0.8
 40
1.0
 40
1.0
 40
1.0
 40
1.0
 10
20.3384
 20
-23.0475
 30
0.0
 10
20.3384
 20
-23.1181
 30
0.0
 10
20.3554
 20
-23.1867
 30
0.0
 10
20.3887
 20
-23.2526
 30
0.0
 10
20.3887
 20
-23.2526
 30
0.0
 10
20.4221
 20
-23.3189
 30
0.0
 10
20.472
 20
-23.3702
 30
0.0
 10
20.5383
 20
-23.4064
 30
0.0
 10
20.5383
 20
-23.4064
 30
0.0
 10
20.6046
 20
-23.4426
 30
0.0
 10
20.6757
 20
-23.461
 30
0.0
 10
20.7519
 20
-23.461
 30
0.0
 10
20.7519
 20
-23.461
 30
0.0
 10
20.8704
 20
-23.461
 30
0.0
 10
20.9682
 20
-23.4229
 30
0.0
 10
21.0454
 20
-23.3462
 30
0.0
 10
21.0454
 20
-23.3462
 30
0.0
 10
21.1225
 20
-23.27
 30
0.0
 10
21.1611
 20
-23.1731
 30
0.0
 10
21.1611
 20
-23.0555
 30
0.0
 10
21.1611
 20
-23.0555
 30
0.0
 10
21.1611
 20
-22.936
 30
0.0
 10
21.1216
 20
-22.8373
 30
0.0
 10
21.0421
 20
-22.7592
 30
0.0
 10
21.0421
 20
-22.7592
 30
0.0
 10
20.9626
 20
-22.6811
 30
0.0
 10
20.8629
 20
-22.6421
 30
0.0
 10
20.7434
 20
-22.6421
 30
0.0
 10
20.7434
 20
-22.6421
 30
0.0
 10
20.6267
 20
-22.6421
 30
0.0
 10
20.5303
 20
-22.6806
 30
0.0
 10
20.4536
 20
-22.7578
 30
0.0
 10
20.4536
 20
-22.7578
 30
0.0
 10
20.377
 20
-22.8354
 30
0.0
 10
20.3384
 20
-22.9318
 30
0.0
 10
20.3384
 20
-23.0475
 30
0.0
  0
SPLINE
  5
CE
330
1F
100
AcDbEntity
  8
DEFAULT_2
 62
   250
100
AcDbSpline
210
0.0
220
0.0
230
1.0
 70
    24
 71
     3
 72
     8
 73
     4
 74
     0
 42
0.0000000001
 43
0.0000000001
 40
0.0
 40
0.0
 40
0.0
 40
0.0
 40
1.0
 40
1.0
 40
1.0
 40
1.0
 10
17.3512
 20
-24.1281
 30
0.0
 10
17.3512
 20
-24.1281
 30
0.0
 10
30.8879
 20
-24.1281
 30
0.0
 10
30.8879
 20
-24.1281
 30
0.0
  0
SPLINE
  5
CF
330
1F
100
AcDbEntity
  8
DEFAULT_2
 62
   250
100
AcDbSpline
210
0.0
220
0.0
230
1.0
 70
    11
 71
     3
 72
    20
 73
    16
 74
     0
 42
0.0000000001
 43
0.0000000001
 40
0.0
 40
0.0
 40
0.0
 40
0.0
 40
0.2
 40
0.2
 40
0.2
 40
0.2
 40
0.4
 40
0.4
 40
0.4
 40
0.4
 40
0.6
 40
0.6
 40
0.6
 40
0.6
 40
1.0
 40
1.0
 40
1.0
 40
1.0
 10
21.8624
 20
-23.6633
 30
0.0
 10
21.8624
 20
-23.6633
 30
0.0
 10
24.8624
 20
-24.0867
 30
0.0
 10
24.8624
 20
-24.0867
 30
0.0
 10
24.8624
 20
-24.0867
 30
0.0
 10
24.8624
 20
-24.0867
 30
0.0
 10
24.8624
 20
-24.1807
 30
0.0
 10
24.8624
 20
-24.1807
 30
0.0
 10
24.8624
 20
-24.1807
 30
0.0
 10
24.8624
 20
-24.1807
 30
0.0
 10
21.8624
 20
-24.6322
 30
0.0
 10
21.8624
 20
-24.6322
 30
0.0
 10
21.8624
 20
-24.6322
 30
0.0
 10
21.8624
 20
-24.6322
 30
0.0
 10
21.8624
 20
-23.6633
 30
0.0
 10
21.8624
 20
-23.6633
 30
0.0
  0
SPLINE
  5
D0
330
1F
100
AcDbEntity
  8
DEFAULT_2
 62
   250
100
AcDbSpline
210
0.0
220
0.0
230
1.0
 70
    11
 71
     3
 72
    20
 73
    16
 74
     0
 42
0.0000000001
 43
0.0000000001
 40
0.0
 40
0.0
 40
0.0
 40
0.0
 40
0.2
 40
0.2
 40
0.2
 40
0.2
 40
0.4
 40
0.4
 40
0.4
 40
0.4
 40
0.6
 40
0.6
 40
0.6
 40
0.6
 40
1.0
 40
1.0
 40
1.0
 40
1.0
 10
29.0471
 20
-24.5568
 30
0.0
 10
29.0471
 20
-24.5568
 30
0.0
 10
26.0471
 20
-24.1335
 30
0.0
 10
26.0471
 20
-24.1335
 30
0.0
 10
26.0471
 20
-24.1335
 30
0.0
 10
26.0471
 20
-24.1335
 30
0.0
 10
26.0471
 20
-24.0394
 30
0.0
 10
26.0471
 20
-24.0394
 30
0.0
 10
26.0471
 20
-24.0394
 30
0.0
 10
26.0471
 20
-24.0394
 30
0.0
 10
29.0471
 20
-23.5879
 30
0.0
 10
29.0471
 20
-23.5879
 30
0.0
 10
29.0471
 20
-23.5879
 30
0.0
 10
29.0471
 20
-23.5879
 30
0.0
 10
29.0471
 20
-24.5568
 30
0.0
 10
29.0471
 20
-24.5568
 30
0.0
  0
SPLINE
  5
D1
330
1F
100
AcDbEntity
  8
DEFAULT_2
 62
   250
100
AcDbSpline
210
0.0
220
0.0
230
1.0
 70
    11
 71
     3
 72
    48
 73
    44
 74
     0
 42
0.0000000001
 43
0.0000000001
 40
0.0
 40
0.0
 40
0.0
 40
0.0
 40
0.0833333333333333
 40
0.0833333333333333
 40
0.0833333333333333
 40
0.0833333333333333
 40
0.1666666666666667
 40
0.1666666666666667
 40
0.1666666666666667
 40
0.1666666666666667
 40
0.25
 40
0.25
 40
0.25
 40
0.25
 40
0.3333333333333333
 40
0.3333333333333333
 40
0.3333333333333333
 40
0.3333333333333333
 40
0.4166666666666667
 40
0.4166666666666667
 40
0.4166666666666667
 40
0.4166666666666667
 40
0.5
 40
0.5
 40
0.5
 40
0.5
 40
0.5833333333333334
 40
0.5833333333333334
 40
0.5833333333333334
 40
0.5833333333333334
 40
0.6666666666666666
 40
0.6666666666666666
 40
0.6666666666666666
 40
0.6666666666666666
 40
0.75
 40
0.75
 40
0.75
 40
0.75
 40
0.8333333333333334
 40
0.8333333333333334
 40
0.8333333333333334
 40
0.8333333333333334
 40
1.0
 40
1.0
 40
1.0
 40
1.0
 10
-28.3281
 20
-14.4952
 30
0.0
 10
-28.3281
 20
-14.4952
 30
0.0
 10
-28.3281
 20
-14.0117
 30
0.0
 10
-28.3281
 20
-14.0117
 30
0.0
 10
-28.3281
 20
-14.0117
 30
0.0
 10
-28.3281
 20
-14.0117
 30
0.0
 10
-29.2044
 20
-14.0117
 30
0.0
 10
-29.2044
 20
-14.0117
 30
0.0
 10
-29.2044
 20
-14.0117
 30
0.0
 10
-29.2044
 20
-14.0117
 30
0.0
 10
-29.2044
 20
-13.784
 30
0.0
 10
-29.2044
 20
-13.784
 30
0.0
 10
-29.2044
 20
-13.784
 30
0.0
 10
-29.2044
 20
-13.784
 30
0.0
 10
-28.2825
 20
-12.475
 30
0.0
 10
-28.2825
 20
-12.475
 30
0.0
 10
-28.2825
 20
-12.475
 30
0.0
 10
-28.2825
 20
-12.475
 30
0.0
 10
-28.0797
 20
-12.475
 30
0.0
 10
-28.0797
 20
-12.475
 30
0.0
 10
-28.0797
 20
-12.475
 30
0.0
 10
-28.0797
 20
-12.475
 30
0.0
 10
-28.0797
 20
-13.784
 30
0.0
 10
-28.0797
 20
-13.784
 30
0.0
 10
-28.0797
 20
-13.784
 30
0.0
 10
-28.0797
 20
-13.784
 30
0.0
 10
-27.8069
 20
-13.784
 30
0.0
 10
-27.8069
 20
-13.784
 30
0.0
 10
-27.8069
 20
-13.784
 30
0.0
 10
-27.8069
 20
-13.784
 30
0.0
 10
-27.8069
 20
-14.0117
 30
0.0
 10
-27.8069
 20
-14.0117
 30
0.0
 10
-27.8069
 20
-14.0117
 30
0.0
 10
-27.8069
 20
-14.0117
 30
0.0
 10
-28.0797
 20
-14.0117
 30
0.0
 10
-28.0797
 20
-14.0117
 30
0.0
 10
-28.0797
 20
-14.0117
 30
0.0
 10
-28.0797
 20
-14.0117
 30
0.0
 10
-28.0797
 20
-14.4952
 30
0.0
 10
-28.0797
 20
-14.4952
 30
0.0
 10
-28.0797
 20
-14.4952
 30
0.0
 10
-28.0797
 20
-14.4952
 30
0.0
 10
-28.3281
 20
-14.4952
 30
0.0
 10
-28.3281
 20
-14.4952
 30
0.0
  0
SPLINE
  5
D2
330
1F
100
AcDbEntity
  8
DEFAULT_2
 62
   250
100
AcDbSpline
210
0.0
220
0.0
230
1.0
 70
    11
 71
     3
 72
    16
 73
    12
 74
     0
 42
0.0000000001
 43
0.0000000001
 40
0.0
 40
0.0
 40
0.0
 40
0.0
 40
0.25
 40
0.25
 40
0.25
 40
0.25
 40
0.5
 40
0.5
 40
0.5
 40
0.5
 40
1.0
 40
1.0
 40
1.0
 40
1.0
 10
-28.3281
 20
-13.784
 30
0.0
 10
-28.3281
 20
-13.784
 30
0.0
 10
-28.3281
 20
-12.8734
 30
0.0
 10
-28.3281
 20
-12.8734
 30
0.0
 10
-28.3281
 20
-12.8734
 30
0.0
 10
-28.3281
 20
-12.8734
 30
0.0
 10
-28.9602
 20
-13.784
 30
0.0
 10
-28.9602
 20
-13.784
 30
0.0
 10
-28.9602
 20
-13.784
 30
0.0
 10
-28.9602
 20
-13.784
 30
0.0
 10
-28.3281
 20
-13.784
 30
0.0
 10
-28.3281
 20
-13.784
 30
0.0
  0
SPLINE
  5
D3
330
1F
100
AcDbEntity
  8
DEFAULT_2
 62
   250
100
AcDbSpline
210
0.0
220
0.0
230
1.0
 70
    11
 71
     3
 72
    52
 73
    48
 74
     0
 42
0.0000000001
 43
0.0000000001
 40
0.0
 40
0.0
 40
0.0
 40
0.0
 40
0.0769230769230769
 40
0.0769230769230769
 40
0.0769230769230769
 40
0.0769230769230769
 40
0.1538461538461539
 40
0.1538461538461539
 40
0.1538461538461539
 40
0.1538461538461539
 40
0.2307692307692308
 40
0.2307692307692308
 40
0.2307692307692308
 40
0.2307692307692308
 40
0.3076923076923077
 40
0.3076923076923077
 40
0.3076923076923077
 40
0.3076923076923077
 40
0.3846153846153846
 40
0.3846153846153846
 40
0.3846153846153846
 40
0.3846153846153846
 40
0.4615384615384616
 40
0.4615384615384616
 40
0.4615384615384616
 40
0.4615384615384616
 40
0.5384615384615384
 40
0.5384615384615384
 40
0.5384615384615384
 40
0.5384615384615384
 40
0.6153846153846154
 40
0.6153846153846154
 40
0.6153846153846154
 40
0.6153846153846154
 40
0.6923076923076923
 40
0.6923076923076923
 40
0.6923076923076923
 40
0.6923076923076923
 40
0.7692307692307693
 40
0.7692307692307693
 40
0.7692307692307693
 40
0.7692307692307693
 40
0.8461538461538461
 40
0.8461538461538461
 40
0.8461538461538461
 40
0.8461538461538461
 40
1.0
 40
1.0
 40
1.0
 40
1.0
 10
-27.5534
 20
-13.499
 30
0.0
 10
-27.5534
 20
-13.26
 30
0.0
 10
-27.5289
 20
-13.0676
 30
0.0
 10
-27.4795
 20
-12.9223
 30
0.0
 10
-27.4795
 20
-12.9223
 30
0.0
 10
-27.4306
 20
-12.7765
 30
0.0
 10
-27.3572
 20
-12.6641
 30
0.0
 10
-27.2603
 20
-12.5851
 30
0.0
 10
-27.2603
 20
-12.5851
 30
0.0
 10
-27.1634
 20
-12.506
 30
0.0
 10
-27.0416
 20
-12.4665
 30
0.0
 10
-26.8949
 20
-12.4665
 30
0.0
 10
-26.8949
 20
-12.4665
 30
0.0
 10
-26.7862
 20
-12.4665
 30
0.0
 10
-26.6912
 20
-12.4886
 30
0.0
 10
-26.6094
 20
-12.5324
 30
0.0
 10
-26.6094
 20
-12.5324
 30
0.0
 10
-26.5275
 20
-12.5757
 30
0.0
 10
-26.4603
 20
-12.6387
 30
0.0
 10
-26.4066
 20
-12.721
 30
0.0
 10
-26.4066
 20
-12.721
 30
0.0
 10
-26.3535
 20
-12.8033
 30
0.0
 10
-26.3116
 20
-12.9035
 30
0.0
 10
-26.2815
 20
-13.0216
 30
0.0
 10
-26.2815
 20
-13.0216
 30
0.0
 10
-26.2509
 20
-13.1396
 30
0.0
 10
-26.2359
 20
-13.2986
 30
0.0
 10
-26.2359
 20
-13.499
 30
0.0
 10
-26.2359
 20
-13.499
 30
0.0
 10
-26.2359
 20
-13.736
 30
0.0
 10
-26.2604
 20
-13.927
 30
0.0
 10
-26.3088
 20
-14.0728
 30
0.0
 10
-26.3088
 20
-14.0728
 30
0.0
 10
-26.3577
 20
-14.2186
 30
0.0
 10
-26.4306
 20
-14.3311
 30
0.0
 10
-26.5275
 20
-14.4105
 30
0.0
 10
-26.5275
 20
-14.4105
 30
0.0
 10
-26.6244
 20
-14.49
 30
0.0
 10
-26.7467
 20
-14.5295
 30
0.0
 10
-26.8949
 20
-14.5295
 30
0.0
 10
-26.8949
 20
-14.5295
 30
0.0
 10
-27.0896
 20
-14.5295
 30
0.0
 10
-27.2425
 20
-14.4599
 30
0.0
 10
-27.3535
 20
-14.3202
 30
0.0
 10
-27.3535
 20
-14.3202
 30
0.0
 10
-27.4866
 20
-14.1523
 30
0.0
 10
-27.5534
 20
-13.8781
 30
0.0
 10
-27.5534
 20
-13.499
 30
0.0
  0
SPLINE
  5
D4
330
1F
100
AcDbEntity
  8
DEFAULT_2
 62
   250
100
AcDbSpline
210
0.0
220
0.0
230
1.0
 70
    11
 71
     3
 72
    36
 73
    32
 74
     0
 42
0.0000000001
 43
0.0000000001
 40
0.0
 40
0.0
 40
0.0
 40
0.0
 40
0.1111111111111111
 40
0.1111111111111111
 40
0.1111111111111111
 40
0.1111111111111111
 40
0.2222222222222222
 40
0.2222222222222222
 40
0.2222222222222222
 40
0.2222222222222222
 40
0.3333333333333333
 40
0.3333333333333333
 40
0.3333333333333333
 40
0.3333333333333333
 40
0.4444444444444444
 40
0.4444444444444444
 40
0.4444444444444444
 40
0.4444444444444444
 40
0.5555555555555556
 40
0.5555555555555556
 40
0.5555555555555556
 40
0.5555555555555556
 40
0.6666666666666666
 40
0.6666666666666666
 40
0.6666666666666666
 40
0.6666666666666666
 40
0.7777777777777778
 40
0.7777777777777778
 40
0.7777777777777778
 40
0.7777777777777778
 40
1.0
 40
1.0
 40
1.0
 40
1.0
 10
-27.2984
 20
-13.499
 30
0.0
 10
-27.2984
 20
-13.8306
 30
0.0
 10
-27.2594
 20
-14.0512
 30
0.0
 10
-27.1818
 20
-14.1612
 30
0.0
 10
-27.1818
 20
-14.1612
 30
0.0
 10
-27.1042
 20
-14.2708
 30
0.0
 10
-27.0087
 20
-14.3259
 30
0.0
 10
-26.8949
 20
-14.3259
 30
0.0
 10
-26.8949
 20
-14.3259
 30
0.0
 10
-26.7806
 20
-14.3259
 30
0.0
 10
-26.6851
 20
-14.2704
 30
0.0
 10
-26.6075
 20
-14.1603
 30
0.0
 10
-26.6075
 20
-14.1603
 30
0.0
 10
-26.5299
 20
-14.0502
 30
0.0
 10
-26.4908
 20
-13.8296
 30
0.0
 10
-26.4908
 20
-13.499
 30
0.0
 10
-26.4908
 20
-13.499
 30
0.0
 10
-26.4908
 20
-13.1664
 30
0.0
 10
-26.5299
 20
-12.9454
 30
0.0
 10
-26.6075
 20
-12.8362
 30
0.0
 10
-26.6075
 20
-12.8362
 30
0.0
 10
-26.6851
 20
-12.7266
 30
0.0
 10
-26.7815
 20
-12.6721
 30
0.0
 10
-26.8972
 20
-12.6721
 30
0.0
 10
-26.8972
 20
-12.6721
 30
0.0
 10
-27.0115
 20
-12.6721
 30
0.0
 10
-27.1023
 20
-12.7205
 30
0.0
 10
-27.1705
 20
-12.8169
 30
0.0
 10
-27.1705
 20
-12.8169
 30
0.0
 10
-27.2556
 20
-12.9397
 30
0.0
 10
-27.2984
 20
-13.1674
 30
0.0
 10
-27.2984
 20
-13.499
 30
0.0
  0
SPLINE
  5
D5
330
1F
100
AcDbEntity
  8
DEFAULT_2
 62
   250
100
AcDbSpline
210
0.0
220
0.0
230
1.0
 70
    24
 71
     3
 72
     8
 73
     4
 74
     0
 42
0.0000000001
 43
0.0000000001
 40
0.0
 40
0.0
 40
0.0
 40
0.0
 40
1.0
 40
1.0
 40
1.0
 40
1.0
 10
-36.8297
 20
-14.8745
 30
0.0
 10
-36.8297
 20
-14.8745
 30
0.0
 10
-18.7122
 20
-14.8745
 30
0.0
 10
-18.7122
 20
-14.8745
 30
0.0
  0
SPLINE
  5
D6
330
1F
100
AcDbEntity
  8
DEFAULT_2
 62
   250
100
AcDbSpline
210
0.0
220
0.0
230
1.0
 70
    11
 71
     3
 72
    20
 73
    16
 74
     0
 42
0.0000000001
 43
0.0000000001
 40
0.0
 40
0.0
 40
0.0
 40
0.0
 40
0.2
 40
0.2
 40
0.2
 40
0.2
 40
0.4
 40
0.4
 40
0.4
 40
0.4
 40
0.6
 40
0.6
 40
0.6
 40
0.6
 40
1.0
 40
1.0
 40
1.0
 40
1.0
 10
-34.7502
 20
-14.3681
 30
0.0
 10
-34.7502
 20
-14.3681
 30
0.0
 10
-31.7502
 20
-14.7914
 30
0.0
 10
-31.7502
 20
-14.7914
 30
0.0
 10
-31.7502
 20
-14.7914
 30
0.0
 10
-31.7502
 20
-14.7914
 30
0.0
 10
-31.7502
 20
-14.8854
 30
0.0
 10
-31.7502
 20
-14.8854
 30
0.0
 10
-31.7502
 20
-14.8854
 30
0.0
 10
-31.7502
 20
-14.8854
 30
0.0
 10
-34.7502
 20
-15.3369
 30
0.0
 10
-34.7502
 20
-15.3369
 30
0.0
 10
-34.7502
 20
-15.3369
 30
0.0
 10
-34.7502
 20
-15.3369
 30
0.0
 10
-34.7502
 20
-14.3681
 30
0.0
 10
-34.7502
 20
-14.3681
 30
0.0
  0
SPLINE
  5
D7
330
1F
100
AcDbEntity
  8
DEFAULT_2
 62
   250
100
AcDbSpline
210
0.0
220
0.0
230
1.0
 70
    11
 71
     3
 72
    20
 73
    16
 74
     0
 42
0.0000000001
 43
0.0000000001
 40
0.0
 40
0.0
 40
0.0
 40
0.0
 40
0.2
 40
0.2
 40
0.2
 40
0.2
 40
0.4
 40
0.4
 40
0.4
 40
0.4
 40
0.6
 40
0.6
 40
0.6
 40
0.6
 40
1.0
 40
1.0
 40
1.0
 40
1.0
 10
-20.6226
 20
-15.3315
 30
0.0
 10
-20.6226
 20
-15.3315
 30
0.0
 10
-23.6226
 20
-14.9082
 30
0.0
 10
-23.6226
 20
-14.9082
 30
0.0
 10
-23.6226
 20
-14.9082
 30
0.0
 10
-23.6226
 20
-14.9082
 30
0.0
 10
-23.6226
 20
-14.8141
 30
0.0
 10
-23.6226
 20
-14.8141
 30
0.0
 10
-23.6226
 20
-14.8141
 30
0.0
 10
-23.6226
 20
-14.8141
 30
0.0
 10
-20.6226
 20
-14.3626
 30
0.0
 10
-20.6226
 20
-14.3626
 30
0.0
 10
-20.6226
 20
-14.3626
 30
0.0
 10
-20.6226
 20
-14.3626
 30
0.0
 10
-20.6226
 20
-15.3315
 30
0.0
 10
-20.6226
 20
-15.3315
 30
0.0
  0
SPLINE
  5
D8
330
1F
100
AcDbEntity
  8
DEFAULT_2
 62
   250
100
AcDbSpline
210
0.0
220
0.0
230
1.0
 70
    11
 71
     3
 72
    40
 73
    36
 74
     0
 42
0.0000000001
 43
0.0000000001
 40
0.0
 40
0.0
 40
0.0
 40
0.0
 40
0.1
 40
0.1
 40
0.1
 40
0.1
 40
0.2
 40
0.2
 40
0.2
 40
0.2
 40
0.3
 40
0.3
 40
0.3
 40
0.3
 40
0.4
 40
0.4
 40
0.4
 40
0.4
 40
0.5
 40
0.5
 40
0.5
 40
0.5
 40
0.6
 40
0.6
 40
0.6
 40
0.6
 40
0.7
 40
0.7
 40
0.7
 40
0.7
 40
0.8
 40
0.8
 40
0.8
 40
0.8
 40
1.0
 40
1.0
 40
1.0
 40
1.0
 10
-34.8433
 20
-2.0645
 30
0.0
 10
-34.8433
 20
-2.0645
 30
0.0
 10
-35.0912
 20
-2.0645
 30
0.0
 10
-35.0912
 20
-2.0645
 30
0.0
 10
-35.0912
 20
-2.0645
 30
0.0
 10
-35.0912
 20
-2.0645
 30
0.0
 10
-35.0912
 20
-0.4841
 30
0.0
 10
-35.0912
 20
-0.4841
 30
0.0
 10
-35.0912
 20
-0.4841
 30
0.0
 10
-35.151
 20
-0.541
 30
0.0
 10
-35.229
 20
-0.5979
 30
0.0
 10
-35.3259
 20
-0.6548
 30
0.0
 10
-35.3259
 20
-0.6548
 30
0.0
 10
-35.4233
 20
-0.7117
 30
0.0
 10
-35.5103
 20
-0.7546
 30
0.0
 10
-35.5875
 20
-0.7828
 30
0.0
 10
-35.5875
 20
-0.7828
 30
0.0
 10
-35.5875
 20
-0.7828
 30
0.0
 10
-35.5875
 20
-0.5433
 30
0.0
 10
-35.5875
 20
-0.5433
 30
0.0
 10
-35.5875
 20
-0.5433
 30
0.0
 10
-35.4487
 20
-0.478
 30
0.0
 10
-35.3273
 20
-0.399
 30
0.0
 10
-35.2234
 20
-0.3063
 30
0.0
 10
-35.2234
 20
-0.3063
 30
0.0
 10
-35.1199
 20
-0.2132
 30
0.0
 10
-35.0461
 20
-0.1233
 30
0.0
 10
-35.0028
 20
-0.0358
 30
0.0
 10
-35.0028
 20
-0.0358
 30
0.0
 10
-35.0028
 20
-0.0358
 30
0.0
 10
-34.8433
 20
-0.0358
 30
0.0
 10
-34.8433
 20
-0.0358
 30
0.0
 10
-34.8433
 20
-0.0358
 30
0.0
 10
-34.8433
 20
-0.0358
 30
0.0
 10
-34.8433
 20
-2.0645
 30
0.0
 10
-34.8433
 20
-2.0645
 30
0.0
  0
SPLINE
  5
D9
330
1F
100
AcDbEntity
  8
DEFAULT_2
 62
   250
100
AcDbSpline
210
0.0
220
0.0
230
1.0
 70
    11
 71
     3
 72
   124
 73
   120
 74
     0
 42
0.0000000001
 43
0.0000000001
 40
0.0
 40
0.0
 40
0.0
 40
0.0
 40
0.032258064516129
 40
0.032258064516129
 40
0.032258064516129
 40
0.032258064516129
 40
0.0645161290322581
 40
0.0645161290322581
 40
0.0645161290322581
 40
0.0645161290322581
 40
0.0967741935483871
 40
0.0967741935483871
 40
0.0967741935483871
 40
0.0967741935483871
 40
0.1290322580645161
 40
0.1290322580645161
 40
0.1290322580645161
 40
0.1290322580645161
 40
0.1612903225806452
 40
0.1612903225806452
 40
0.1612903225806452
 40
0.1612903225806452
 40
0.1935483870967742
 40
0.1935483870967742
 40
0.1935483870967742
 40
0.1935483870967742
 40
0.2258064516129032
 40
0.2258064516129032
 40
0.2258064516129032
 40
0.2258064516129032
 40
0.2580645161290323
 40
0.2580645161290323
 40
0.2580645161290323
 40
0.2580645161290323
 40
0.2903225806451613
 40
0.2903225806451613
 40
0.2903225806451613
 40
0.2903225806451613
 40
0.3225806451612903
 40
0.3225806451612903
 40
0.3225806451612903
 40
0.3225806451612903
 40
0.3548387096774194
 40
0.3548387096774194
 40
0.3548387096774194
 40
0.3548387096774194
 40
0.3870967741935484
 40
0.3870967741935484
 40
0.3870967741935484
 40
0.3870967741935484
 40
0.4193548387096774
 40
0.4193548387096774
 40
0.4193548387096774
 40
0.4193548387096774
 40
0.4516129032258064
 40
0.4516129032258064
 40
0.4516129032258064
 40
0.4516129032258064
 40
0.4838709677419355
 40
0.4838709677419355
 40
0.4838709677419355
 40
0.4838709677419355
 40
0.5161290322580645
 40
0.5161290322580645
 40
0.5161290322580645
 40
0.5161290322580645
 40
0.5483870967741935
 40
0.5483870967741935
 40
0.5483870967741935
 40
0.5483870967741935
 40
0.5806451612903226
 40
0.5806451612903226
 40
0.5806451612903226
 40
0.5806451612903226
 40
0.6129032258064516
 40
0.6129032258064516
 40
0.6129032258064516
 40
0.6129032258064516
 40
0.6451612903225806
 40
0.6451612903225806
 40
0.6451612903225806
 40
0.6451612903225806
 40
0.6774193548387096
 40
0.6774193548387096
 40
0.6774193548387096
 40
0.6774193548387096
 40
0.7096774193548387
 40
0.7096774193548387
 40
0.7096774193548387
 40
0.7096774193548387
 40
0.7419354838709677
 40
0.7419354838709677
 40
0.7419354838709677
 40
0.7419354838709677
 40
0.7741935483870968
 40
0.7741935483870968
 40
0.7741935483870968
 40
0.7741935483870968
 40
0.8064516129032258
 40
0.8064516129032258
 40
0.8064516129032258
 40
0.8064516129032258
 40
0.8387096774193549
 40
0.8387096774193549
 40
0.8387096774193549
 40
0.8387096774193549
 40
0.8709677419354839
 40
0.8709677419354839
 40
0.8709677419354839
 40
0.8709677419354839
 40
0.9032258064516129
 40
0.9032258064516129
 40
0.9032258064516129
 40
0.9032258064516129
 40
0.9354838709677419
 40
0.9354838709677419
 40
0.9354838709677419
 40
0.9354838709677419
 40
1.0
 40
1.0
 40
1.0
 40
1.0
 10
-34.2065
 20
-1.5311
 30
0.0
 10
-34.2065
 20
-1.5311
 30
0.0
 10
-33.9586
 20
-1.4982
 30
0.0
 10
-33.9586
 20
-1.4982
 30
0.0
 10
-33.9586
 20
-1.4982
 30
0.0
 10
-33.9299
 20
-1.6388
 30
0.0
 10
-33.8814
 20
-1.74
 30
0.0
 10
-33.8133
 20
-1.802
 30
0.0
 10
-33.8133
 20
-1.802
 30
0.0
 10
-33.7446
 20
-1.8641
 30
0.0
 10
-33.6613
 20
-1.8952
 30
0.0
 10
-33.563
 20
-1.8952
 30
0.0
 10
-33.563
 20
-1.8952
 30
0.0
 10
-33.4464
 20
-1.8952
 30
0.0
 10
-33.3476
 20
-1.8547
 30
0.0
 10
-33.2672
 20
-1.7738
 30
0.0
 10
-33.2672
 20
-1.7738
 30
0.0
 10
-33.1872
 20
-1.6929
 30
0.0
 10
-33.1467
 20
-1.5927
 30
0.0
 10
-33.1467
 20
-1.4733
 30
0.0
 10
-33.1467
 20
-1.4733
 30
0.0
 10
-33.1467
 20
-1.3594
 30
0.0
 10
-33.1839
 20
-1.2654
 30
0.0
 10
-33.2582
 20
-1.1915
 30
0.0
 10
-33.2582
 20
-1.1915
 30
0.0
 10
-33.333
 20
-1.1177
 30
0.0
 10
-33.4276
 20
-1.0805
 30
0.0
 10
-33.5423
 20
-1.0805
 30
0.0
 10
-33.5423
 20
-1.0805
 30
0.0
 10
-33.5894
 20
-1.0805
 30
0.0
 10
-33.6477
 20
-1.0899
 30
0.0
 10
-33.7173
 20
-1.1083
 30
0.0
 10
-33.7173
 20
-1.1083
 30
0.0
 10
-33.7173
 20
-1.1083
 30
0.0
 10
-33.6895
 20
-0.8905
 30
0.0
 10
-33.6895
 20
-0.8905
 30
0.0
 10
-33.6895
 20
-0.8905
 30
0.0
 10
-33.6731
 20
-0.8924
 30
0.0
 10
-33.6599
 20
-0.8933
 30
0.0
 10
-33.6496
 20
-0.8933
 30
0.0
 10
-33.6496
 20
-0.8933
 30
0.0
 10
-33.5442
 20
-0.8933
 30
0.0
 10
-33.4492
 20
-0.8655
 30
0.0
 10
-33.3645
 20
-0.8105
 30
0.0
 10
-33.3645
 20
-0.8105
 30
0.0
 10
-33.2798
 20
-0.7555
 30
0.0
 10
-33.2375
 20
-0.6703
 30
0.0
 10
-33.2375
 20
-0.5556
 30
0.0
 10
-33.2375
 20
-0.5556
 30
0.0
 10
-33.2375
 20
-0.4648
 30
0.0
 10
-33.2686
 20
-0.3891
 30
0.0
 10
-33.3302
 20
-0.3298
 30
0.0
 10
-33.3302
 20
-0.3298
 30
0.0
 10
-33.3918
 20
-0.2701
 30
0.0
 10
-33.4713
 20
-0.24
 30
0.0
 10
-33.5686
 20
-0.24
 30
0.0
 10
-33.5686
 20
-0.24
 30
0.0
 10
-33.6651
 20
-0.24
 30
0.0
 10
-33.7455
 20
-0.2705
 30
0.0
 10
-33.8095
 20
-0.3308
 30
0.0
 10
-33.8095
 20
-0.3308
 30
0.0
 10
-33.8739
 20
-0.3914
 30
0.0
 10
-33.9153
 20
-0.4827
 30
0.0
 10
-33.9337
 20
-0.604
 30
0.0
 10
-33.9337
 20
-0.604
 30
0.0
 10
-33.9337
 20
-0.604
 30
0.0
 10
-34.1815
 20
-0.5598
 30
0.0
 10
-34.1815
 20
-0.5598
 30
0.0
 10
-34.1815
 20
-0.5598
 30
0.0
 10
-34.1514
 20
-0.3933
 30
0.0
 10
-34.0823
 20
-0.2644
 30
0.0
 10
-33.9751
 20
-0.1732
 30
0.0
 10
-33.9751
 20
-0.1732
 30
0.0
 10
-33.8673
 20
-0.0819
 30
0.0
 10
-33.7338
 20
-0.0358
 30
0.0
 10
-33.5738
 20
-0.0358
 30
0.0
 10
-33.5738
 20
-0.0358
 30
0.0
 10
-33.4638
 20
-0.0358
 30
0.0
 10
-33.3622
 20
-0.0598
 30
0.0
 10
-33.2695
 20
-0.1069
 30
0.0
 10
-33.2695
 20
-0.1069
 30
0.0
 10
-33.1769
 20
-0.1544
 30
0.0
 10
-33.1058
 20
-0.2188
 30
0.0
 10
-33.0564
 20
-0.3006
 30
0.0
 10
-33.0564
 20
-0.3006
 30
0.0
 10
-33.0075
 20
-0.3825
 30
0.0
 10
-32.9826
 20
-0.469
 30
0.0
 10
-32.9826
 20
-0.5612
 30
0.0
 10
-32.9826
 20
-0.5612
 30
0.0
 10
-32.9826
 20
-0.6482
 30
0.0
 10
-33.0061
 20
-0.7277
 30
0.0
 10
-33.0531
 20
-0.7997
 30
0.0
 10
-33.0531
 20
-0.7997
 30
0.0
 10
-33.1002
 20
-0.8712
 30
0.0
 10
-33.1693
 20
-0.9281
 30
0.0
 10
-33.261
 20
-0.9704
 30
0.0
 10
-33.261
 20
-0.9704
 30
0.0
 10
-33.1416
 20
-0.9977
 30
0.0
 10
-33.0489
 20
-1.0551
 30
0.0
 10
-32.9826
 20
-1.1421
 30
0.0
 10
-32.9826
 20
-1.1421
 30
0.0
 10
-32.9167
 20
-1.2287
 30
0.0
 10
-32.8838
 20
-1.3373
 30
0.0
 10
-32.8838
 20
-1.4676
 30
0.0
 10
-32.8838
 20
-1.4676
 30
0.0
 10
-32.8838
 20
-1.644
 30
0.0
 10
-32.9478
 20
-1.7936
 30
0.0
 10
-33.0767
 20
-1.9163
 30
0.0
 10
-33.0767
 20
-1.9163
 30
0.0
 10
-33.2051
 20
-2.0391
 30
0.0
 10
-33.3678
 20
-2.1002
 30
0.0
 10
-33.5644
 20
-2.1002
 30
0.0
 10
-33.5644
 20
-2.1002
 30
0.0
 10
-33.7418
 20
-2.1002
 30
0.0
 10
-33.889
 20
-2.0476
 30
0.0
 10
-34.0061
 20
-1.9417
 30
0.0
 10
-34.0061
 20
-1.9417
 30
0.0
 10
-34.1232
 20
-1.8364
 30
0.0
 10
-34.19
 20
-1.6995
 30
0.0
 10
-34.2065
 20
-1.5311
 30
0.0
  0
SPLINE
  5
DA
330
1F
100
AcDbEntity
  8
DEFAULT_2
 62
   250
100
AcDbSpline
210
0.0
220
0.0
230
1.0
 70
    24
 71
     3
 72
     8
 73
     4
 74
     0
 42
0.0000000001
 43
0.0000000001
 40
0.0
 40
0.0
 40
0.0
 40
0.0
 40
1.0
 40
1.0
 40
1.0
 40
1.0
 10
-36.0177
 20
-2.5363
 30
0.0
 10
-36.0177
 20
-2.5363
 30
0.0
 10
-22.622
 20
-2.5363
 30
0.0
 10
-22.622
 20
-2.5363
 30
0.0
  0
SPLINE
  5
DB
330
1F
100
AcDbEntity
  8
DEFAULT_2
 62
   250
100
AcDbSpline
210
0.0
220
0.0
230
1.0
 70
    11
 71
     3
 72
    20
 73
    16
 74
     0
 42
0.0000000001
 43
0.0000000001
 40
0.0
 40
0.0
 40
0.0
 40
0.0
 40
0.2
 40
0.2
 40
0.2
 40
0.2
 40
0.4
 40
0.4
 40
0.4
 40
0.4
 40
0.6
 40
0.6
 40
0.6
 40
0.6
 40
1.0
 40
1.0
 40
1.0
 40
1.0
 10
-32.0297
 20
-2.0573
 30
0.0
 10
-32.0297
 20
-2.0573
 30
0.0
 10
-29.0296
 20
-2.4807
 30
0.0
 10
-29.0296
 20
-2.4807
 30
0.0
 10
-29.0296
 20
-2.4807
 30
0.0
 10
-29.0296
 20
-2.4807
 30
0.0
 10
-29.0296
 20
-2.5747
 30
0.0
 10
-29.0296
 20
-2.5747
 30
0.0
 10
-29.0296
 20
-2.5747
 30
0.0
 10
-29.0296
 20
-2.5747
 30
0.0
 10
-32.0297
 20
-3.0263
 30
0.0
 10
-32.0297
 20
-3.0263
 30
0.0
 10
-32.0297
 20
-3.0263
 30
0.0
 10
-32.0297
 20
-3.0263
 30
0.0
 10
-32.0297
 20
-2.0573
 30
0.0
 10
-32.0297
 20
-2.0573
 30
0.0
  0
SPLINE
  5
DC
330
1F
100
AcDbEntity
  8
DEFAULT_2
 62
   250
100
AcDbSpline
210
0.0
220
0.0
230
1.0
 70
    11
 71
     3
 72
    20
 73
    16
 74
     0
 42
0.0000000001
 43
0.0000000001
 40
0.0
 40
0.0
 40
0.0
 40
0.0
 40
0.2
 40
0.2
 40
0.2
 40
0.2
 40
0.4
 40
0.4
 40
0.4
 40
0.4
 40
0.6
 40
0.6
 40
0.6
 40
0.6
 40
1.0
 40
1.0
 40
1.0
 40
1.0
 10
-23.2948
 20
-2.9933
 30
0.0
 10
-23.2948
 20
-2.9933
 30
0.0
 10
-26.2947
 20
-2.57
 30
0.0
 10
-26.2947
 20
-2.57
 30
0.0
 10
-26.2947
 20
-2.57
 30
0.0
 10
-26.2947
 20
-2.57
 30
0.0
 10
-26.2947
 20
-2.4759
 30
0.0
 10
-26.2947
 20
-2.4759
 30
0.0
 10
-26.2947
 20
-2.4759
 30
0.0
 10
-26.2947
 20
-2.4759
 30
0.0
 10
-23.2948
 20
-2.0244
 30
0.0
 10
-23.2948
 20
-2.0244
 30
0.0
 10
-23.2948
 20
-2.0244
 30
0.0
 10
-23.2948
 20
-2.0244
 30
0.0
 10
-23.2948
 20
-2.9933
 30
0.0
 10
-23.2948
 20
-2.9933
 30
0.0
  0
ENDSEC
  0
SECTION
  2
OBJECTS
  0
DICTIONARY
  5
C
330
0
100
AcDbDictionary
  3
ACAD_GROUP
350
D
  3
ACAD_LAYOUT
350
1A
  3
ACAD_MATERIAL
350
3B
  3
ACAD_MLEADERSTYLE
350
FF
  3
ACAD_MLINESTYLE
350
17
  3
ACAD_PLOTSETTINGS
350
19
  3
ACAD_VISUALSTYLE
350
2A
  3
ACDBHEADERROUNDTRIPXREC
350
DD
  3
ACDBVARIABLEDICTIONARY
350
FD
  0
DICTIONARY
  5
D
102
{ACAD_REACTORS
330
C
102
}
330
C
100
AcDbDictionary
  0
DICTIONARY
  5
1A
102
{ACAD_REACTORS
330
C
102
}
330
C
100
AcDbDictionary
  0
DICTIONARY
  5
3B
102
{ACAD_REACTORS
330
C
102
}
330
C
100
AcDbDictionary
  3
BYBLOCK
350
3D
  3
BYLAYER
350
3C
  3
GLOBAL
350
3E
  0
DICTIONARY
  5
FF
102
{ACAD_REACTORS
330
C
102
}
330
C
100
AcDbDictionary
  0
DICTIONARY
  5
17
102
{ACAD_REACTORS
330
C
102
}
330
C
100
AcDbDictionary
  3
STANDARD
350
18
  0
DICTIONARY
  5
19
102
{ACAD_REACTORS
330
C
102
}
330
C
100
AcDbDictionary
  0
DICTIONARY
  5
2A
102
{ACAD_REACTORS
330
C
102
}
330
C
100
AcDbDictionary
  3
2DWIREFRAME
350
2F
  3
3D_HIDDEN
350
31
  3
3DWIREFRAME
350
30
  3
BASIC
350
32
  3
BRIGHTEN
350
36
  3
COLORCHANGE
350
3A
  3
CONCEPTUAL
350
34
  3
DIM
350
35
  3
FACEPATTERN
350
39
  3
FLAT
350
2B
  3
FLATWITHEDGES
350
2C
  3
GOURAUD
350
2D
  3
GOURAUDWITHEDGES
350
2E
  3
LINEPATTERN
350
38
  3
REALISTIC
350
33
  3
THICKEN
350
37
  0
DICTIONARY
  5
DD
102
{ACAD_REACTORS
330
C
102
}
330
C
100
AcDbDictionary
  3
CEPSNTYPE
350
E6
  3
DIMSTYLEDATA
350
FC
  3
FINGERPRINTGUID
350
E7
  3
HYPERLINKBASE
350
E0
  3
INSUNITS
350
E5
  3
LAYOUTDICT
350
E2
  3
LWETCUNION
350
E4
  3
PLOTSETDICT
350
E3
  3
PSVPSCALE
350
E9
  3
PUCSBASE
350
EC
  3
PUCSORGBACK
350
F2
  3
PUCSORGBOTTOM
350
EE
  3
PUCSORGFRONT
350
F1
  3
PUCSORGLEFT
350
EF
  3
PUCSORGRIGHT
350
F0
  3
PUCSORGTOP
350
ED
  3
PUCSORTHOREF
350
EA
  3
PUCSORTHOVIEW
350
EB
  3
STYLESHEET
350
E1
  3
TSTACKALIGN
350
DE
  3
TSTACKSIZE
350
DF
  3
UCSBASE
350
F5
  3
UCSORGBACK
350
FB
  3
UCSORGBOTTOM
350
F7
  3
UCSORGFRONT
350
FA
  3
UCSORGLEFT
350
F8
  3
UCSORGRIGHT
350
F9
  3
UCSORGTOP
350
F6
  3
UCSORTHOREF
350
F3
  3
UCSORTHOVIEW
350
F4
  3
VERSIONGUID
350
E8
  0
DICTIONARY
  5
FD
102
{ACAD_REACTORS
330
C
102
}
330
C
100
AcDbDictionary
  3
DIMASSOC
350
100
  3
HIDETEXT
350
101
  0
MATERIAL
  5
3D
102
{ACAD_REACTORS
330
3B
102
}
102
{ACAD_XDICTIONARY
360
104
102
}
330
3B
100
AcDbMaterial
  1
ByBlock
  0
MATERIAL
  5
3C
102
{ACAD_REACTORS
330
3B
102
}
102
{ACAD_XDICTIONARY
360
102
102
}
330
3B
100
AcDbMaterial
  1
ByLayer
  0
MATERIAL
  5
3E
102
{ACAD_REACTORS
330
3B
102
}
102
{ACAD_XDICTIONARY
360
106
102
}
330
3B
100
AcDbMaterial
  1
Global
  0
MLINESTYLE
  5
18
102
{ACAD_REACTORS
330
17
102
}
330
17
100
AcDbMlineStyle
  2
Standard
 70
     0
  3

 62
   256
 51
90.0
 52
90.0
 71
     2
 49
0.5
 62
   256
  6
BYLAYER
 49
-0.5
 62
   256
  6
BYLAYER
  0
ACAD_PROXY_OBJECT
  5
2F
102
{ACAD_REACTORS
330
2A
102
}
330
2A
100
AcDbProxyObject
 90
      499
 91
      501
 93
      436
310
42CC9915DA5C99599C985B595049028333333333333E3BF0000000000000FB0107901411070040501600405405064090741402480A0340
1001
ACAD
1000
AcDbSavedByObjectVersion
1070
     0
  0
ACAD_PROXY_OBJECT
  5
31
102
{ACAD_REACTORS
330
2A
102
}
330
2A
100
AcDbProxyObject
 90
      499
 91
      501
 93
      500
310
424CD108121A5919195B90640502408333333333333E3BF0000000000000FB01079024090700405020000000000001110200405405064090740C02480A0340
1001
ACAD
1000
AcDbSavedByObjectVersion
1070
     0
  0
ACAD_PROXY_OBJECT
  5
30
102
{ACAD_REACTORS
330
2A
102
}
330
2A
100
AcDbProxyObject
 90
      499
 91
      501
 93
      436
310
42CCD915DA5C99599C985B595059028333333333333E3BF0000000000000FB0107901411070040501600405405064090741402480A0340
1001
ACAD
1000
AcDbSavedByObjectVersion
1070
     0
  0
ACAD_PROXY_OBJECT
  5
32
102
{ACAD_REACTORS
330
2A
102
}
330
2A
100
AcDbProxyObject
 90
      499
 91
      501
 93
      388
310
4150985CDA58D07406404333333333333E3BF0000000000000FB0107A41107004050150841D405064090741402480A0350
1001
ACAD
1000
AcDbSavedByObjectVersion
1070
     0
  0
ACAD_PROXY_OBJECT
  5
36
102
{ACAD_REACTORS
330
2A
102
}
330
2A
100
AcDbProxyObject
 90
      499
 91
      501
 93
      428
310
42109C9A59DA1D195B90C409028333333333333E3BF0000000000000FB010790141107004050150841D405064090741402480A029950
1001
ACAD
1000
AcDbSavedByObjectVersion
1070
     0
  0
ACAD_PROXY_OBJECT
  5
3A
102
{ACAD_REACTORS
330
2A
102
}
330
2A
100
AcDbProxyObject
 90
      499
 91
      501
 93
      452
310
42D0DBDB1BDC90DA185B99D95104090240C333333333333E3BF0000000000000FB0108901411070040501508421405064090741402480A0350
1001
ACAD
1000
AcDbSavedByObjectVersion
1070
     0
  0
ACAD_PROXY_OBJECT
  5
34
102
{ACAD_REACTORS
330
2A
102
}
330
2A
100
AcDbProxyObject
 90
      499
 91
      501
 93
      500
310
4290DBDB98D95C1D1D585B10940D028333333333333E3BF0000000000000FB0107902409070040501000000000000111010841D405064090740C02480A0340
1001
ACAD
1000
AcDbSavedByObjectVersion
1070
     0
  0
ACAD_PROXY_OBJECT
  5
35
102
{ACAD_REACTORS
330
2A
102
}
330
2A
100
AcDbProxyObject
 90
      499
 91
      501
 93
      412
310
40D11A5B50B409028333333333333E3BF0000000000000FB010790141107004050150841D405064090741402480A02677FFFFFD0
1001
ACAD
1000
AcDbSavedByObjectVersion
1070
     0
  0
ACAD_PROXY_OBJECT
  5
39
102
{ACAD_REACTORS
330
2A
102
}
330
2A
100
AcDbProxyObject
 90
      499
 91
      501
 93
      444
310
42D19858D95C185D1D195C9B90F409028333333333333E3BF0000000000000FB010790141107004050150841D405064090741402480A0350
1001
ACAD
1000
AcDbSavedByObjectVersion
1070
     0
  0
ACAD_PROXY_OBJECT
  5
2B
102
{ACAD_REACTORS
330
2A
102
}
330
2A
100
AcDbProxyObject
 90
      499
 91
      501
 93
      388
310
41119B185D240901404333333333333E3BF0000000000000F9010740A41107004050150841D405064090741402480A1B50
1001
ACAD
1000
AcDbSavedByObjectVersion
1070
     0
  0
ACAD_PROXY_OBJECT
  5
2C
102
{ACAD_REACTORS
330
2A
102
}
330
2A
100
AcDbProxyObject
 90
      499
 91
      501
 93
      476
310
43519B185D15DA5D1A115919D95CD0140901404333333333333E3BF0000000000000F9010740901411070040501600405405064090741402480A1B50
1001
ACAD
1000
AcDbSavedByObjectVersion
1070
     0
  0
ACAD_PROXY_OBJECT
  5
2D
102
{ACAD_REACTORS
330
2A
102
}
330
2A
100
AcDbProxyObject
 90
      499
 91
      501
 93
      412
310
41D1DBDD5C985D5910240902404333333333333E3BF0000000000000F9010740A411070040501641D405064090741402480A1B50
1001
ACAD
1000
AcDbSavedByObjectVersion
1070
     0
  0
ACAD_PROXY_OBJECT
  5
2E
102
{ACAD_REACTORS
330
2A
102
}
330
2A
100
AcDbProxyObject
 90
      499
 91
      501
 93
      500
310
4411DBDD5C985D5915DA5D1A115919D95CD0340902404333333333333E3BF0000000000000F9010740901411070040501600405405064090741402480A1B50
1001
ACAD
1000
AcDbSavedByObjectVersion
1070
     0
  0
ACAD_PROXY_OBJECT
  5
38
102
{ACAD_REACTORS
330
2A
102
}
330
2A
100
AcDbProxyObject
 90
      499
 91
      501
 93
      444
310
42D31A5B995C185D1D195C9B90E409028333333333333E3BF0000000000000FB010790141107004050750841D405064090741402483A0350
1001
ACAD
1000
AcDbSavedByObjectVersion
1070
     0
  0
ACAD_PROXY_OBJECT
  5
33
102
{ACAD_REACTORS
330
2A
102
}
330
2A
100
AcDbProxyObject
 90
      499
 91
      501
 93
      420
310
425499585B1A5CDD1A58D08409028333333333333E3BF0000000000000FB01079019070040501508421405064090741402480A1B40
1001
ACAD
1000
AcDbSavedByObjectVersion
1070
     0
  0
ACAD_PROXY_OBJECT
  5
37
102
{ACAD_REACTORS
330
2A
102
}
330
2A
100
AcDbProxyObject
 90
      499
 91
      501
 93
      412
310
41D51A1A58DAD95B90D409028333333333333E3BF0000000000000FB010790141107004050150C41D405064090741402480A0350
1001
ACAD
1000
AcDbSavedByObjectVersion
1070
     0
  0
XRECORD
  5
E6
102
{ACAD_REACTORS
330
DD
102
}
330
DD
100
AcDbXrecord
 90
        0
  0
XRECORD
  5
FC
102
{ACAD_REACTORS
330
DD
102
}
330
DD
100
AcDbXrecord
1000
DSTYLE
1002
{
1070
   340
340
11
1002
}
  0
XRECORD
  5
E7
102
{ACAD_REACTORS
330
DD
102
}
330
DD
100
AcDbXrecord
  1
{C2442464-11D2-45F8-B743-C075E64817C6}
  0
XRECORD
  5
E0
102
{ACAD_REACTORS
330
DD
102
}
330
DD
100
AcDbXrecord
  1

  0
XRECORD
  5
E5
102
{ACAD_REACTORS
330
DD
102
}
330
DD
100
AcDbXrecord
 90
        4
  0
XRECORD
  5
E2
102
{ACAD_REACTORS
330
DD
102
}
330
DD
100
AcDbXrecord
340
1A
  0
XRECORD
  5
E4
102
{ACAD_REACTORS
330
DD
102
}
330
DD
100
AcDbXrecord
 90
    10781
  0
XRECORD
  5
E3
102
{ACAD_REACTORS
330
DD
102
}
330
DD
100
AcDbXrecord
340
19
  0
XRECORD
  5
E9
102
{ACAD_REACTORS
330
DD
102
}
330
DD
100
AcDbXrecord
 40
0.0
  0
XRECORD
  5
EC
102
{ACAD_REACTORS
330
DD
102
}
330
DD
100
AcDbXrecord
340
0
  0
XRECORD
  5
F2
102
{ACAD_REACTORS
330
DD
102
}
330
DD
100
AcDbXrecord
 10
0.0
 20
0.0
 30
0.0
  0
XRECORD
  5
EE
102
{ACAD_REACTORS
330
DD
102
}
330
DD
100
AcDbXrecord
 10
0.0
 20
0.0
 30
0.0
  0
XRECORD
  5
F1
102
{ACAD_REACTORS
330
DD
102
}
330
DD
100
AcDbXrecord
 10
0.0
 20
0.0
 30
0.0
  0
XRECORD
  5
EF
102
{ACAD_REACTORS
330
DD
102
}
330
DD
100
AcDbXrecord
 10
0.0
 20
0.0
 30
0.0
  0
XRECORD
  5
F0
102
{ACAD_REACTORS
330
DD
102
}
330
DD
100
AcDbXrecord
 10
0.0
 20
0.0
 30
0.0
  0
XRECORD
  5
ED
102
{ACAD_REACTORS
330
DD
102
}
330
DD
100
AcDbXrecord
 10
0.0
 20
0.0
 30
0.0
  0
XRECORD
  5
EA
102
{ACAD_REACTORS
330
DD
102
}
330
DD
100
AcDbXrecord
340
0
  0
XRECORD
  5
EB
102
{ACAD_REACTORS
330
DD
102
}
330
DD
100
AcDbXrecord
 70
     0
  0
XRECORD
  5
E1
102
{ACAD_REACTORS
330
DD
102
}
330
DD
100
AcDbXrecord
  1

  0
XRECORD
  5
DE
102
{ACAD_REACTORS
330
DD
102
}
330
DD
100
AcDbXrecord
 90
        1
  0
XRECORD
  5
DF
102
{ACAD_REACTORS
330
DD
102
}
330
DD
100
AcDbXrecord
 90
       70
  0
XRECORD
  5
F5
102
{ACAD_REACTORS
330
DD
102
}
330
DD
100
AcDbXrecord
340
0
  0
XRECORD
  5
FB
102
{ACAD_REACTORS
330
DD
102
}
330
DD
100
AcDbXrecord
 10
0.0
 20
0.0
 30
0.0
  0
XRECORD
  5
F7
102
{ACAD_REACTORS
330
DD
102
}
330
DD
100
AcDbXrecord
 10
0.0
 20
0.0
 30
0.0
  0
XRECORD
  5
FA
102
{ACAD_REACTORS
330
DD
102
}
330
DD
100
AcDbXrecord
 10
0.0
 20
0.0
 30
0.0
  0
XRECORD
  5
F8
102
{ACAD_REACTORS
330
DD
102
}
330
DD
100
AcDbXrecord
 10
0.0
 20
0.0
 30
0.0
  0
XRECORD
  5
F9
102
{ACAD_REACTORS
330
DD
102
}
330
DD
100
AcDbXrecord
 10
0.0
 20
0.0
 30
0.0
  0
XRECORD
  5
F6
102
{ACAD_REACTORS
330
DD
102
}
330
DD
100
AcDbXrecord
 10
0.0
 20
0.0
 30
0.0
  0
XRECORD
  5
F3
102
{ACAD_REACTORS
330
DD
102
}
330
DD
100
AcDbXrecord
340
0
  0
XRECORD
  5
F4
102
{ACAD_REACTORS
330
DD
102
}
330
DD
100
AcDbXrecord
 70
     0
  0
XRECORD
  5
E8
102
{ACAD_REACTORS
330
DD
102
}
330
DD
100
AcDbXrecord
  1
{FAEB1C32-E019-11D5-929B-00C0DF256EC4}
  0
DICTIONARYVAR
  5
100
102
{ACAD_REACTORS
330
FD
102
}
330
FD
100
DictionaryVariables
280
     0
  1
2
  0
DICTIONARYVAR
  5
101
102
{ACAD_REACTORS
330
FD
102
}
330
FD
100
DictionaryVariables
280
     0
  1
1
  0
DICTIONARY
  5
104
330
3D
100
AcDbDictionary
280
     1
  3
ACAD_XREC_ROUNDTRIP
360
105
  0
DICTIONARY
  5
102
330
3C
100
AcDbDictionary
280
     1
  3
ACAD_XREC_ROUNDTRIP
360
103
  0
DICTIONARY
  5
106
330
3E
100
AcDbDictionary
280
     1
  3
ACAD_XREC_ROUNDTRIP
360
107
  0
XRECORD
  5
105
102
{ACAD_REACTORS
330
104
102
}
330
104
100
AcDbXrecord
102
MATERIAL
148
0.0
149
0.0
149
0.0
 93
        0
 94
      127
282
     0
 72
     1
 77
     1
171
     1
175
     1
179
     1
273
     0
  0
XRECORD
  5
103
102
{ACAD_REACTORS
330
102
102
}
330
102
100
AcDbXrecord
102
MATERIAL
148
0.0
149
0.0
149
0.0
 93
        0
 94
      127
282
     0
 72
     1
 77
     1
171
     1
175
     1
179
     1
273
     0
  0
XRECORD
  5
107
102
{ACAD_REACTORS
330
106
102
}
330
106
100
AcDbXrecord
102
MATERIAL
148
0.0
149
0.0
149
0.0
 93
        0
 94
      127
282
     0
 72
     1
 77
     1
171
     1
175
     1
179
     1
273
     0
  0
ENDSEC
  0
EOF
