  0
SECTION
  2
HEADER
  9
$ACADVER
  1
AC1014
  9
$ACADMAINTVER
 70
     9
  9
$DWGCODEPAGE
  3
ANSI_1250
  9
$INSBASE
 10
0.0
 20
0.0
 30
0.0
  9
$EXTMIN
 10
-48.7294
 20
-24.0918
 30
0.0
  9
$EXTMAX
 10
48.8114
 20
24.0918
 30
0.0
  9
$LIMMIN
 10
0.0
 20
0.0
  9
$LIMMAX
 10
12.0
 20
9.0
  9
$ORTHOMODE
 70
     0
  9
$REGENMODE
 70
     1
  9
$FILLMODE
 70
     1
  9
$QTEXTMODE
 70
     0
  9
$MIRRTEXT
 70
     1
  9
$DRAGMODE
 70
     2
  9
$LTSCALE
 40
1.0
  9
$OSMODE
 70
    37
  9
$ATTMODE
 70
     1
  9
$TEXTSIZE
 40
0.2
  9
$TRACEWID
 40
0.05
  9
$TEXTSTYLE
  7
STANDARD
  9
$CLAYER
  8
0
  9
$CELTYPE
  6
BYLAYER
  9
$CECOLOR
 62
   256
  9
$CELTSCALE
 40
1.0
  9
$DELOBJ
 70
     1
  9
$DISPSILH
 70
     0
  9
$DIMSCALE
 40
1.0
  9
$DIMASZ
 40
0.18
  9
$DIMEXO
 40
0.0625
  9
$DIMDLI
 40
0.38
  9
$DIMRND
 40
0.0
  9
$DIMDLE
 40
0.0
  9
$DIMEXE
 40
0.18
  9
$DIMTP
 40
0.0
  9
$DIMTM
 40
0.0
  9
$DIMTXT
 40
0.18
  9
$DIMCEN
 40
0.09
  9
$DIMTSZ
 40
0.0
  9
$DIMTOL
 70
     0
  9
$DIMLIM
 70
     0
  9
$DIMTIH
 70
     1
  9
$DIMTOH
 70
     1
  9
$DIMSE1
 70
     0
  9
$DIMSE2
 70
     0
  9
$DIMTAD
 70
     0
  9
$DIMZIN
 70
     0
  9
$DIMBLK
  1

  9
$DIMASO
 70
     1
  9
$DIMSHO
 70
     1
  9
$DIMPOST
  1

  9
$DIMAPOST
  1

  9
$DIMALT
 70
     0
  9
$DIMALTD
 70
     2
  9
$DIMALTF
 40
25.4
  9
$DIMLFAC
 40
1.0
  9
$DIMTOFL
 70
     0
  9
$DIMTVP
 40
0.0
  9
$DIMTIX
 70
     0
  9
$DIMSOXD
 70
     0
  9
$DIMSAH
 70
     0
  9
$DIMBLK1
  1

  9
$DIMBLK2
  1

  9
$DIMSTYLE
  2
STANDARD
  9
$DIMCLRD
 70
     0
  9
$DIMCLRE
 70
     0
  9
$DIMCLRT
 70
     0
  9
$DIMTFAC
 40
1.0
  9
$DIMGAP
 40
0.09
  9
$DIMJUST
 70
     0
  9
$DIMSD1
 70
     0
  9
$DIMSD2
 70
     0
  9
$DIMTOLJ
 70
     1
  9
$DIMTZIN
 70
     0
  9
$DIMALTZ
 70
     0
  9
$DIMALTTZ
 70
     0
  9
$DIMFIT
 70
     3
  9
$DIMUPT
 70
     0
  9
$DIMUNIT
 70
     2
  9
$DIMDEC
 70
     4
  9
$DIMTDEC
 70
     4
  9
$DIMALTU
 70
     2
  9
$DIMALTTD
 70
     2
  9
$DIMTXSTY
  7
STANDARD
  9
$DIMAUNIT
 70
     0
  9
$LUNITS
 70
     2
  9
$LUPREC
 70
     4
  9
$SKETCHINC
 40
0.1
  9
$FILLETRAD
 40
0.5
  9
$AUNITS
 70
     0
  9
$AUPREC
 70
     0
  9
$MENU
  1
.
  9
$ELEVATION
 40
0.0
  9
$PELEVATION
 40
0.0
  9
$THICKNESS
 40
0.0
  9
$LIMCHECK
 70
     0
  9
$CHAMFERA
 40
0.5
  9
$CHAMFERB
 40
0.5
  9
$CHAMFERC
 40
1.0
  9
$CHAMFERD
 40
0.0
  9
$SKPOLY
 70
     0
  9
$TDCREATE
 40
2456272.428505822
  9
$TDUPDATE
 40
2456272.428505833
  9
$TDINDWG
 40
0.0000000116
  9
$TDUSRTIMER
 40
0.0000000116
  9
$USRTIMER
 70
     1
  9
$ANGBASE
 50
0.0
  9
$ANGDIR
 70
     0
  9
$PDMODE
 70
     0
  9
$PDSIZE
 40
0.0
  9
$PLINEWID
 40
0.0
  9
$COORDS
 70
     1
  9
$SPLFRAME
 70
     0
  9
$SPLINETYPE
 70
     6
  9
$SPLINESEGS
 70
     8
  9
$ATTDIA
 70
     0
  9
$ATTREQ
 70
     1
  9
$HANDLING
 70
     1
  9
$HANDSEED
  5
10C
  9
$SURFTAB1
 70
     6
  9
$SURFTAB2
 70
     6
  9
$SURFTYPE
 70
     6
  9
$SURFU
 70
     6
  9
$SURFV
 70
     6
  9
$UCSNAME
  2

  9
$UCSORG
 10
0.0
 20
0.0
 30
0.0
  9
$UCSXDIR
 10
1.0
 20
0.0
 30
0.0
  9
$UCSYDIR
 10
0.0
 20
1.0
 30
0.0
  9
$PUCSNAME
  2

  9
$PUCSORG
 10
0.0
 20
0.0
 30
0.0
  9
$PUCSXDIR
 10
1.0
 20
0.0
 30
0.0
  9
$PUCSYDIR
 10
0.0
 20
1.0
 30
0.0
  9
$USERI1
 70
     0
  9
$USERI2
 70
     0
  9
$USERI3
 70
     0
  9
$USERI4
 70
     0
  9
$USERI5
 70
     0
  9
$USERR1
 40
0.0
  9
$USERR2
 40
0.0
  9
$USERR3
 40
0.0
  9
$USERR4
 40
0.0
  9
$USERR5
 40
0.0
  9
$WORLDVIEW
 70
     1
  9
$SHADEDGE
 70
     3
  9
$SHADEDIF
 70
    70
  9
$TILEMODE
 70
     1
  9
$MAXACTVP
 70
    64
  9
$PINSBASE
 10
0.0
 20
0.0
 30
0.0
  9
$PLIMCHECK
 70
     0
  9
$PEXTMIN
 10
1.000000000000000E+20
 20
1.000000000000000E+20
 30
1.000000000000000E+20
  9
$PEXTMAX
 10
-1.000000000000000E+20
 20
-1.000000000000000E+20
 30
-1.000000000000000E+20
  9
$PLIMMIN
 10
0.0
 20
0.0
  9
$PLIMMAX
 10
12.0
 20
9.0
  9
$UNITMODE
 70
     0
  9
$VISRETAIN
 70
     1
  9
$PLINEGEN
 70
     0
  9
$PSLTSCALE
 70
     1
  9
$TREEDEPTH
 70
  3020
  9
$PICKSTYLE
 70
     1
  9
$CMLSTYLE
  2
STANDARD
  9
$CMLJUST
 70
     0
  9
$CMLSCALE
 40
1.0
  9
$PROXYGRAPHICS
 70
     1
  9
$MEASUREMENT
 70
     0
  0
ENDSEC
  0
SECTION
  2
CLASSES
  0
CLASS
  1
ACDBDICTIONARYWDFLT
  2
AcDbDictionaryWithDefault
  3
ObjectDBX Classes
 90
        0
280
     0
281
     0
  0
CLASS
  1
VISUALSTYLE
  2
AcDbVisualStyle
  3
ObjectDBX Classes
 90
     4095
280
     0
281
     0
  0
CLASS
  1
MATERIAL
  2
AcDbMaterial
  3
ObjectDBX Classes
 90
     1153
280
     0
281
     0
  0
CLASS
  1
DICTIONARYVAR
  2
AcDbDictionaryVar
  3
ObjectDBX Classes
 90
        0
280
     0
281
     0
  0
CLASS
  1
XRECORD
  2
AcDbXrecord
  3
AutoCAD 2000
 90
        0
280
     0
281
     0
  0
CLASS
  1
LWPOLYLINE
  2
AcDbPolyline
  3
AutoCAD 2000
 90
        0
280
     0
281
     1
  0
CLASS
  1
HATCH
  2
AcDbHatch
  3
AutoCAD 2000
 90
        0
280
     0
281
     1
  0
CLASS
  1
ACDBPLACEHOLDER
  2
AcDbPlaceHolder
  3
ObjectDBX Classes
 90
        0
280
     0
281
     0
  0
CLASS
  1
LAYOUT
  2
AcDbLayout
  3
ObjectDBX Classes
 90
        0
280
     0
281
     0
  0
ENDSEC
  0
SECTION
  2
TABLES
  0
TABLE
  2
VPORT
  5
8
330
0
100
AcDbSymbolTable
 70
     1
  0
VPORT
  5
29
330
8
100
AcDbSymbolTableRecord
100
AcDbViewportTableRecord
  2
*ACTIVE
 70
     0
 10
0.0
 20
0.0
 11
1.0
 21
1.0
 12
10.42990654205607
 22
4.5
 13
0.0
 23
0.0
 14
0.5
 24
0.5
 15
0.5
 25
0.5
 16
0.0
 26
0.0
 36
1.0
 17
0.0
 27
0.0
 37
0.0
 40
9.0
 41
1.972972972850329
 42
50.0
 43
0.0
 44
0.0
 50
0.0
 51
0.0
 71
     0
 72
   100
 73
     1
 74
     3
 75
     0
 76
     0
 77
     0
 78
     0
  0
ENDTAB
  0
TABLE
  2
LTYPE
  5
5
330
0
100
AcDbSymbolTable
 70
     3
  0
LTYPE
  5
14
330
5
100
AcDbSymbolTableRecord
100
AcDbLinetypeTableRecord
  2
BYBLOCK
 70
     0
  3

 72
    65
 73
     0
 40
0.0
  0
LTYPE
  5
15
330
5
100
AcDbSymbolTableRecord
100
AcDbLinetypeTableRecord
  2
BYLAYER
 70
     0
  3

 72
    65
 73
     0
 40
0.0
  0
LTYPE
  5
16
330
5
100
AcDbSymbolTableRecord
100
AcDbLinetypeTableRecord
  2
CONTINUOUS
 70
     0
  3
Solid line
 72
    65
 73
     0
 40
0.0
  0
LTYPE
  5
42
330
5
100
AcDbSymbolTableRecord
100
AcDbLinetypeTableRecord
  2
NEW_LINE1
 70
     0
  3

 72
    65
 73
     4
 40
1.2
 49
0.5
 74
     4
 75
     0
340
0
 46
1.0
 50
0.0
 44
0.0
 45
0.0
 49
-0.3
 74
     4
 75
     0
340
0
 46
1.0
 50
0.0
 44
0.0
 45
0.0
 49
0.1
 74
     4
 75
     0
340
0
 46
1.0
 50
0.0
 44
0.0
 45
0.0
 49
-0.3
 74
     4
 75
     0
340
0
 46
1.0
 50
0.0
 44
0.0
 45
0.0
  0
LTYPE
  5
E0
330
5
100
AcDbSymbolTableRecord
100
AcDbLinetypeTableRecord
  2
NEW_LINE2
 70
     0
  3

 72
    65
 73
     4
 40
1.2
 49
0.5
 74
     4
 75
     0
340
0
 46
1.0
 50
0.0
 44
0.0
 45
0.0
 49
-0.3
 74
     4
 75
     0
340
0
 46
1.0
 50
0.0
 44
0.0
 45
0.0
 49
0.1
 74
     4
 75
     0
340
0
 46
1.0
 50
0.0
 44
0.0
 45
0.0
 49
-0.3
 74
     4
 75
     0
340
0
 46
1.0
 50
0.0
 44
0.0
 45
0.0
  0
ENDTAB
  0
TABLE
  2
LAYER
  5
2
330
0
100
AcDbSymbolTable
 70
     2
  0
LAYER
  5
10
330
2
100
AcDbSymbolTableRecord
100
AcDbLayerTableRecord
  2
0
 70
     0
 62
     7
  6
CONTINUOUS
  0
LAYER
  5
40
330
2
100
AcDbSymbolTableRecord
100
AcDbLayerTableRecord
  2
ROUND
 70
     0
 62
     7
  6
CONTINUOUS
  0
ENDTAB
  0
TABLE
  2
STYLE
  5
3
330
0
100
AcDbSymbolTable
 70
     1
  0
STYLE
  5
11
330
3
100
AcDbSymbolTableRecord
100
AcDbTextStyleTableRecord
  2
STANDARD
 70
     0
 40
0.0
 41
1.0
 50
0.0
 71
     0
 42
0.2
  3
txt
  4

  0
ENDTAB
  0
TABLE
  2
VIEW
  5
6
330
0
100
AcDbSymbolTable
 70
     0
  0
ENDTAB
  0
TABLE
  2
UCS
  5
7
330
0
100
AcDbSymbolTable
 70
     0
  0
ENDTAB
  0
TABLE
  2
APPID
  5
9
330
0
100
AcDbSymbolTable
 70
     2
  0
APPID
  5
12
330
9
100
AcDbSymbolTableRecord
100
AcDbRegAppTableRecord
  2
ACAD
 70
     0
  0
APPID
  5
3F
330
9
100
AcDbSymbolTableRecord
100
AcDbRegAppTableRecord
  2
ODA
 70
     0
  0
ENDTAB
  0
TABLE
  2
DIMSTYLE
  5
A
330
0
100
AcDbSymbolTable
 70
     1
  0
DIMSTYLE
105
27
330
A
100
AcDbSymbolTableRecord
100
AcDbDimStyleTableRecord
  2
STANDARD
 70
     0
  3

  4

  5

  6

  7

 40
1.0
 41
0.18
 42
0.0625
 43
0.38
 44
0.18
 45
0.0
 46
0.0
 47
0.0
 48
0.0
140
0.18
141
0.09
142
0.0
143
25.4
144
1.0
145
0.0
146
1.0
147
0.09
 71
     0
 72
     0
 73
     1
 74
     1
 75
     0
 76
     0
 77
     0
 78
     0
170
     0
171
     2
172
     0
173
     0
174
     0
175
     0
176
     0
177
     0
178
     0
270
     2
271
     4
272
     4
273
     2
274
     2
340
11
275
     0
280
     0
281
     0
282
     0
283
     1
284
     0
285
     0
286
     0
287
     3
288
     0
  0
ENDTAB
  0
TABLE
  2
BLOCK_RECORD
  5
1
330
0
100
AcDbSymbolTable
 70
     1
  0
BLOCK_RECORD
  5
1F
330
1
100
AcDbSymbolTableRecord
100
AcDbBlockTableRecord
  2
*MODEL_SPACE
  0
BLOCK_RECORD
  5
1B
330
1
100
AcDbSymbolTableRecord
100
AcDbBlockTableRecord
  2
*PAPER_SPACE
  0
ENDTAB
  0
ENDSEC
  0
SECTION
  2
BLOCKS
  0
BLOCK
  5
20
330
1F
100
AcDbEntity
  8
0
100
AcDbBlockBegin
  2
*MODEL_SPACE
 70
     0
 10
0.0
 20
0.0
 30
0.0
  3
*MODEL_SPACE
  1

  0
ENDBLK
  5
21
330
1F
100
AcDbEntity
  8
0
100
AcDbBlockEnd
  0
BLOCK
  5
1C
330
1B
100
AcDbEntity
 67
     1
  8
0
100
AcDbBlockBegin
  2
*PAPER_SPACE
 70
     0
 10
0.0
 20
0.0
 30
0.0
  3
*PAPER_SPACE
  1

  0
ENDBLK
  5
1D
330
1B
100
AcDbEntity
 67
     1
  8
0
100
AcDbBlockEnd
  0
ENDSEC
  0
SECTION
  2
ENTITIES
  0
SPLINE
  5
41
330
1F
100
AcDbEntity
  8
ROUND
  6
NEW_LINE1
 62
   250
100
AcDbSpline
210
0.0
220
0.0
230
1.0
 70
    24
 71
     3
 72
     8
 73
     4
 74
     0
 42
0.0000000001
 43
0.0000000001
 40
0.0
 40
0.0
 40
0.0
 40
0.0
 40
1.0
 40
1.0
 40
1.0
 40
1.0
 10
-42.4747
 20
-4.354
 30
0.0
 10
-42.4747
 20
-4.354
 30
0.0
 10
-25.0035
 20
-4.354
 30
0.0
 10
-25.0035
 20
-4.354
 30
0.0
  0
SPLINE
  5
43
330
1F
100
AcDbEntity
  8
ROUND
 62
   250
100
AcDbSpline
210
0.0
220
0.0
230
1.0
 70
    11
 71
     3
 72
    92
 73
    88
 74
     0
 42
0.0000000001
 43
0.0000000001
 40
0.0
 40
0.0
 40
0.0
 40
0.0
 40
0.0434782608695652
 40
0.0434782608695652
 40
0.0434782608695652
 40
0.0434782608695652
 40
0.0869565217391304
 40
0.0869565217391304
 40
0.0869565217391304
 40
0.0869565217391304
 40
0.1304347826086956
 40
0.1304347826086956
 40
0.1304347826086956
 40
0.1304347826086956
 40
0.1739130434782609
 40
0.1739130434782609
 40
0.1739130434782609
 40
0.1739130434782609
 40
0.2173913043478261
 40
0.2173913043478261
 40
0.2173913043478261
 40
0.2173913043478261
 40
0.2608695652173913
 40
0.2608695652173913
 40
0.2608695652173913
 40
0.2608695652173913
 40
0.3043478260869565
 40
0.3043478260869565
 40
0.3043478260869565
 40
0.3043478260869565
 40
0.3478260869565217
 40
0.3478260869565217
 40
0.3478260869565217
 40
0.3478260869565217
 40
0.391304347826087
 40
0.391304347826087
 40
0.391304347826087
 40
0.391304347826087
 40
0.4347826086956522
 40
0.4347826086956522
 40
0.4347826086956522
 40
0.4347826086956522
 40
0.4782608695652174
 40
0.4782608695652174
 40
0.4782608695652174
 40
0.4782608695652174
 40
0.5217391304347826
 40
0.5217391304347826
 40
0.5217391304347826
 40
0.5217391304347826
 40
0.5652173913043478
 40
0.5652173913043478
 40
0.5652173913043478
 40
0.5652173913043478
 40
0.6086956521739131
 40
0.6086956521739131
 40
0.6086956521739131
 40
0.6086956521739131
 40
0.6521739130434783
 40
0.6521739130434783
 40
0.6521739130434783
 40
0.6521739130434783
 40
0.6956521739130435
 40
0.6956521739130435
 40
0.6956521739130435
 40
0.6956521739130435
 40
0.7391304347826086
 40
0.7391304347826086
 40
0.7391304347826086
 40
0.7391304347826086
 40
0.782608695652174
 40
0.782608695652174
 40
0.782608695652174
 40
0.782608695652174
 40
0.8260869565217391
 40
0.8260869565217391
 40
0.8260869565217391
 40
0.8260869565217391
 40
0.8695652173913043
 40
0.8695652173913043
 40
0.8695652173913043
 40
0.8695652173913043
 40
0.9130434782608695
 40
0.9130434782608695
 40
0.9130434782608695
 40
0.9130434782608695
 40
1.0
 40
1.0
 40
1.0
 40
1.0
 10
-6.6918
 20
21.2053
 30
0.0
 10
-6.6918
 20
21.2053
 30
0.0
 10
-6.6918
 20
20.8208
 30
0.0
 10
-6.6918
 20
20.8208
 30
0.0
 10
-6.6918
 20
20.8208
 30
0.0
 10
-6.6918
 20
20.8208
 30
0.0
 10
-8.845
 20
20.8208
 30
0.0
 10
-8.845
 20
20.8208
 30
0.0
 10
-8.845
 20
20.8208
 30
0.0
 10
-8.8481
 20
20.917
 30
0.0
 10
-8.8329
 20
21.0096
 30
0.0
 10
-8.7987
 20
21.0983
 30
0.0
 10
-8.7987
 20
21.0983
 30
0.0
 10
-8.7441
 20
21.2455
 30
0.0
 10
-8.6562
 20
21.3896
 30
0.0
 10
-8.5356
 20
21.5322
 30
0.0
 10
-8.5356
 20
21.5322
 30
0.0
 10
-8.4142
 20
21.674
 30
0.0
 10
-8.2397
 20
21.8385
 30
0.0
 10
-8.0122
 20
22.0251
 30
0.0
 10
-8.0122
 20
22.0251
 30
0.0
 10
-7.6581
 20
22.3156
 30
0.0
 10
-7.4184
 20
22.5454
 30
0.0
 10
-7.2941
 20
22.7153
 30
0.0
 10
-7.2941
 20
22.7153
 30
0.0
 10
-7.1697
 20
22.8843
 30
0.0
 10
-7.1075
 20
23.0452
 30
0.0
 10
-7.1075
 20
23.1961
 30
0.0
 10
-7.1075
 20
23.1961
 30
0.0
 10
-7.1075
 20
23.3546
 30
0.0
 10
-7.1644
 20
23.4881
 30
0.0
 10
-7.2774
 20
23.5973
 30
0.0
 10
-7.2774
 20
23.5973
 30
0.0
 10
-7.3911
 20
23.7056
 30
0.0
 10
-7.539
 20
23.7603
 30
0.0
 10
-7.721
 20
23.7603
 30
0.0
 10
-7.721
 20
23.7603
 30
0.0
 10
-7.9137
 20
23.7603
 30
0.0
 10
-8.0677
 20
23.7027
 30
0.0
 10
-8.183
 20
23.5866
 30
0.0
 10
-8.183
 20
23.5866
 30
0.0
 10
-8.2989
 20
23.4714
 30
0.0
 10
-8.3574
 20
23.3114
 30
0.0
 10
-8.3589
 20
23.1073
 30
0.0
 10
-8.3589
 20
23.1073
 30
0.0
 10
-8.3589
 20
23.1073
 30
0.0
 10
-8.7699
 20
23.149
 30
0.0
 10
-8.7699
 20
23.149
 30
0.0
 10
-8.7699
 20
23.149
 30
0.0
 10
-8.7418
 20
23.4562
 30
0.0
 10
-8.6357
 20
23.6898
 30
0.0
 10
-8.4522
 20
23.8506
 30
0.0
 10
-8.4522
 20
23.8506
 30
0.0
 10
-8.2686
 20
24.0113
 30
0.0
 10
-8.0214
 20
24.0918
 30
0.0
 10
-7.712
 20
24.0918
 30
0.0
 10
-7.712
 20
24.0918
 30
0.0
 10
-7.3995
 20
24.0918
 30
0.0
 10
-7.1522
 20
24.0046
 30
0.0
 10
-6.9703
 20
23.8316
 30
0.0
 10
-6.9703
 20
23.8316
 30
0.0
 10
-6.7874
 20
23.6579
 30
0.0
 10
-6.6965
 20
23.4433
 30
0.0
 10
-6.6965
 20
23.1869
 30
0.0
 10
-6.6965
 20
23.1869
 30
0.0
 10
-6.6965
 20
23.0565
 30
0.0
 10
-6.723
 20
22.9283
 30
0.0
 10
-6.7768
 20
22.8025
 30
0.0
 10
-6.7768
 20
22.8025
 30
0.0
 10
-6.8299
 20
22.6766
 30
0.0
 10
-6.9187
 20
22.5439
 30
0.0
 10
-7.0422
 20
22.4051
 30
0.0
 10
-7.0422
 20
22.4051
 30
0.0
 10
-7.1659
 20
22.2655
 30
0.0
 10
-7.3714
 20
22.0744
 30
0.0
 10
-7.6588
 20
21.8317
 30
0.0
 10
-7.6588
 20
21.8317
 30
0.0
 10
-7.8985
 20
21.63
 30
0.0
 10
-8.0525
 20
21.4935
 30
0.0
 10
-8.1207
 20
21.4214
 30
0.0
 10
-8.1207
 20
21.4214
 30
0.0
 10
-8.1889
 20
21.3501
 30
0.0
 10
-8.245
 20
21.2781
 30
0.0
 10
-8.2899
 20
21.2053
 30
0.0
 10
-8.2899
 20
21.2053
 30
0.0
 10
-8.2899
 20
21.2053
 30
0.0
 10
-6.6918
 20
21.2053
 30
0.0
 10
-6.6918
 20
21.2053
 30
0.0
  0
SPLINE
  5
44
330
1F
100
AcDbEntity
  8
ROUND
 62
   250
100
AcDbSpline
210
0.0
220
0.0
230
1.0
 70
    11
 71
     3
 72
    52
 73
    48
 74
     0
 42
0.0000000001
 43
0.0000000001
 40
0.0
 40
0.0
 40
0.0
 40
0.0
 40
0.0769230769230769
 40
0.0769230769230769
 40
0.0769230769230769
 40
0.0769230769230769
 40
0.1538461538461539
 40
0.1538461538461539
 40
0.1538461538461539
 40
0.1538461538461539
 40
0.2307692307692308
 40
0.2307692307692308
 40
0.2307692307692308
 40
0.2307692307692308
 40
0.3076923076923077
 40
0.3076923076923077
 40
0.3076923076923077
 40
0.3076923076923077
 40
0.3846153846153846
 40
0.3846153846153846
 40
0.3846153846153846
 40
0.3846153846153846
 40
0.4615384615384616
 40
0.4615384615384616
 40
0.4615384615384616
 40
0.4615384615384616
 40
0.5384615384615384
 40
0.5384615384615384
 40
0.5384615384615384
 40
0.5384615384615384
 40
0.6153846153846154
 40
0.6153846153846154
 40
0.6153846153846154
 40
0.6153846153846154
 40
0.6923076923076923
 40
0.6923076923076923
 40
0.6923076923076923
 40
0.6923076923076923
 40
0.7692307692307693
 40
0.7692307692307693
 40
0.7692307692307693
 40
0.7692307692307693
 40
0.8461538461538461
 40
0.8461538461538461
 40
0.8461538461538461
 40
0.8461538461538461
 40
1.0
 40
1.0
 40
1.0
 40
1.0
 10
-6.2634
 20
22.427
 30
0.0
 10
-6.2634
 20
22.8124
 30
0.0
 10
-6.2239
 20
23.1226
 30
0.0
 10
-6.1443
 20
23.3569
 30
0.0
 10
-6.1443
 20
23.3569
 30
0.0
 10
-6.0654
 20
23.592
 30
0.0
 10
-5.9471
 20
23.7732
 30
0.0
 10
-5.7908
 20
23.9006
 30
0.0
 10
-5.7908
 20
23.9006
 30
0.0
 10
-5.6346
 20
24.0281
 30
0.0
 10
-5.4382
 20
24.0918
 30
0.0
 10
-5.2017
 20
24.0918
 30
0.0
 10
-5.2017
 20
24.0918
 30
0.0
 10
-5.0264
 20
24.0918
 30
0.0
 10
-4.8732
 20
24.0562
 30
0.0
 10
-4.7413
 20
23.9855
 30
0.0
 10
-4.7413
 20
23.9855
 30
0.0
 10
-4.6093
 20
23.9157
 30
0.0
 10
-4.5009
 20
23.8141
 30
0.0
 10
-4.4144
 20
23.6815
 30
0.0
 10
-4.4144
 20
23.6815
 30
0.0
 10
-4.3287
 20
23.5488
 30
0.0
 10
-4.2612
 20
23.3872
 30
0.0
 10
-4.2127
 20
23.1968
 30
0.0
 10
-4.2127
 20
23.1968
 30
0.0
 10
-4.1633
 20
23.0065
 30
0.0
 10
-4.1391
 20
22.7501
 30
0.0
 10
-4.1391
 20
22.427
 30
0.0
 10
-4.1391
 20
22.427
 30
0.0
 10
-4.1391
 20
22.0449
 30
0.0
 10
-4.1786
 20
21.7369
 30
0.0
 10
-4.2567
 20
21.5018
 30
0.0
 10
-4.2567
 20
21.5018
 30
0.0
 10
-4.3355
 20
21.2668
 30
0.0
 10
-4.4531
 20
21.0854
 30
0.0
 10
-4.6093
 20
20.9574
 30
0.0
 10
-4.6093
 20
20.9574
 30
0.0
 10
-4.7655
 20
20.8292
 30
0.0
 10
-4.9627
 20
20.7655
 30
0.0
 10
-5.2017
 20
20.7655
 30
0.0
 10
-5.2017
 20
20.7655
 30
0.0
 10
-5.5156
 20
20.7655
 30
0.0
 10
-5.7621
 20
20.8777
 30
0.0
 10
-5.9411
 20
21.1029
 30
0.0
 10
-5.9411
 20
21.1029
 30
0.0
 10
-6.1557
 20
21.3737
 30
0.0
 10
-6.2634
 20
21.8158
 30
0.0
 10
-6.2634
 20
22.427
 30
0.0
  0
SPLINE
  5
45
330
1F
100
AcDbEntity
  8
ROUND
 62
   250
100
AcDbSpline
210
0.0
220
0.0
230
1.0
 70
    11
 71
     3
 72
    36
 73
    32
 74
     0
 42
0.0000000001
 43
0.0000000001
 40
0.0
 40
0.0
 40
0.0
 40
0.0
 40
0.1111111111111111
 40
0.1111111111111111
 40
0.1111111111111111
 40
0.1111111111111111
 40
0.2222222222222222
 40
0.2222222222222222
 40
0.2222222222222222
 40
0.2222222222222222
 40
0.3333333333333333
 40
0.3333333333333333
 40
0.3333333333333333
 40
0.3333333333333333
 40
0.4444444444444444
 40
0.4444444444444444
 40
0.4444444444444444
 40
0.4444444444444444
 40
0.5555555555555556
 40
0.5555555555555556
 40
0.5555555555555556
 40
0.5555555555555556
 40
0.6666666666666666
 40
0.6666666666666666
 40
0.6666666666666666
 40
0.6666666666666666
 40
0.7777777777777778
 40
0.7777777777777778
 40
0.7777777777777778
 40
0.7777777777777778
 40
1.0
 40
1.0
 40
1.0
 40
1.0
 10
-5.8523
 20
22.427
 30
0.0
 10
-5.8523
 20
21.8924
 30
0.0
 10
-5.7894
 20
21.5367
 30
0.0
 10
-5.6643
 20
21.3593
 30
0.0
 10
-5.6643
 20
21.3593
 30
0.0
 10
-5.5392
 20
21.1826
 30
0.0
 10
-5.3852
 20
21.0938
 30
0.0
 10
-5.2017
 20
21.0938
 30
0.0
 10
-5.2017
 20
21.0938
 30
0.0
 10
-5.0174
 20
21.0938
 30
0.0
 10
-4.8634
 20
21.1832
 30
0.0
 10
-4.7383
 20
21.3608
 30
0.0
 10
-4.7383
 20
21.3608
 30
0.0
 10
-4.6132
 20
21.5383
 30
0.0
 10
-4.5501
 20
21.894
 30
0.0
 10
-4.5501
 20
22.427
 30
0.0
 10
-4.5501
 20
22.427
 30
0.0
 10
-4.5501
 20
22.9633
 30
0.0
 10
-4.6132
 20
23.3196
 30
0.0
 10
-4.7383
 20
23.4957
 30
0.0
 10
-4.7383
 20
23.4957
 30
0.0
 10
-4.8634
 20
23.6724
 30
0.0
 10
-5.0188
 20
23.7603
 30
0.0
 10
-5.2054
 20
23.7603
 30
0.0
 10
-5.2054
 20
23.7603
 30
0.0
 10
-5.3897
 20
23.7603
 30
0.0
 10
-5.5361
 20
23.6823
 30
0.0
 10
-5.6461
 20
23.5268
 30
0.0
 10
-5.6461
 20
23.5268
 30
0.0
 10
-5.7833
 20
23.3288
 30
0.0
 10
-5.8523
 20
22.9617
 30
0.0
 10
-5.8523
 20
22.427
 30
0.0
  0
SPLINE
  5
46
330
1F
100
AcDbEntity
  8
ROUND
 62
   250
100
AcDbSpline
210
0.0
220
0.0
230
1.0
 70
    11
 71
     3
 72
    52
 73
    48
 74
     0
 42
0.0000000001
 43
0.0000000001
 40
0.0
 40
0.0
 40
0.0
 40
0.0
 40
0.0769230769230769
 40
0.0769230769230769
 40
0.0769230769230769
 40
0.0769230769230769
 40
0.1538461538461539
 40
0.1538461538461539
 40
0.1538461538461539
 40
0.1538461538461539
 40
0.2307692307692308
 40
0.2307692307692308
 40
0.2307692307692308
 40
0.2307692307692308
 40
0.3076923076923077
 40
0.3076923076923077
 40
0.3076923076923077
 40
0.3076923076923077
 40
0.3846153846153846
 40
0.3846153846153846
 40
0.3846153846153846
 40
0.3846153846153846
 40
0.4615384615384616
 40
0.4615384615384616
 40
0.4615384615384616
 40
0.4615384615384616
 40
0.5384615384615384
 40
0.5384615384615384
 40
0.5384615384615384
 40
0.5384615384615384
 40
0.6153846153846154
 40
0.6153846153846154
 40
0.6153846153846154
 40
0.6153846153846154
 40
0.6923076923076923
 40
0.6923076923076923
 40
0.6923076923076923
 40
0.6923076923076923
 40
0.7692307692307693
 40
0.7692307692307693
 40
0.7692307692307693
 40
0.7692307692307693
 40
0.8461538461538461
 40
0.8461538461538461
 40
0.8461538461538461
 40
0.8461538461538461
 40
1.0
 40
1.0
 40
1.0
 40
1.0
 10
-3.7327
 20
22.427
 30
0.0
 10
-3.7327
 20
22.8124
 30
0.0
 10
-3.6931
 20
23.1226
 30
0.0
 10
-3.6135
 20
23.3569
 30
0.0
 10
-3.6135
 20
23.3569
 30
0.0
 10
-3.5347
 20
23.592
 30
0.0
 10
-3.4163
 20
23.7732
 30
0.0
 10
-3.2601
 20
23.9006
 30
0.0
 10
-3.2601
 20
23.9006
 30
0.0
 10
-3.1038
 20
24.0281
 30
0.0
 10
-2.9074
 20
24.0918
 30
0.0
 10
-2.6709
 20
24.0918
 30
0.0
 10
-2.6709
 20
24.0918
 30
0.0
 10
-2.4956
 20
24.0918
 30
0.0
 10
-2.3425
 20
24.0562
 30
0.0
 10
-2.2106
 20
23.9855
 30
0.0
 10
-2.2106
 20
23.9855
 30
0.0
 10
-2.0785
 20
23.9157
 30
0.0
 10
-1.9702
 20
23.8141
 30
0.0
 10
-1.8836
 20
23.6815
 30
0.0
 10
-1.8836
 20
23.6815
 30
0.0
 10
-1.798
 20
23.5488
 30
0.0
 10
-1.7304
 20
23.3872
 30
0.0
 10
-1.6819
 20
23.1968
 30
0.0
 10
-1.6819
 20
23.1968
 30
0.0
 10
-1.6325
 20
23.0065
 30
0.0
 10
-1.6084
 20
22.7501
 30
0.0
 10
-1.6084
 20
22.427
 30
0.0
 10
-1.6084
 20
22.427
 30
0.0
 10
-1.6084
 20
22.0449
 30
0.0
 10
-1.6479
 20
21.7369
 30
0.0
 10
-1.7259
 20
21.5018
 30
0.0
 10
-1.7259
 20
21.5018
 30
0.0
 10
-1.8047
 20
21.2668
 30
0.0
 10
-1.9223
 20
21.0854
 30
0.0
 10
-2.0785
 20
20.9574
 30
0.0
 10
-2.0785
 20
20.9574
 30
0.0
 10
-2.2348
 20
20.8292
 30
0.0
 10
-2.432
 20
20.7655
 30
0.0
 10
-2.6709
 20
20.7655
 30
0.0
 10
-2.6709
 20
20.7655
 30
0.0
 10
-2.9848
 20
20.7655
 30
0.0
 10
-3.2314
 20
20.8777
 30
0.0
 10
-3.4103
 20
21.1029
 30
0.0
 10
-3.4103
 20
21.1029
 30
0.0
 10
-3.6249
 20
21.3737
 30
0.0
 10
-3.7327
 20
21.8158
 30
0.0
 10
-3.7327
 20
22.427
 30
0.0
  0
SPLINE
  5
47
330
1F
100
AcDbEntity
  8
ROUND
 62
   250
100
AcDbSpline
210
0.0
220
0.0
230
1.0
 70
    11
 71
     3
 72
    36
 73
    32
 74
     0
 42
0.0000000001
 43
0.0000000001
 40
0.0
 40
0.0
 40
0.0
 40
0.0
 40
0.1111111111111111
 40
0.1111111111111111
 40
0.1111111111111111
 40
0.1111111111111111
 40
0.2222222222222222
 40
0.2222222222222222
 40
0.2222222222222222
 40
0.2222222222222222
 40
0.3333333333333333
 40
0.3333333333333333
 40
0.3333333333333333
 40
0.3333333333333333
 40
0.4444444444444444
 40
0.4444444444444444
 40
0.4444444444444444
 40
0.4444444444444444
 40
0.5555555555555556
 40
0.5555555555555556
 40
0.5555555555555556
 40
0.5555555555555556
 40
0.6666666666666666
 40
0.6666666666666666
 40
0.6666666666666666
 40
0.6666666666666666
 40
0.7777777777777778
 40
0.7777777777777778
 40
0.7777777777777778
 40
0.7777777777777778
 40
1.0
 40
1.0
 40
1.0
 40
1.0
 10
-3.3215
 20
22.427
 30
0.0
 10
-3.3215
 20
21.8924
 30
0.0
 10
-3.2586
 20
21.5367
 30
0.0
 10
-3.1335
 20
21.3593
 30
0.0
 10
-3.1335
 20
21.3593
 30
0.0
 10
-3.0084
 20
21.1826
 30
0.0
 10
-2.8544
 20
21.0938
 30
0.0
 10
-2.6709
 20
21.0938
 30
0.0
 10
-2.6709
 20
21.0938
 30
0.0
 10
-2.4866
 20
21.0938
 30
0.0
 10
-2.3326
 20
21.1832
 30
0.0
 10
-2.2075
 20
21.3608
 30
0.0
 10
-2.2075
 20
21.3608
 30
0.0
 10
-2.0824
 20
21.5383
 30
0.0
 10
-2.0193
 20
21.894
 30
0.0
 10
-2.0193
 20
22.427
 30
0.0
 10
-2.0193
 20
22.427
 30
0.0
 10
-2.0193
 20
22.9633
 30
0.0
 10
-2.0824
 20
23.3196
 30
0.0
 10
-2.2075
 20
23.4957
 30
0.0
 10
-2.2075
 20
23.4957
 30
0.0
 10
-2.3326
 20
23.6724
 30
0.0
 10
-2.4881
 20
23.7603
 30
0.0
 10
-2.6746
 20
23.7603
 30
0.0
 10
-2.6746
 20
23.7603
 30
0.0
 10
-2.8589
 20
23.7603
 30
0.0
 10
-3.0053
 20
23.6823
 30
0.0
 10
-3.1153
 20
23.5268
 30
0.0
 10
-3.1153
 20
23.5268
 30
0.0
 10
-3.2525
 20
23.3288
 30
0.0
 10
-3.3215
 20
22.9617
 30
0.0
 10
-3.3215
 20
22.427
 30
0.0
  0
SPLINE
  5
48
330
1F
100
AcDbEntity
  8
ROUND
 62
   250
100
AcDbSpline
210
0.0
220
0.0
230
1.0
 70
    24
 71
     3
 72
     8
 73
     4
 74
     0
 42
0.0000000001
 43
0.0000000001
 40
0.0
 40
0.0
 40
0.0
 40
0.0
 40
1.0
 40
1.0
 40
1.0
 40
1.0
 10
-32.2073
 20
20.0872
 30
0.0
 10
-32.2073
 20
20.0872
 30
0.0
 10
21.1193
 20
20.0872
 30
0.0
 10
21.1193
 20
20.0872
 30
0.0
  0
SPLINE
  5
49
330
1F
100
AcDbEntity
  8
ROUND
 62
   250
100
AcDbSpline
210
0.0
220
0.0
230
1.0
 70
    24
 71
     3
 72
     8
 73
     4
 74
     0
 42
0.0000000001
 43
0.0000000001
 40
0.0
 40
0.0
 40
0.0
 40
0.0
 40
1.0
 40
1.0
 40
1.0
 40
1.0
 10
-19.0195
 20
-24.0918
 30
0.0
 10
-19.0195
 20
-24.0918
 30
0.0
 10
-19.0195
 20
15.5022
 30
0.0
 10
-19.0195
 20
15.5022
 30
0.0
  0
SPLINE
  5
4A
330
1F
100
AcDbEntity
  8
ROUND
 62
   250
100
AcDbSpline
210
0.0
220
0.0
230
1.0
 70
    11
 71
     3
 72
    20
 73
    16
 74
     0
 42
0.0000000001
 43
0.0000000001
 40
0.0
 40
0.0
 40
0.0
 40
0.0
 40
0.2
 40
0.2
 40
0.2
 40
0.2
 40
0.4
 40
0.4
 40
0.4
 40
0.4
 40
0.6
 40
0.6
 40
0.6
 40
0.6
 40
1.0
 40
1.0
 40
1.0
 40
1.0
 10
16.7828
 20
20.8024
 30
0.0
 10
16.7828
 20
20.8024
 30
0.0
 10
21.6203
 20
20.1197
 30
0.0
 10
21.6203
 20
20.1197
 30
0.0
 10
21.6203
 20
20.1197
 30
0.0
 10
21.6203
 20
20.1197
 30
0.0
 10
21.6203
 20
19.968
 30
0.0
 10
21.6203
 20
19.968
 30
0.0
 10
21.6203
 20
19.968
 30
0.0
 10
21.6203
 20
19.968
 30
0.0
 10
16.7828
 20
19.24
 30
0.0
 10
16.7828
 20
19.24
 30
0.0
 10
16.7828
 20
19.24
 30
0.0
 10
16.7828
 20
19.24
 30
0.0
 10
16.7828
 20
20.8024
 30
0.0
 10
16.7828
 20
20.8024
 30
0.0
  0
SPLINE
  5
4B
330
1F
100
AcDbEntity
  8
ROUND
 62
   250
100
AcDbSpline
210
0.0
220
0.0
230
1.0
 70
    11
 71
     3
 72
    20
 73
    16
 74
     0
 42
0.0000000001
 43
0.0000000001
 40
0.0
 40
0.0
 40
0.0
 40
0.0
 40
0.2
 40
0.2
 40
0.2
 40
0.2
 40
0.4
 40
0.4
 40
0.4
 40
0.4
 40
0.6
 40
0.6
 40
0.6
 40
0.6
 40
1.0
 40
1.0
 40
1.0
 40
1.0
 10
-28.1318
 20
19.3345
 30
0.0
 10
-28.1318
 20
19.3345
 30
0.0
 10
-32.9698
 20
20.0173
 30
0.0
 10
-32.9698
 20
20.0173
 30
0.0
 10
-32.9698
 20
20.0173
 30
0.0
 10
-32.9698
 20
20.0173
 30
0.0
 10
-32.9698
 20
20.1689
 30
0.0
 10
-32.9698
 20
20.1689
 30
0.0
 10
-32.9698
 20
20.1689
 30
0.0
 10
-32.9698
 20
20.1689
 30
0.0
 10
-28.1318
 20
20.897
 30
0.0
 10
-28.1318
 20
20.897
 30
0.0
 10
-28.1318
 20
20.897
 30
0.0
 10
-28.1318
 20
20.897
 30
0.0
 10
-28.1318
 20
19.3345
 30
0.0
 10
-28.1318
 20
19.3345
 30
0.0
  0
SPLINE
  5
4C
330
1F
100
AcDbEntity
  8
ROUND
 62
   250
100
AcDbSpline
210
0.0
220
0.0
230
1.0
 70
    11
 71
     3
 72
    20
 73
    16
 74
     0
 42
0.0000000001
 43
0.0000000001
 40
0.0
 40
0.0
 40
0.0
 40
0.0
 40
0.2
 40
0.2
 40
0.2
 40
0.2
 40
0.4
 40
0.4
 40
0.4
 40
0.4
 40
0.6
 40
0.6
 40
0.6
 40
0.6
 40
1.0
 40
1.0
 40
1.0
 40
1.0
 10
-18.2467
 20
13.2551
 30
0.0
 10
-18.2467
 20
13.2551
 30
0.0
 10
-18.9292
 20
8.4175
 30
0.0
 10
-18.9292
 20
8.4175
 30
0.0
 10
-18.9292
 20
8.4175
 30
0.0
 10
-18.9292
 20
8.4175
 30
0.0
 10
-19.081
 20
8.4175
 30
0.0
 10
-19.081
 20
8.4175
 30
0.0
 10
-19.081
 20
8.4175
 30
0.0
 10
-19.081
 20
8.4175
 30
0.0
 10
-19.809
 20
13.2551
 30
0.0
 10
-19.809
 20
13.2551
 30
0.0
 10
-19.809
 20
13.2551
 30
0.0
 10
-19.809
 20
13.2551
 30
0.0
 10
-18.2467
 20
13.2551
 30
0.0
 10
-18.2467
 20
13.2551
 30
0.0
  0
SPLINE
  5
4D
330
1F
100
AcDbEntity
  8
ROUND
 62
   250
100
AcDbSpline
210
0.0
220
0.0
230
1.0
 70
    11
 71
     3
 72
    20
 73
    16
 74
     0
 42
0.0000000001
 43
0.0000000001
 40
0.0
 40
0.0
 40
0.0
 40
0.0
 40
0.2
 40
0.2
 40
0.2
 40
0.2
 40
0.4
 40
0.4
 40
0.4
 40
0.4
 40
0.6
 40
0.6
 40
0.6
 40
0.6
 40
1.0
 40
1.0
 40
1.0
 40
1.0
 10
-19.7393
 20
-21.9586
 30
0.0
 10
-19.7393
 20
-21.9586
 30
0.0
 10
-19.0563
 20
-17.1201
 30
0.0
 10
-19.0563
 20
-17.1201
 30
0.0
 10
-19.0563
 20
-17.1201
 30
0.0
 10
-19.0563
 20
-17.1201
 30
0.0
 10
-18.9047
 20
-17.1201
 30
0.0
 10
-18.9047
 20
-17.1201
 30
0.0
 10
-18.9047
 20
-17.1201
 30
0.0
 10
-18.9047
 20
-17.1201
 30
0.0
 10
-18.1764
 20
-21.9586
 30
0.0
 10
-18.1764
 20
-21.9586
 30
0.0
 10
-18.1764
 20
-21.9586
 30
0.0
 10
-18.1764
 20
-21.9586
 30
0.0
 10
-19.7393
 20
-21.9586
 30
0.0
 10
-19.7393
 20
-21.9586
 30
0.0
  0
SPLINE
  5
4E
330
1F
100
AcDbEntity
  8
ROUND
 62
   250
100
AcDbSpline
210
0.0
220
0.0
230
1.0
 70
    11
 71
     3
 72
    84
 73
    80
 74
     0
 42
0.0000000001
 43
0.0000000001
 40
0.0
 40
0.0
 40
0.0
 40
0.0
 40
0.0476190476190476
 40
0.0476190476190476
 40
0.0476190476190476
 40
0.0476190476190476
 40
0.0952380952380952
 40
0.0952380952380952
 40
0.0952380952380952
 40
0.0952380952380952
 40
0.1428571428571428
 40
0.1428571428571428
 40
0.1428571428571428
 40
0.1428571428571428
 40
0.1904761904761905
 40
0.1904761904761905
 40
0.1904761904761905
 40
0.1904761904761905
 40
0.2380952380952381
 40
0.2380952380952381
 40
0.2380952380952381
 40
0.2380952380952381
 40
0.2857142857142857
 40
0.2857142857142857
 40
0.2857142857142857
 40
0.2857142857142857
 40
0.3333333333333333
 40
0.3333333333333333
 40
0.3333333333333333
 40
0.3333333333333333
 40
0.3809523809523809
 40
0.3809523809523809
 40
0.3809523809523809
 40
0.3809523809523809
 40
0.4285714285714285
 40
0.4285714285714285
 40
0.4285714285714285
 40
0.4285714285714285
 40
0.4761904761904762
 40
0.4761904761904762
 40
0.4761904761904762
 40
0.4761904761904762
 40
0.5238095238095238
 40
0.5238095238095238
 40
0.5238095238095238
 40
0.5238095238095238
 40
0.5714285714285714
 40
0.5714285714285714
 40
0.5714285714285714
 40
0.5714285714285714
 40
0.6190476190476191
 40
0.6190476190476191
 40
0.6190476190476191
 40
0.6190476190476191
 40
0.6666666666666666
 40
0.6666666666666666
 40
0.6666666666666666
 40
0.6666666666666666
 40
0.7142857142857143
 40
0.7142857142857143
 40
0.7142857142857143
 40
0.7142857142857143
 40
0.7619047619047619
 40
0.7619047619047619
 40
0.7619047619047619
 40
0.7619047619047619
 40
0.8095238095238095
 40
0.8095238095238095
 40
0.8095238095238095
 40
0.8095238095238095
 40
0.8571428571428571
 40
0.8571428571428571
 40
0.8571428571428571
 40
0.8571428571428571
 40
0.9047619047619048
 40
0.9047619047619048
 40
0.9047619047619048
 40
0.9047619047619048
 40
1.0
 40
1.0
 40
1.0
 40
1.0
 10
-22.7278
 20
-4.9751
 30
0.0
 10
-22.7278
 20
-4.9751
 30
0.0
 10
-23.1456
 20
-4.6019
 30
0.0
 10
-23.1456
 20
-4.6019
 30
0.0
 10
-23.1456
 20
-4.6019
 30
0.0
 10
-23.1456
 20
-4.6019
 30
0.0
 10
-22.959
 20
-4.382
 30
0.0
 10
-22.959
 20
-4.382
 30
0.0
 10
-22.959
 20
-4.382
 30
0.0
 10
-22.959
 20
-4.382
 30
0.0
 10
-22.5192
 20
-4.7727
 30
0.0
 10
-22.5192
 20
-4.7727
 30
0.0
 10
-22.5192
 20
-4.7727
 30
0.0
 10
-22.3296
 20
-4.6452
 30
0.0
 10
-22.1635
 20
-4.5595
 30
0.0
 10
-22.0218
 20
-4.5147
 30
0.0
 10
-22.0218
 20
-4.5147
 30
0.0
 10
-21.8351
 20
-4.4555
 30
0.0
 10
-21.6258
 20
-4.426
 30
0.0
 10
-21.3952
 20
-4.426
 30
0.0
 10
-21.3952
 20
-4.426
 30
0.0
 10
-21.0616
 20
-4.426
 30
0.0
 10
-20.7643
 20
-4.4936
 30
0.0
 10
-20.504
 20
-4.6286
 30
0.0
 10
-20.504
 20
-4.6286
 30
0.0
 10
-20.2432
 20
-4.7635
 30
0.0
 10
-20.046
 20
-4.9523
 30
0.0
 10
-19.9126
 20
-5.1958
 30
0.0
 10
-19.9126
 20
-5.1958
 30
0.0
 10
-19.7798
 20
-5.4401
 30
0.0
 10
-19.7132
 20
-5.6987
 30
0.0
 10
-19.7132
 20
-5.9725
 30
0.0
 10
-19.7132
 20
-5.9725
 30
0.0
 10
-19.7132
 20
-6.1772
 30
0.0
 10
-19.7419
 20
-6.3622
 30
0.0
 10
-19.7996
 20
-6.5282
 30
0.0
 10
-19.7996
 20
-6.5282
 30
0.0
 10
-19.8443
 20
-6.6558
 30
0.0
 10
-19.9292
 20
-6.8043
 30
0.0
 10
-20.0552
 20
-6.975
 30
0.0
 10
-20.0552
 20
-6.975
 30
0.0
 10
-20.0552
 20
-6.975
 30
0.0
 10
-19.6372
 20
-7.3481
 30
0.0
 10
-19.6372
 20
-7.3481
 30
0.0
 10
-19.6372
 20
-7.3481
 30
0.0
 10
-19.6372
 20
-7.3481
 30
0.0
 10
-19.8238
 20
-7.5681
 30
0.0
 10
-19.8238
 20
-7.5681
 30
0.0
 10
-19.8238
 20
-7.5681
 30
0.0
 10
-19.8238
 20
-7.5681
 30
0.0
 10
-20.2614
 20
-7.1767
 30
0.0
 10
-20.2614
 20
-7.1767
 30
0.0
 10
-20.2614
 20
-7.1767
 30
0.0
 10
-20.4821
 20
-7.3223
 30
0.0
 10
-20.6709
 20
-7.4194
 30
0.0
 10
-20.8272
 20
-7.4679
 30
0.0
 10
-20.8272
 20
-7.4679
 30
0.0
 10
-20.9834
 20
-7.5165
 30
0.0
 10
-21.1716
 20
-7.5416
 30
0.0
 10
-21.3907
 20
-7.5416
 30
0.0
 10
-21.3907
 20
-7.5416
 30
0.0
 10
-21.7251
 20
-7.5416
 30
0.0
 10
-22.0232
 20
-7.4749
 30
0.0
 10
-22.2849
 20
-7.3414
 30
0.0
 10
-22.2849
 20
-7.3414
 30
0.0
 10
-22.5464
 20
-7.2079
 30
0.0
 10
-22.7444
 20
-7.0213
 30
0.0
 10
-22.8794
 20
-6.7801
 30
0.0
 10
-22.8794
 20
-6.7801
 30
0.0
 10
-23.0137
 20
-6.5397
 30
0.0
 10
-23.0811
 20
-6.2719
 30
0.0
 10
-23.0811
 20
-5.977
 30
0.0
 10
-23.0811
 20
-5.977
 30
0.0
 10
-23.0811
 20
-5.7783
 30
0.0
 10
-23.0553
 20
-5.6045
 30
0.0
 10
-23.0023
 20
-5.4559
 30
0.0
 10
-23.0023
 20
-5.4559
 30
0.0
 10
-22.95
 20
-5.3074
 30
0.0
 10
-22.8581
 20
-5.1464
 30
0.0
 10
-22.7278
 20
-4.9751
 30
0.0
  0
SPLINE
  5
4F
330
1F
100
AcDbEntity
  8
ROUND
 62
   250
100
AcDbSpline
210
0.0
220
0.0
230
1.0
 70
    11
 71
     3
 72
    32
 73
    28
 74
     0
 42
0.0000000001
 43
0.0000000001
 40
0.0
 40
0.0
 40
0.0
 40
0.0
 40
0.125
 40
0.125
 40
0.125
 40
0.125
 40
0.25
 40
0.25
 40
0.25
 40
0.25
 40
0.375
 40
0.375
 40
0.375
 40
0.375
 40
0.5
 40
0.5
 40
0.5
 40
0.5
 40
0.625
 40
0.625
 40
0.625
 40
0.625
 40
0.75
 40
0.75
 40
0.75
 40
0.75
 40
1.0
 40
1.0
 40
1.0
 40
1.0
 10
-22.4282
 20
-5.2413
 30
0.0
 10
-22.5374
 20
-5.3809
 30
0.0
 10
-22.6125
 20
-5.5029
 30
0.0
 10
-22.6527
 20
-5.6068
 30
0.0
 10
-22.6527
 20
-5.6068
 30
0.0
 10
-22.692
 20
-5.7116
 30
0.0
 10
-22.7125
 20
-5.8344
 30
0.0
 10
-22.7125
 20
-5.9747
 30
0.0
 10
-22.7125
 20
-5.9747
 30
0.0
 10
-22.7125
 20
-6.2993
 30
0.0
 10
-22.6025
 20
-6.5669
 30
0.0
 10
-22.3826
 20
-6.7793
 30
0.0
 10
-22.3826
 20
-6.7793
 30
0.0
 10
-22.1627
 20
-6.9908
 30
0.0
 10
-21.8344
 20
-7.0971
 30
0.0
 10
-21.3968
 20
-7.0971
 30
0.0
 10
-21.3968
 20
-7.0971
 30
0.0
 10
-21.2254
 20
-7.0971
 30
0.0
 10
-21.0729
 20
-7.0805
 30
0.0
 10
-20.9394
 20
-7.0478
 30
0.0
 10
-20.9394
 20
-7.0478
 30
0.0
 10
-20.8401
 20
-7.0244
 30
0.0
 10
-20.718
 20
-6.975
 30
0.0
 10
-20.5732
 20
-6.8991
 30
0.0
 10
-20.5732
 20
-6.8991
 30
0.0
 10
-20.5732
 20
-6.8991
 30
0.0
 10
-22.4282
 20
-5.2413
 30
0.0
 10
-22.4282
 20
-5.2413
 30
0.0
  0
SPLINE
  5
50
330
1F
100
AcDbEntity
  8
ROUND
 62
   250
100
AcDbSpline
210
0.0
220
0.0
230
1.0
 70
    11
 71
     3
 72
    28
 73
    24
 74
     0
 42
0.0000000001
 43
0.0000000001
 40
0.0
 40
0.0
 40
0.0
 40
0.0
 40
0.1428571428571428
 40
0.1428571428571428
 40
0.1428571428571428
 40
0.1428571428571428
 40
0.2857142857142857
 40
0.2857142857142857
 40
0.2857142857142857
 40
0.2857142857142857
 40
0.4285714285714285
 40
0.4285714285714285
 40
0.4285714285714285
 40
0.4285714285714285
 40
0.5714285714285714
 40
0.5714285714285714
 40
0.5714285714285714
 40
0.5714285714285714
 40
0.7142857142857143
 40
0.7142857142857143
 40
0.7142857142857143
 40
0.7142857142857143
 40
1.0
 40
1.0
 40
1.0
 40
1.0
 10
-22.1991
 20
-5.0592
 30
0.0
 10
-22.1991
 20
-5.0592
 30
0.0
 10
-20.3509
 20
-6.7103
 30
0.0
 10
-20.3509
 20
-6.7103
 30
0.0
 10
-20.3509
 20
-6.7103
 30
0.0
 10
-20.2577
 20
-6.5966
 30
0.0
 10
-20.1924
 20
-6.4912
 30
0.0
 10
-20.1553
 20
-6.3949
 30
0.0
 10
-20.1553
 20
-6.3949
 30
0.0
 10
-20.106
 20
-6.269
 30
0.0
 10
-20.0816
 20
-6.1324
 30
0.0
 10
-20.0816
 20
-5.986
 30
0.0
 10
-20.0816
 20
-5.986
 30
0.0
 10
-20.0816
 20
-5.6629
 30
0.0
 10
-20.1954
 20
-5.3967
 30
0.0
 10
-20.4238
 20
-5.1859
 30
0.0
 10
-20.4238
 20
-5.1859
 30
0.0
 10
-20.6521
 20
-4.9759
 30
0.0
 10
-20.9721
 20
-4.8704
 30
0.0
 10
-21.3839
 20
-4.8704
 30
0.0
 10
-21.3839
 20
-4.8704
 30
0.0
 10
-21.6917
 20
-4.8704
 30
0.0
 10
-21.964
 20
-4.9335
 30
0.0
 10
-22.1991
 20
-5.0592
 30
0.0
  0
SPLINE
  5
51
330
1F
100
AcDbEntity
  8
ROUND
 62
   250
100
AcDbSpline
210
0.0
220
0.0
230
1.0
 70
    11
 71
     3
 72
    92
 73
    88
 74
     0
 42
0.0000000001
 43
0.0000000001
 40
0.0
 40
0.0
 40
0.0
 40
0.0
 40
0.0434782608695652
 40
0.0434782608695652
 40
0.0434782608695652
 40
0.0434782608695652
 40
0.0869565217391304
 40
0.0869565217391304
 40
0.0869565217391304
 40
0.0869565217391304
 40
0.1304347826086956
 40
0.1304347826086956
 40
0.1304347826086956
 40
0.1304347826086956
 40
0.1739130434782609
 40
0.1739130434782609
 40
0.1739130434782609
 40
0.1739130434782609
 40
0.2173913043478261
 40
0.2173913043478261
 40
0.2173913043478261
 40
0.2173913043478261
 40
0.2608695652173913
 40
0.2608695652173913
 40
0.2608695652173913
 40
0.2608695652173913
 40
0.3043478260869565
 40
0.3043478260869565
 40
0.3043478260869565
 40
0.3043478260869565
 40
0.3478260869565217
 40
0.3478260869565217
 40
0.3478260869565217
 40
0.3478260869565217
 40
0.391304347826087
 40
0.391304347826087
 40
0.391304347826087
 40
0.391304347826087
 40
0.4347826086956522
 40
0.4347826086956522
 40
0.4347826086956522
 40
0.4347826086956522
 40
0.4782608695652174
 40
0.4782608695652174
 40
0.4782608695652174
 40
0.4782608695652174
 40
0.5217391304347826
 40
0.5217391304347826
 40
0.5217391304347826
 40
0.5217391304347826
 40
0.5652173913043478
 40
0.5652173913043478
 40
0.5652173913043478
 40
0.5652173913043478
 40
0.6086956521739131
 40
0.6086956521739131
 40
0.6086956521739131
 40
0.6086956521739131
 40
0.6521739130434783
 40
0.6521739130434783
 40
0.6521739130434783
 40
0.6521739130434783
 40
0.6956521739130435
 40
0.6956521739130435
 40
0.6956521739130435
 40
0.6956521739130435
 40
0.7391304347826086
 40
0.7391304347826086
 40
0.7391304347826086
 40
0.7391304347826086
 40
0.782608695652174
 40
0.782608695652174
 40
0.782608695652174
 40
0.782608695652174
 40
0.8260869565217391
 40
0.8260869565217391
 40
0.8260869565217391
 40
0.8260869565217391
 40
0.8695652173913043
 40
0.8695652173913043
 40
0.8695652173913043
 40
0.8695652173913043
 40
0.9130434782608695
 40
0.9130434782608695
 40
0.9130434782608695
 40
0.9130434782608695
 40
1.0
 40
1.0
 40
1.0
 40
1.0
 10
-20.5216
 20
-3.9641
 30
0.0
 10
-20.5216
 20
-3.9641
 30
0.0
 10
-20.5573
 20
-3.5797
 30
0.0
 10
-20.5573
 20
-3.5797
 30
0.0
 10
-20.5573
 20
-3.5797
 30
0.0
 10
-20.3767
 20
-3.547
 30
0.0
 10
-20.2456
 20
-3.4849
 30
0.0
 10
-20.1637
 20
-3.3932
 30
0.0
 10
-20.1637
 20
-3.3932
 30
0.0
 10
-20.0824
 20
-3.3012
 30
0.0
 10
-20.0415
 20
-3.1837
 30
0.0
 10
-20.0415
 20
-3.0397
 30
0.0
 10
-20.0415
 20
-3.0397
 30
0.0
 10
-20.0415
 20
-2.9169
 30
0.0
 10
-20.0695
 20
-2.8092
 30
0.0
 10
-20.1264
 20
-2.7166
 30
0.0
 10
-20.1264
 20
-2.7166
 30
0.0
 10
-20.1825
 20
-2.6241
 30
0.0
 10
-20.2577
 20
-2.5483
 30
0.0
 10
-20.3517
 20
-2.4891
 30
0.0
 10
-20.3517
 20
-2.4891
 30
0.0
 10
-20.4457
 20
-2.4291
 30
0.0
 10
-20.5732
 20
-2.3799
 30
0.0
 10
-20.7324
 20
-2.3396
 30
0.0
 10
-20.7324
 20
-2.3396
 30
0.0
 10
-20.8925
 20
-2.3003
 30
0.0
 10
-21.0555
 20
-2.2798
 30
0.0
 10
-21.2216
 20
-2.2798
 30
0.0
 10
-21.2216
 20
-2.2798
 30
0.0
 10
-21.239
 20
-2.2798
 30
0.0
 10
-21.2664
 20
-2.2805
 30
0.0
 10
-21.3012
 20
-2.2821
 30
0.0
 10
-21.3012
 20
-2.2821
 30
0.0
 10
-21.1745
 20
-2.3624
 30
0.0
 10
-21.0706
 20
-2.4717
 30
0.0
 10
-20.9918
 20
-2.6097
 30
0.0
 10
-20.9918
 20
-2.6097
 30
0.0
 10
-20.9121
 20
-2.7485
 30
0.0
 10
-20.8726
 20
-2.8986
 30
0.0
 10
-20.8726
 20
-3.0594
 30
0.0
 10
-20.8726
 20
-3.0594
 30
0.0
 10
-20.8726
 20
-3.3295
 30
0.0
 10
-20.9705
 20
-3.5576
 30
0.0
 10
-21.1662
 20
-3.7442
 30
0.0
 10
-21.1662
 20
-3.7442
 30
0.0
 10
-21.3618
 20
-3.9309
 30
0.0
 10
-21.619
 20
-4.0241
 30
0.0
 10
-21.9391
 20
-4.0241
 30
0.0
 10
-21.9391
 20
-4.0241
 30
0.0
 10
-22.2698
 20
-4.0241
 30
0.0
 10
-22.5351
 20
-3.927
 30
0.0
 10
-22.7369
 20
-3.7321
 30
0.0
 10
-22.7369
 20
-3.7321
 30
0.0
 10
-22.9386
 20
-3.5371
 30
0.0
 10
-23.0395
 20
-3.293
 30
0.0
 10
-23.0395
 20
-2.9994
 30
0.0
 10
-23.0395
 20
-2.9994
 30
0.0
 10
-23.0395
 20
-2.7879
 30
0.0
 10
-22.9818
 20
-2.5945
 30
0.0
 10
-22.8681
 20
-2.4185
 30
0.0
 10
-22.8681
 20
-2.4185
 30
0.0
 10
-22.7543
 20
-2.2434
 30
0.0
 10
-22.5913
 20
-2.1099
 30
0.0
 10
-22.3804
 20
-2.0189
 30
0.0
 10
-22.3804
 20
-2.0189
 30
0.0
 10
-22.1696
 20
-1.9278
 30
0.0
 10
-21.8639
 20
-1.8824
 30
0.0
 10
-21.4636
 20
-1.8824
 30
0.0
 10
-21.4636
 20
-1.8824
 30
0.0
 10
-21.0479
 20
-1.8824
 30
0.0
 10
-20.7166
 20
-1.9272
 30
0.0
 10
-20.4692
 20
-2.0173
 30
0.0
 10
-20.4692
 20
-2.0173
 30
0.0
 10
-20.2228
 20
-2.1084
 30
0.0
 10
-20.0355
 20
-2.2426
 30
0.0
 10
-19.9065
 20
-2.4209
 30
0.0
 10
-19.9065
 20
-2.4209
 30
0.0
 10
-19.7775
 20
-2.5999
 30
0.0
 10
-19.7132
 20
-2.8083
 30
0.0
 10
-19.7132
 20
-3.0488
 30
0.0
 10
-19.7132
 20
-3.0488
 30
0.0
 10
-19.7132
 20
-3.3037
 30
0.0
 10
-19.7836
 20
-3.5113
 30
0.0
 10
-19.9255
 20
-3.6729
 30
0.0
 10
-19.9255
 20
-3.6729
 30
0.0
 10
-20.0666
 20
-3.8345
 30
0.0
 10
-20.2653
 20
-3.9315
 30
0.0
 10
-20.5216
 20
-3.9641
 30
0.0
  0
SPLINE
  5
52
330
1F
100
AcDbEntity
  8
ROUND
 62
   250
100
AcDbSpline
210
0.0
220
0.0
230
1.0
 70
    11
 71
     3
 72
    36
 73
    32
 74
     0
 42
0.0000000001
 43
0.0000000001
 40
0.0
 40
0.0
 40
0.0
 40
0.0
 40
0.1111111111111111
 40
0.1111111111111111
 40
0.1111111111111111
 40
0.1111111111111111
 40
0.2222222222222222
 40
0.2222222222222222
 40
0.2222222222222222
 40
0.2222222222222222
 40
0.3333333333333333
 40
0.3333333333333333
 40
0.3333333333333333
 40
0.3333333333333333
 40
0.4444444444444444
 40
0.4444444444444444
 40
0.4444444444444444
 40
0.4444444444444444
 40
0.5555555555555556
 40
0.5555555555555556
 40
0.5555555555555556
 40
0.5555555555555556
 40
0.6666666666666666
 40
0.6666666666666666
 40
0.6666666666666666
 40
0.6666666666666666
 40
0.7777777777777778
 40
0.7777777777777778
 40
0.7777777777777778
 40
0.7777777777777778
 40
1.0
 40
1.0
 40
1.0
 40
1.0
 10
-21.9595
 20
-2.3267
 30
0.0
 10
-22.1885
 20
-2.3267
 30
0.0
 10
-22.3713
 20
-2.3875
 30
0.0
 10
-22.5055
 20
-2.5096
 30
0.0
 10
-22.5055
 20
-2.5096
 30
0.0
 10
-22.6406
 20
-2.6324
 30
0.0
 10
-22.708
 20
-2.7788
 30
0.0
 10
-22.708
 20
-2.9509
 30
0.0
 10
-22.708
 20
-2.9509
 30
0.0
 10
-22.708
 20
-3.1284
 30
0.0
 10
-22.6353
 20
-3.283
 30
0.0
 10
-22.4903
 20
-3.4151
 30
0.0
 10
-22.4903
 20
-3.4151
 30
0.0
 10
-22.3447
 20
-3.547
 30
0.0
 10
-22.1567
 20
-3.6131
 30
0.0
 10
-21.9262
 20
-3.6131
 30
0.0
 10
-21.9262
 20
-3.6131
 30
0.0
 10
-21.7183
 20
-3.6131
 30
0.0
 10
-21.55
 20
-3.55
 30
0.0
 10
-21.4202
 20
-3.4249
 30
0.0
 10
-21.4202
 20
-3.4249
 30
0.0
 10
-21.2906
 20
-3.2998
 30
0.0
 10
-21.2261
 20
-3.1458
 30
0.0
 10
-21.2261
 20
-2.9623
 30
0.0
 10
-21.2261
 20
-2.9623
 30
0.0
 10
-21.2261
 20
-2.7764
 30
0.0
 10
-21.2906
 20
-2.6249
 30
0.0
 10
-21.4202
 20
-2.5057
 30
0.0
 10
-21.4202
 20
-2.5057
 30
0.0
 10
-21.55
 20
-2.3859
 30
0.0
 10
-21.7296
 20
-2.3267
 30
0.0
 10
-21.9595
 20
-2.3267
 30
0.0
  0
SPLINE
  5
53
330
1F
100
AcDbEntity
  8
ROUND
 62
   250
100
AcDbSpline
210
0.0
220
0.0
230
1.0
 70
    11
 71
     3
 72
    52
 73
    48
 74
     0
 42
0.0000000001
 43
0.0000000001
 40
0.0
 40
0.0
 40
0.0
 40
0.0
 40
0.0769230769230769
 40
0.0769230769230769
 40
0.0769230769230769
 40
0.0769230769230769
 40
0.1538461538461539
 40
0.1538461538461539
 40
0.1538461538461539
 40
0.1538461538461539
 40
0.2307692307692308
 40
0.2307692307692308
 40
0.2307692307692308
 40
0.2307692307692308
 40
0.3076923076923077
 40
0.3076923076923077
 40
0.3076923076923077
 40
0.3076923076923077
 40
0.3846153846153846
 40
0.3846153846153846
 40
0.3846153846153846
 40
0.3846153846153846
 40
0.4615384615384616
 40
0.4615384615384616
 40
0.4615384615384616
 40
0.4615384615384616
 40
0.5384615384615384
 40
0.5384615384615384
 40
0.5384615384615384
 40
0.5384615384615384
 40
0.6153846153846154
 40
0.6153846153846154
 40
0.6153846153846154
 40
0.6153846153846154
 40
0.6923076923076923
 40
0.6923076923076923
 40
0.6923076923076923
 40
0.6923076923076923
 40
0.7692307692307693
 40
0.7692307692307693
 40
0.7692307692307693
 40
0.7692307692307693
 40
0.8461538461538461
 40
0.8461538461538461
 40
0.8461538461538461
 40
0.8461538461538461
 40
1.0
 40
1.0
 40
1.0
 40
1.0
 10
-21.3747
 20
-1.4933
 30
0.0
 10
-21.7601
 20
-1.4933
 30
0.0
 10
-22.0703
 20
-1.4538
 30
0.0
 10
-22.3046
 20
-1.3741
 30
0.0
 10
-22.3046
 20
-1.3741
 30
0.0
 10
-22.5397
 20
-1.2953
 30
0.0
 10
-22.7209
 20
-1.1771
 30
0.0
 10
-22.8483
 20
-1.0209
 30
0.0
 10
-22.8483
 20
-1.0209
 30
0.0
 10
-22.9758
 20
-0.8646
 30
0.0
 10
-23.0395
 20
-0.6681
 30
0.0
 10
-23.0395
 20
-0.4316
 30
0.0
 10
-23.0395
 20
-0.4316
 30
0.0
 10
-23.0395
 20
-0.2563
 30
0.0
 10
-23.0039
 20
-0.1031
 30
0.0
 10
-22.9332
 20
0.0288
 30
0.0
 10
-22.9332
 20
0.0288
 30
0.0
 10
-22.8634
 20
0.1608
 30
0.0
 10
-22.7618
 20
0.2692
 30
0.0
 10
-22.6292
 20
0.3556
 30
0.0
 10
-22.6292
 20
0.3556
 30
0.0
 10
-22.4965
 20
0.4414
 30
0.0
 10
-22.3349
 20
0.5089
 30
0.0
 10
-22.1445
 20
0.5575
 30
0.0
 10
-22.1445
 20
0.5575
 30
0.0
 10
-21.9542
 20
0.6067
 30
0.0
 10
-21.6978
 20
0.631
 30
0.0
 10
-21.3747
 20
0.631
 30
0.0
 10
-21.3747
 20
0.631
 30
0.0
 10
-20.9926
 20
0.631
 30
0.0
 10
-20.6846
 20
0.5915
 30
0.0
 10
-20.4495
 20
0.5135
 30
0.0
 10
-20.4495
 20
0.5135
 30
0.0
 10
-20.2145
 20
0.4346
 30
0.0
 10
-20.0331
 20
0.3171
 30
0.0
 10
-19.9051
 20
0.1608
 30
0.0
 10
-19.9051
 20
0.1608
 30
0.0
 10
-19.7769
 20
0.0046
 30
0.0
 10
-19.7132
 20
-0.1926
 30
0.0
 10
-19.7132
 20
-0.4316
 30
0.0
 10
-19.7132
 20
-0.4316
 30
0.0
 10
-19.7132
 20
-0.7455
 30
0.0
 10
-19.8254
 20
-0.992
 30
0.0
 10
-20.0506
 20
-1.171
 30
0.0
 10
-20.0506
 20
-1.171
 30
0.0
 10
-20.3214
 20
-1.3856
 30
0.0
 10
-20.7635
 20
-1.4933
 30
0.0
 10
-21.3747
 20
-1.4933
 30
0.0
  0
SPLINE
  5
54
330
1F
100
AcDbEntity
  8
ROUND
 62
   250
100
AcDbSpline
210
0.0
220
0.0
230
1.0
 70
    11
 71
     3
 72
    36
 73
    32
 74
     0
 42
0.0000000001
 43
0.0000000001
 40
0.0
 40
0.0
 40
0.0
 40
0.0
 40
0.1111111111111111
 40
0.1111111111111111
 40
0.1111111111111111
 40
0.1111111111111111
 40
0.2222222222222222
 40
0.2222222222222222
 40
0.2222222222222222
 40
0.2222222222222222
 40
0.3333333333333333
 40
0.3333333333333333
 40
0.3333333333333333
 40
0.3333333333333333
 40
0.4444444444444444
 40
0.4444444444444444
 40
0.4444444444444444
 40
0.4444444444444444
 40
0.5555555555555556
 40
0.5555555555555556
 40
0.5555555555555556
 40
0.5555555555555556
 40
0.6666666666666666
 40
0.6666666666666666
 40
0.6666666666666666
 40
0.6666666666666666
 40
0.7777777777777778
 40
0.7777777777777778
 40
0.7777777777777778
 40
0.7777777777777778
 40
1.0
 40
1.0
 40
1.0
 40
1.0
 10
-21.3747
 20
-1.0823
 30
0.0
 10
-20.8401
 20
-1.0823
 30
0.0
 10
-20.4844
 20
-1.0193
 30
0.0
 10
-20.307
 20
-0.8941
 30
0.0
 10
-20.307
 20
-0.8941
 30
0.0
 10
-20.1303
 20
-0.769
 30
0.0
 10
-20.0415
 20
-0.615
 30
0.0
 10
-20.0415
 20
-0.4316
 30
0.0
 10
-20.0415
 20
-0.4316
 30
0.0
 10
-20.0415
 20
-0.2473
 30
0.0
 10
-20.1309
 20
-0.0933
 30
0.0
 10
-20.3085
 20
0.0318
 30
0.0
 10
-20.3085
 20
0.0318
 30
0.0
 10
-20.486
 20
0.157
 30
0.0
 10
-20.8417
 20
0.22
 30
0.0
 10
-21.3747
 20
0.22
 30
0.0
 10
-21.3747
 20
0.22
 30
0.0
 10
-21.911
 20
0.22
 30
0.0
 10
-22.2673
 20
0.157
 30
0.0
 10
-22.4434
 20
0.0318
 30
0.0
 10
-22.4434
 20
0.0318
 30
0.0
 10
-22.6201
 20
-0.0933
 30
0.0
 10
-22.708
 20
-0.2487
 30
0.0
 10
-22.708
 20
-0.4354
 30
0.0
 10
-22.708
 20
-0.4354
 30
0.0
 10
-22.708
 20
-0.6196
 30
0.0
 10
-22.63
 20
-0.766
 30
0.0
 10
-22.4745
 20
-0.8759
 30
0.0
 10
-22.4745
 20
-0.8759
 30
0.0
 10
-22.2765
 20
-1.0133
 30
0.0
 10
-21.9094
 20
-1.0823
 30
0.0
 10
-21.3747
 20
-1.0823
 30
0.0
  0
SPLINE
  5
55
330
1F
100
AcDbEntity
  8
ROUND
 62
   250
100
AcDbSpline
210
0.0
220
0.0
230
1.0
 70
    24
 71
     3
 72
     8
 73
     4
 74
     0
 42
0.0000000001
 43
0.0000000001
 40
0.0
 40
0.0
 40
0.0
 40
0.0
 40
1.0
 40
1.0
 40
1.0
 40
1.0
 10
20.7707
 20
-22.4588
 30
0.0
 10
20.7707
 20
-22.4588
 30
0.0
 10
21.7296
 20
-22.4588
 30
0.0
 10
21.7296
 20
-22.4588
 30
0.0
  0
SPLINE
  5
56
330
1F
100
AcDbEntity
  8
ROUND
 62
   250
100
AcDbSpline
210
0.0
220
0.0
230
1.0
 70
    24
 71
     3
 72
     8
 73
     4
 74
     0
 42
0.0000000001
 43
0.0000000001
 40
0.0
 40
0.0
 40
0.0
 40
0.0
 40
1.0
 40
1.0
 40
1.0
 40
1.0
 10
7.5735
 20
-4.2122
 30
0.0
 10
7.5735
 20
-4.2122
 30
0.0
 10
13.2098
 20
-4.1139
 30
0.0
 10
13.2098
 20
-4.1139
 30
0.0
  0
SPLINE
  5
57
330
1F
100
AcDbEntity
  8
ROUND
 62
   250
100
AcDbSpline
210
0.0
220
0.0
230
1.0
 70
    24
 71
     3
 72
     8
 73
     4
 74
     0
 42
0.0000000001
 43
0.0000000001
 40
0.0
 40
0.0
 40
0.0
 40
0.0
 40
1.0
 40
1.0
 40
1.0
 40
1.0
 10
10.7809
 20
-10.4865
 30
0.0
 10
10.7809
 20
-10.4865
 30
0.0
 10
7.5735
 20
-10.524
 30
0.0
 10
7.5735
 20
-10.524
 30
0.0
  0
SPLINE
  5
58
330
1F
100
AcDbEntity
  8
ROUND
 62
   250
100
AcDbSpline
210
0.0
220
0.0
230
1.0
 70
    24
 71
     3
 72
     8
 73
     4
 74
     0
 42
0.0000000001
 43
0.0000000001
 40
0.0
 40
0.0
 40
0.0
 40
0.0
 40
1.0
 40
1.0
 40
1.0
 40
1.0
 10
10.7809
 20
-15.1735
 30
0.0
 10
10.7809
 20
-15.1735
 30
0.0
 10
7.5735
 20
-15.1826
 30
0.0
 10
7.5735
 20
-15.1826
 30
0.0
  0
SPLINE
  5
59
330
1F
100
AcDbEntity
  8
ROUND
 62
   250
100
AcDbSpline
210
0.0
220
0.0
230
1.0
 70
    24
 71
     3
 72
     8
 73
     4
 74
     0
 42
0.0000000001
 43
0.0000000001
 40
0.0
 40
0.0
 40
0.0
 40
0.0
 40
1.0
 40
1.0
 40
1.0
 40
1.0
 10
7.5735
 20
6.475
 30
0.0
 10
7.5735
 20
6.475
 30
0.0
 10
10.7809
 20
6.4658
 30
0.0
 10
10.7809
 20
6.4658
 30
0.0
  0
SPLINE
  5
5A
330
1F
100
AcDbEntity
  8
ROUND
 62
   250
100
AcDbSpline
210
0.0
220
0.0
230
1.0
 70
    24
 71
     3
 72
     8
 73
     4
 74
     0
 42
0.0000000001
 43
0.0000000001
 40
0.0
 40
0.0
 40
0.0
 40
0.0
 40
1.0
 40
1.0
 40
1.0
 40
1.0
 10
7.5735
 20
1.8164
 30
0.0
 10
7.5735
 20
1.8164
 30
0.0
 10
10.7809
 20
1.7788
 30
0.0
 10
10.7809
 20
1.7788
 30
0.0
  0
SPLINE
  5
5B
330
1F
100
AcDbEntity
  8
ROUND
 62
   250
100
AcDbSpline
210
0.0
220
0.0
230
1.0
 70
    24
 71
     3
 72
     8
 73
     4
 74
     0
 42
0.0000000001
 43
0.0000000001
 40
0.0
 40
0.0
 40
0.0
 40
0.0
 40
1.0
 40
1.0
 40
1.0
 40
1.0
 10
7.5735
 20
-4.4954
 30
0.0
 10
7.5735
 20
-4.4954
 30
0.0
 10
13.2098
 20
-4.5937
 30
0.0
 10
13.2098
 20
-4.5937
 30
0.0
  0
SPLINE
  5
5C
330
1F
100
AcDbEntity
  8
ROUND
 62
   250
100
AcDbSpline
210
0.0
220
0.0
230
1.0
 70
    24
 71
     3
 72
     8
 73
     4
 74
     0
 42
0.0000000001
 43
0.0000000001
 40
0.0
 40
0.0
 40
0.0
 40
0.0
 40
1.0
 40
1.0
 40
1.0
 40
1.0
 10
7.5735
 20
-10.524
 30
0.0
 10
7.5735
 20
-10.524
 30
0.0
 10
13.2098
 20
-12.1322
 30
0.0
 10
13.2098
 20
-12.1322
 30
0.0
  0
SPLINE
  5
5D
330
1F
100
AcDbEntity
  8
ROUND
 62
   250
100
AcDbSpline
210
0.0
220
0.0
230
1.0
 70
    24
 71
     3
 72
     8
 73
     4
 74
     0
 42
0.0000000001
 43
0.0000000001
 40
0.0
 40
0.0
 40
0.0
 40
0.0
 40
1.0
 40
1.0
 40
1.0
 40
1.0
 10
7.5735
 20
-10.7693
 30
0.0
 10
7.5735
 20
-10.7693
 30
0.0
 10
13.2098
 20
-12.5479
 30
0.0
 10
13.2098
 20
-12.5479
 30
0.0
  0
SPLINE
  5
5E
330
1F
100
AcDbEntity
  8
ROUND
 62
   250
100
AcDbSpline
210
0.0
220
0.0
230
1.0
 70
    24
 71
     3
 72
     8
 73
     4
 74
     0
 42
0.0000000001
 43
0.0000000001
 40
0.0
 40
0.0
 40
0.0
 40
0.0
 40
1.0
 40
1.0
 40
1.0
 40
1.0
 10
20.7707
 20
13.7512
 30
0.0
 10
20.7707
 20
13.7512
 30
0.0
 10
21.7296
 20
13.7512
 30
0.0
 10
21.7296
 20
13.7512
 30
0.0
  0
SPLINE
  5
5F
330
1F
100
AcDbEntity
  8
ROUND
 62
   250
100
AcDbSpline
210
0.0
220
0.0
230
1.0
 70
    24
 71
     3
 72
     8
 73
     4
 74
     0
 42
0.0000000001
 43
0.0000000001
 40
0.0
 40
0.0
 40
0.0
 40
0.0
 40
1.0
 40
1.0
 40
1.0
 40
1.0
 10
7.5735
 20
-15.1826
 30
0.0
 10
7.5735
 20
-15.1826
 30
0.0
 10
13.2098
 20
-18.0664
 30
0.0
 10
13.2098
 20
-18.0664
 30
0.0
  0
SPLINE
  5
60
330
1F
100
AcDbEntity
  8
ROUND
 62
   250
100
AcDbSpline
210
0.0
220
0.0
230
1.0
 70
    24
 71
     3
 72
     8
 73
     4
 74
     0
 42
0.0000000001
 43
0.0000000001
 40
0.0
 40
0.0
 40
0.0
 40
0.0
 40
1.0
 40
1.0
 40
1.0
 40
1.0
 10
7.5735
 20
-15.3242
 30
0.0
 10
7.5735
 20
-15.3242
 30
0.0
 10
13.2098
 20
-18.3063
 30
0.0
 10
13.2098
 20
-18.3063
 30
0.0
  0
SPLINE
  5
61
330
1F
100
AcDbEntity
  8
ROUND
 62
   250
100
AcDbSpline
210
0.0
220
0.0
230
1.0
 70
    24
 71
     3
 72
     8
 73
     4
 74
     0
 42
0.0000000001
 43
0.0000000001
 40
0.0
 40
0.0
 40
0.0
 40
0.0
 40
1.0
 40
1.0
 40
1.0
 40
1.0
 10
7.5735
 20
-16.9396
 30
0.0
 10
7.5735
 20
-16.9396
 30
0.0
 10
13.2098
 20
-20.3263
 30
0.0
 10
13.2098
 20
-20.3263
 30
0.0
  0
SPLINE
  5
62
330
1F
100
AcDbEntity
  8
ROUND
 62
   250
100
AcDbSpline
210
0.0
220
0.0
230
1.0
 70
    24
 71
     3
 72
     8
 73
     4
 74
     0
 42
0.0000000001
 43
0.0000000001
 40
0.0
 40
0.0
 40
0.0
 40
0.0
 40
1.0
 40
1.0
 40
1.0
 40
1.0
 10
10.7809
 20
-4.5513
 30
0.0
 10
10.7809
 20
-4.5513
 30
0.0
 10
10.7809
 20
-10.4865
 30
0.0
 10
10.7809
 20
-10.4865
 30
0.0
  0
SPLINE
  5
63
330
1F
100
AcDbEntity
  8
ROUND
 62
   250
100
AcDbSpline
210
0.0
220
0.0
230
1.0
 70
    24
 71
     3
 72
     8
 73
     4
 74
     0
 42
0.0000000001
 43
0.0000000001
 40
0.0
 40
0.0
 40
0.0
 40
0.0
 40
1.0
 40
1.0
 40
1.0
 40
1.0
 10
10.7809
 20
-11.7814
 30
0.0
 10
10.7809
 20
-11.7814
 30
0.0
 10
10.7809
 20
-15.1735
 30
0.0
 10
10.7809
 20
-15.1735
 30
0.0
  0
SPLINE
  5
64
330
1F
100
AcDbEntity
  8
ROUND
 62
   250
100
AcDbSpline
210
0.0
220
0.0
230
1.0
 70
    24
 71
     3
 72
     8
 73
     4
 74
     0
 42
0.0000000001
 43
0.0000000001
 40
0.0
 40
0.0
 40
0.0
 40
0.0
 40
1.0
 40
1.0
 40
1.0
 40
1.0
 10
10.7809
 20
-4.1563
 30
0.0
 10
10.7809
 20
-4.1563
 30
0.0
 10
10.7809
 20
1.7788
 30
0.0
 10
10.7809
 20
1.7788
 30
0.0
  0
SPLINE
  5
65
330
1F
100
AcDbEntity
  8
ROUND
 62
   250
100
AcDbSpline
210
0.0
220
0.0
230
1.0
 70
    24
 71
     3
 72
     8
 73
     4
 74
     0
 42
0.0000000001
 43
0.0000000001
 40
0.0
 40
0.0
 40
0.0
 40
0.0
 40
1.0
 40
1.0
 40
1.0
 40
1.0
 10
10.7809
 20
3.0737
 30
0.0
 10
10.7809
 20
3.0737
 30
0.0
 10
10.7809
 20
6.4658
 30
0.0
 10
10.7809
 20
6.4658
 30
0.0
  0
SPLINE
  5
66
330
1F
100
AcDbEntity
  8
ROUND
 62
   250
100
AcDbSpline
210
0.0
220
0.0
230
1.0
 70
    24
 71
     3
 72
     8
 73
     4
 74
     0
 42
0.0000000001
 43
0.0000000001
 40
0.0
 40
0.0
 40
0.0
 40
0.0
 40
1.0
 40
1.0
 40
1.0
 40
1.0
 10
13.2105
 20
-4.5937
 30
0.0
 10
13.2105
 20
-4.5937
 30
0.0
 10
13.2105
 20
-12.1316
 30
0.0
 10
13.2105
 20
-12.1316
 30
0.0
  0
SPLINE
  5
67
330
1F
100
AcDbEntity
  8
ROUND
 62
   250
100
AcDbSpline
210
0.0
220
0.0
230
1.0
 70
    24
 71
     3
 72
     8
 73
     4
 74
     0
 42
0.0000000001
 43
0.0000000001
 40
0.0
 40
0.0
 40
0.0
 40
0.0
 40
1.0
 40
1.0
 40
1.0
 40
1.0
 10
13.2105
 20
-12.5472
 30
0.0
 10
13.2105
 20
-12.5472
 30
0.0
 10
13.2105
 20
-18.0652
 30
0.0
 10
13.2105
 20
-18.0652
 30
0.0
  0
SPLINE
  5
68
330
1F
100
AcDbEntity
  8
ROUND
 62
   250
100
AcDbSpline
210
0.0
220
0.0
230
1.0
 70
    24
 71
     3
 72
     8
 73
     4
 74
     0
 42
0.0000000001
 43
0.0000000001
 40
0.0
 40
0.0
 40
0.0
 40
0.0
 40
1.0
 40
1.0
 40
1.0
 40
1.0
 10
13.2105
 20
-18.3052
 30
0.0
 10
13.2105
 20
-18.3052
 30
0.0
 10
13.2105
 20
-20.325
 30
0.0
 10
13.2105
 20
-20.325
 30
0.0
  0
SPLINE
  5
69
330
1F
100
AcDbEntity
  8
ROUND
 62
   250
100
AcDbSpline
210
0.0
220
0.0
230
1.0
 70
    24
 71
     3
 72
     8
 73
     4
 74
     0
 42
0.0000000001
 43
0.0000000001
 40
0.0
 40
0.0
 40
0.0
 40
0.0
 40
1.0
 40
1.0
 40
1.0
 40
1.0
 10
13.2105
 20
-4.1139
 30
0.0
 10
13.2105
 20
-4.1139
 30
0.0
 10
13.2105
 20
3.4239
 30
0.0
 10
13.2105
 20
3.4239
 30
0.0
  0
SPLINE
  5
6A
330
1F
100
AcDbEntity
  8
ROUND
 62
   250
100
AcDbSpline
210
0.0
220
0.0
230
1.0
 70
    24
 71
     3
 72
     8
 73
     4
 74
     0
 42
0.0000000001
 43
0.0000000001
 40
0.0
 40
0.0
 40
0.0
 40
0.0
 40
1.0
 40
1.0
 40
1.0
 40
1.0
 10
13.2105
 20
3.8396
 30
0.0
 10
13.2105
 20
3.8396
 30
0.0
 10
13.2105
 20
9.3576
 30
0.0
 10
13.2105
 20
9.3576
 30
0.0
  0
SPLINE
  5
6B
330
1F
100
AcDbEntity
  8
ROUND
 62
   250
100
AcDbSpline
210
0.0
220
0.0
230
1.0
 70
    24
 71
     3
 72
     8
 73
     4
 74
     0
 42
0.0000000001
 43
0.0000000001
 40
0.0
 40
0.0
 40
0.0
 40
0.0
 40
1.0
 40
1.0
 40
1.0
 40
1.0
 10
13.2105
 20
9.5976
 30
0.0
 10
13.2105
 20
9.5976
 30
0.0
 10
13.2105
 20
11.6174
 30
0.0
 10
13.2105
 20
11.6174
 30
0.0
  0
SPLINE
  5
6C
330
1F
100
AcDbEntity
  8
ROUND
 62
   250
100
AcDbSpline
210
0.0
220
0.0
230
1.0
 70
    24
 71
     3
 72
     8
 73
     4
 74
     0
 42
0.0000000001
 43
0.0000000001
 40
0.0
 40
0.0
 40
0.0
 40
0.0
 40
1.0
 40
1.0
 40
1.0
 40
1.0
 10
20.7707
 20
-22.4588
 30
0.0
 10
20.7707
 20
-22.4588
 30
0.0
 10
20.7707
 20
13.7512
 30
0.0
 10
20.7707
 20
13.7512
 30
0.0
  0
SPLINE
  5
6D
330
1F
100
AcDbEntity
  8
ROUND
 62
   250
100
AcDbSpline
210
0.0
220
0.0
230
1.0
 70
    24
 71
     3
 72
     8
 73
     4
 74
     0
 42
0.0000000001
 43
0.0000000001
 40
0.0
 40
0.0
 40
0.0
 40
0.0
 40
1.0
 40
1.0
 40
1.0
 40
1.0
 10
21.7296
 20
-22.4588
 30
0.0
 10
21.7296
 20
-22.4588
 30
0.0
 10
21.7296
 20
13.7512
 30
0.0
 10
21.7296
 20
13.7512
 30
0.0
  0
SPLINE
  5
6E
330
1F
100
AcDbEntity
  8
ROUND
 62
   250
100
AcDbSpline
210
0.0
220
0.0
230
1.0
 70
    24
 71
     3
 72
     8
 73
     4
 74
     0
 42
0.0000000001
 43
0.0000000001
 40
0.0
 40
0.0
 40
0.0
 40
0.0
 40
1.0
 40
1.0
 40
1.0
 40
1.0
 10
7.5735
 20
8.232
 30
0.0
 10
7.5735
 20
8.232
 30
0.0
 10
13.2098
 20
11.6187
 30
0.0
 10
13.2098
 20
11.6187
 30
0.0
  0
SPLINE
  5
6F
330
1F
100
AcDbEntity
  8
ROUND
 62
   250
100
AcDbSpline
210
0.0
220
0.0
230
1.0
 70
    24
 71
     3
 72
     8
 73
     4
 74
     0
 42
0.0000000001
 43
0.0000000001
 40
0.0
 40
0.0
 40
0.0
 40
0.0
 40
1.0
 40
1.0
 40
1.0
 40
1.0
 10
7.5735
 20
6.6166
 30
0.0
 10
7.5735
 20
6.6166
 30
0.0
 10
13.2098
 20
9.5987
 30
0.0
 10
13.2098
 20
9.5987
 30
0.0
  0
SPLINE
  5
70
330
1F
100
AcDbEntity
  8
ROUND
 62
   250
100
AcDbSpline
210
0.0
220
0.0
230
1.0
 70
    24
 71
     3
 72
     8
 73
     4
 74
     0
 42
0.0000000001
 43
0.0000000001
 40
0.0
 40
0.0
 40
0.0
 40
0.0
 40
1.0
 40
1.0
 40
1.0
 40
1.0
 10
7.5735
 20
6.475
 30
0.0
 10
7.5735
 20
6.475
 30
0.0
 10
13.2098
 20
9.3588
 30
0.0
 10
13.2098
 20
9.3588
 30
0.0
  0
SPLINE
  5
71
330
1F
100
AcDbEntity
  8
ROUND
 62
   250
100
AcDbSpline
210
0.0
220
0.0
230
1.0
 70
    24
 71
     3
 72
     8
 73
     4
 74
     0
 42
0.0000000001
 43
0.0000000001
 40
0.0
 40
0.0
 40
0.0
 40
0.0
 40
1.0
 40
1.0
 40
1.0
 40
1.0
 10
7.5735
 20
2.0617
 30
0.0
 10
7.5735
 20
2.0617
 30
0.0
 10
13.2098
 20
3.8403
 30
0.0
 10
13.2098
 20
3.8403
 30
0.0
  0
SPLINE
  5
72
330
1F
100
AcDbEntity
  8
ROUND
 62
   250
100
AcDbSpline
210
0.0
220
0.0
230
1.0
 70
    24
 71
     3
 72
     8
 73
     4
 74
     0
 42
0.0000000001
 43
0.0000000001
 40
0.0
 40
0.0
 40
0.0
 40
0.0
 40
1.0
 40
1.0
 40
1.0
 40
1.0
 10
7.5735
 20
1.8164
 30
0.0
 10
7.5735
 20
1.8164
 30
0.0
 10
13.2098
 20
3.4246
 30
0.0
 10
13.2098
 20
3.4246
 30
0.0
  0
SPLINE
  5
73
330
1F
100
AcDbEntity
  8
ROUND
 62
   250
100
AcDbSpline
210
0.0
220
0.0
230
1.0
 70
     8
 71
     3
 72
     8
 73
     4
 74
     0
 42
0.0000000001
 43
0.0000000001
 40
0.0
 40
0.0
 40
0.0
 40
0.0
 40
1.0
 40
1.0
 40
1.0
 40
1.0
 10
13.2105
 20
-4.3538
 30
0.0
 10
13.2106
 20
-4.2738
 30
0.0
 10
13.2105
 20
-4.1939
 30
0.0
 10
13.2098
 20
-4.1139
 30
0.0
  0
SPLINE
  5
74
330
1F
100
AcDbEntity
  8
ROUND
 62
   250
100
AcDbSpline
210
0.0
220
0.0
230
1.0
 70
     8
 71
     3
 72
     8
 73
     4
 74
     0
 42
0.0000000001
 43
0.0000000001
 40
0.0
 40
0.0
 40
0.0
 40
0.0
 40
1.0
 40
1.0
 40
1.0
 40
1.0
 10
13.2098
 20
-4.5937
 30
0.0
 10
13.2105
 20
-4.5138
 30
0.0
 10
13.2106
 20
-4.4338
 30
0.0
 10
13.2105
 20
-4.3538
 30
0.0
  0
SPLINE
  5
75
330
1F
100
AcDbEntity
  8
ROUND
 62
   250
100
AcDbSpline
210
0.0
220
0.0
230
1.0
 70
     8
 71
     3
 72
     8
 73
     4
 74
     0
 42
0.0000000001
 43
0.0000000001
 40
0.0
 40
0.0
 40
0.0
 40
0.0
 40
1.0
 40
1.0
 40
1.0
 40
1.0
 10
13.2098
 20
-12.5479
 30
0.0
 10
13.2114
 20
-12.4094
 30
0.0
 10
13.2114
 20
-12.2707
 30
0.0
 10
13.2098
 20
-12.1322
 30
0.0
  0
SPLINE
  5
76
330
1F
100
AcDbEntity
  8
ROUND
 62
   250
100
AcDbSpline
210
0.0
220
0.0
230
1.0
 70
     8
 71
     3
 72
     8
 73
     4
 74
     0
 42
0.0000000001
 43
0.0000000001
 40
0.0
 40
0.0
 40
0.0
 40
0.0
 40
1.0
 40
1.0
 40
1.0
 40
1.0
 10
13.2098
 20
3.4246
 30
0.0
 10
13.2116
 20
3.5631
 30
0.0
 10
13.2116
 20
3.7018
 30
0.0
 10
13.2098
 20
3.8403
 30
0.0
  0
SPLINE
  5
77
330
1F
100
AcDbEntity
  8
ROUND
 62
   250
100
AcDbSpline
210
0.0
220
0.0
230
1.0
 70
     8
 71
     3
 72
     8
 73
     4
 74
     0
 42
0.0000000001
 43
0.0000000001
 40
0.0
 40
0.0
 40
0.0
 40
0.0
 40
1.0
 40
1.0
 40
1.0
 40
1.0
 10
13.2098
 20
-18.3063
 30
0.0
 10
13.2114
 20
-18.2263
 30
0.0
 10
13.2114
 20
-18.1463
 30
0.0
 10
13.2098
 20
-18.0664
 30
0.0
  0
SPLINE
  5
78
330
1F
100
AcDbEntity
  8
ROUND
 62
   250
100
AcDbSpline
210
0.0
220
0.0
230
1.0
 70
     8
 71
     3
 72
     8
 73
     4
 74
     0
 42
0.0000000001
 43
0.0000000001
 40
0.0
 40
0.0
 40
0.0
 40
0.0
 40
1.0
 40
1.0
 40
1.0
 40
1.0
 10
13.2098
 20
9.3588
 30
0.0
 10
13.2114
 20
9.4387
 30
0.0
 10
13.2114
 20
9.5187
 30
0.0
 10
13.2098
 20
9.5987
 30
0.0
  0
SPLINE
  5
79
330
1F
100
AcDbEntity
  8
ROUND
 62
   250
100
AcDbSpline
210
0.0
220
0.0
230
1.0
 70
     8
 71
     3
 72
    20
 73
    16
 74
     0
 42
0.0000000001
 43
0.0000000001
 40
0.0
 40
0.0
 40
0.0
 40
0.0
 40
0.2
 40
0.2
 40
0.2
 40
0.2
 40
0.4
 40
0.4
 40
0.4
 40
0.4
 40
0.6
 40
0.6
 40
0.6
 40
0.6
 40
1.0
 40
1.0
 40
1.0
 40
1.0
 10
12.4135
 20
8.1443
 30
0.0
 10
12.4135
 20
8.1443
 30
0.0
 10
12.4688
 20
8.5099
 30
0.0
 10
12.4688
 20
8.5099
 30
0.0
 10
12.4688
 20
8.5099
 30
0.0
 10
12.4688
 20
8.5099
 30
0.0
 10
12.6316
 20
8.8514
 30
0.0
 10
12.6316
 20
8.8514
 30
0.0
 10
12.6316
 20
8.8514
 30
0.0
 10
12.6316
 20
8.8514
 30
0.0
 10
12.8877
 20
9.1406
 30
0.0
 10
12.8877
 20
9.1406
 30
0.0
 10
12.8877
 20
9.1406
 30
0.0
 10
12.8877
 20
9.1406
 30
0.0
 10
13.2098
 20
9.3588
 30
0.0
 10
13.2098
 20
9.3588
 30
0.0
  0
SPLINE
  5
7A
330
1F
100
AcDbEntity
  8
ROUND
 62
   250
100
AcDbSpline
210
0.0
220
0.0
230
1.0
 70
     8
 71
     3
 72
    28
 73
    24
 74
     0
 42
0.0000000001
 43
0.0000000001
 40
0.0
 40
0.0
 40
0.0
 40
0.0
 40
0.1428571428571428
 40
0.1428571428571428
 40
0.1428571428571428
 40
0.1428571428571428
 40
0.2857142857142857
 40
0.2857142857142857
 40
0.2857142857142857
 40
0.2857142857142857
 40
0.4285714285714285
 40
0.4285714285714285
 40
0.4285714285714285
 40
0.4285714285714285
 40
0.5714285714285714
 40
0.5714285714285714
 40
0.5714285714285714
 40
0.5714285714285714
 40
0.7142857142857143
 40
0.7142857142857143
 40
0.7142857142857143
 40
0.7142857142857143
 40
1.0
 40
1.0
 40
1.0
 40
1.0
 10
10.7809
 20
1.7788
 30
0.0
 10
10.7809
 20
1.7788
 30
0.0
 10
11.2042
 20
1.8016
 30
0.0
 10
11.2042
 20
1.8016
 30
0.0
 10
11.2042
 20
1.8016
 30
0.0
 10
11.2042
 20
1.8016
 30
0.0
 10
11.5981
 20
1.8783
 30
0.0
 10
11.5981
 20
1.8783
 30
0.0
 10
11.5981
 20
1.8783
 30
0.0
 10
11.5981
 20
1.8783
 30
0.0
 10
11.936
 20
2.0039
 30
0.0
 10
11.936
 20
2.0039
 30
0.0
 10
11.936
 20
2.0039
 30
0.0
 10
11.936
 20
2.0039
 30
0.0
 10
12.1952
 20
2.17
 30
0.0
 10
12.1952
 20
2.17
 30
0.0
 10
12.1952
 20
2.17
 30
0.0
 10
12.1952
 20
2.17
 30
0.0
 10
12.3578
 20
2.3651
 30
0.0
 10
12.3578
 20
2.3651
 30
0.0
 10
12.3578
 20
2.3651
 30
0.0
 10
12.3578
 20
2.3651
 30
0.0
 10
12.4135
 20
2.576
 30
0.0
 10
12.4135
 20
2.576
 30
0.0
  0
SPLINE
  5
7B
330
1F
100
AcDbEntity
  8
ROUND
 62
   250
100
AcDbSpline
210
0.0
220
0.0
230
1.0
 70
     8
 71
     3
 72
    28
 73
    24
 74
     0
 42
0.0000000001
 43
0.0000000001
 40
0.0
 40
0.0
 40
0.0
 40
0.0
 40
0.1428571428571428
 40
0.1428571428571428
 40
0.1428571428571428
 40
0.1428571428571428
 40
0.2857142857142857
 40
0.2857142857142857
 40
0.2857142857142857
 40
0.2857142857142857
 40
0.4285714285714285
 40
0.4285714285714285
 40
0.4285714285714285
 40
0.4285714285714285
 40
0.5714285714285714
 40
0.5714285714285714
 40
0.5714285714285714
 40
0.5714285714285714
 40
0.7142857142857143
 40
0.7142857142857143
 40
0.7142857142857143
 40
0.7142857142857143
 40
1.0
 40
1.0
 40
1.0
 40
1.0
 10
10.7809
 20
6.4658
 30
0.0
 10
10.7809
 20
6.4658
 30
0.0
 10
11.2042
 20
6.5126
 30
0.0
 10
11.2042
 20
6.5126
 30
0.0
 10
11.2042
 20
6.5126
 30
0.0
 10
11.2042
 20
6.5126
 30
0.0
 10
11.5981
 20
6.6526
 30
0.0
 10
11.5981
 20
6.6526
 30
0.0
 10
11.5981
 20
6.6526
 30
0.0
 10
11.5981
 20
6.6526
 30
0.0
 10
11.936
 20
6.876
 30
0.0
 10
11.936
 20
6.876
 30
0.0
 10
11.936
 20
6.876
 30
0.0
 10
11.936
 20
6.876
 30
0.0
 10
12.1952
 20
7.1679
 30
0.0
 10
12.1952
 20
7.1679
 30
0.0
 10
12.1952
 20
7.1679
 30
0.0
 10
12.1952
 20
7.1679
 30
0.0
 10
12.3578
 20
7.5086
 30
0.0
 10
12.3578
 20
7.5086
 30
0.0
 10
12.3578
 20
7.5086
 30
0.0
 10
12.3578
 20
7.5086
 30
0.0
 10
12.4135
 20
7.8751
 30
0.0
 10
12.4135
 20
7.8751
 30
0.0
  0
SPLINE
  5
7C
330
1F
100
AcDbEntity
  8
ROUND
 62
   250
100
AcDbSpline
210
0.0
220
0.0
230
1.0
 70
     8
 71
     3
 72
    20
 73
    16
 74
     0
 42
0.0000000001
 43
0.0000000001
 40
0.0
 40
0.0
 40
0.0
 40
0.0
 40
0.2
 40
0.2
 40
0.2
 40
0.2
 40
0.4
 40
0.4
 40
0.4
 40
0.4
 40
0.6
 40
0.6
 40
0.6
 40
0.6
 40
1.0
 40
1.0
 40
1.0
 40
1.0
 10
13.2098
 20
-18.0664
 30
0.0
 10
13.2098
 20
-18.0664
 30
0.0
 10
12.8877
 20
-17.8481
 30
0.0
 10
12.8877
 20
-17.8481
 30
0.0
 10
12.8877
 20
-17.8481
 30
0.0
 10
12.8877
 20
-17.8481
 30
0.0
 10
12.6316
 20
-17.559
 30
0.0
 10
12.6316
 20
-17.559
 30
0.0
 10
12.6316
 20
-17.559
 30
0.0
 10
12.6316
 20
-17.559
 30
0.0
 10
12.4688
 20
-17.2175
 30
0.0
 10
12.4688
 20
-17.2175
 30
0.0
 10
12.4688
 20
-17.2175
 30
0.0
 10
12.4688
 20
-17.2175
 30
0.0
 10
12.4135
 20
-16.8519
 30
0.0
 10
12.4135
 20
-16.8519
 30
0.0
  0
SPLINE
  5
7D
330
1F
100
AcDbEntity
  8
ROUND
 62
   250
100
AcDbSpline
210
0.0
220
0.0
230
1.0
 70
     8
 71
     3
 72
    20
 73
    16
 74
     0
 42
0.0000000001
 43
0.0000000001
 40
0.0
 40
0.0
 40
0.0
 40
0.0
 40
0.2
 40
0.2
 40
0.2
 40
0.2
 40
0.4
 40
0.4
 40
0.4
 40
0.4
 40
0.6
 40
0.6
 40
0.6
 40
0.6
 40
1.0
 40
1.0
 40
1.0
 40
1.0
 10
13.2098
 20
-12.1322
 30
0.0
 10
13.2098
 20
-12.1322
 30
0.0
 10
12.8877
 20
-12.0095
 30
0.0
 10
12.8877
 20
-12.0095
 30
0.0
 10
12.8877
 20
-12.0095
 30
0.0
 10
12.8877
 20
-12.0095
 30
0.0
 10
12.6316
 20
-11.845
 30
0.0
 10
12.6316
 20
-11.845
 30
0.0
 10
12.6316
 20
-11.845
 30
0.0
 10
12.6316
 20
-11.845
 30
0.0
 10
12.4688
 20
-11.6496
 30
0.0
 10
12.4688
 20
-11.6496
 30
0.0
 10
12.4688
 20
-11.6496
 30
0.0
 10
12.4688
 20
-11.6496
 30
0.0
 10
12.4135
 20
-11.439
 30
0.0
 10
12.4135
 20
-11.439
 30
0.0
  0
SPLINE
  5
7E
330
1F
100
AcDbEntity
  8
ROUND
 62
   250
100
AcDbSpline
210
0.0
220
0.0
230
1.0
 70
     8
 71
     3
 72
    28
 73
    24
 74
     0
 42
0.0000000001
 43
0.0000000001
 40
0.0
 40
0.0
 40
0.0
 40
0.0
 40
0.1428571428571428
 40
0.1428571428571428
 40
0.1428571428571428
 40
0.1428571428571428
 40
0.2857142857142857
 40
0.2857142857142857
 40
0.2857142857142857
 40
0.2857142857142857
 40
0.4285714285714285
 40
0.4285714285714285
 40
0.4285714285714285
 40
0.4285714285714285
 40
0.5714285714285714
 40
0.5714285714285714
 40
0.5714285714285714
 40
0.5714285714285714
 40
0.7142857142857143
 40
0.7142857142857143
 40
0.7142857142857143
 40
0.7142857142857143
 40
1.0
 40
1.0
 40
1.0
 40
1.0
 10
12.4135
 20
-16.5827
 30
0.0
 10
12.4135
 20
-16.5827
 30
0.0
 10
12.3578
 20
-16.2162
 30
0.0
 10
12.3578
 20
-16.2162
 30
0.0
 10
12.3578
 20
-16.2162
 30
0.0
 10
12.3578
 20
-16.2162
 30
0.0
 10
12.1952
 20
-15.8755
 30
0.0
 10
12.1952
 20
-15.8755
 30
0.0
 10
12.1952
 20
-15.8755
 30
0.0
 10
12.1952
 20
-15.8755
 30
0.0
 10
11.936
 20
-15.5836
 30
0.0
 10
11.936
 20
-15.5836
 30
0.0
 10
11.936
 20
-15.5836
 30
0.0
 10
11.936
 20
-15.5836
 30
0.0
 10
11.5981
 20
-15.3602
 30
0.0
 10
11.5981
 20
-15.3602
 30
0.0
 10
11.5981
 20
-15.3602
 30
0.0
 10
11.5981
 20
-15.3602
 30
0.0
 10
11.2042
 20
-15.2202
 30
0.0
 10
11.2042
 20
-15.2202
 30
0.0
 10
11.2042
 20
-15.2202
 30
0.0
 10
11.2042
 20
-15.2202
 30
0.0
 10
10.7809
 20
-15.1735
 30
0.0
 10
10.7809
 20
-15.1735
 30
0.0
  0
SPLINE
  5
7F
330
1F
100
AcDbEntity
  8
ROUND
 62
   250
100
AcDbSpline
210
0.0
220
0.0
230
1.0
 70
     8
 71
     3
 72
    20
 73
    16
 74
     0
 42
0.0000000001
 43
0.0000000001
 40
0.0
 40
0.0
 40
0.0
 40
0.0
 40
0.2
 40
0.2
 40
0.2
 40
0.2
 40
0.4
 40
0.4
 40
0.4
 40
0.4
 40
0.6
 40
0.6
 40
0.6
 40
0.6
 40
1.0
 40
1.0
 40
1.0
 40
1.0
 10
12.4135
 20
2.7314
 30
0.0
 10
12.4135
 20
2.7314
 30
0.0
 10
12.4688
 20
2.942
 30
0.0
 10
12.4688
 20
2.942
 30
0.0
 10
12.4688
 20
2.942
 30
0.0
 10
12.4688
 20
2.942
 30
0.0
 10
12.6316
 20
3.1374
 30
0.0
 10
12.6316
 20
3.1374
 30
0.0
 10
12.6316
 20
3.1374
 30
0.0
 10
12.6316
 20
3.1374
 30
0.0
 10
12.8877
 20
3.3019
 30
0.0
 10
12.8877
 20
3.3019
 30
0.0
 10
12.8877
 20
3.3019
 30
0.0
 10
12.8877
 20
3.3019
 30
0.0
 10
13.2098
 20
3.4246
 30
0.0
 10
13.2098
 20
3.4246
 30
0.0
  0
SPLINE
  5
80
330
1F
100
AcDbEntity
  8
ROUND
 62
   250
100
AcDbSpline
210
0.0
220
0.0
230
1.0
 70
     8
 71
     3
 72
    28
 73
    24
 74
     0
 42
0.0000000001
 43
0.0000000001
 40
0.0
 40
0.0
 40
0.0
 40
0.0
 40
0.1428571428571428
 40
0.1428571428571428
 40
0.1428571428571428
 40
0.1428571428571428
 40
0.2857142857142857
 40
0.2857142857142857
 40
0.2857142857142857
 40
0.2857142857142857
 40
0.4285714285714285
 40
0.4285714285714285
 40
0.4285714285714285
 40
0.4285714285714285
 40
0.5714285714285714
 40
0.5714285714285714
 40
0.5714285714285714
 40
0.5714285714285714
 40
0.7142857142857143
 40
0.7142857142857143
 40
0.7142857142857143
 40
0.7142857142857143
 40
1.0
 40
1.0
 40
1.0
 40
1.0
 10
12.4135
 20
-11.2836
 30
0.0
 10
12.4135
 20
-11.2836
 30
0.0
 10
12.3578
 20
-11.0727
 30
0.0
 10
12.3578
 20
-11.0727
 30
0.0
 10
12.3578
 20
-11.0727
 30
0.0
 10
12.3578
 20
-11.0727
 30
0.0
 10
12.1952
 20
-10.8776
 30
0.0
 10
12.1952
 20
-10.8776
 30
0.0
 10
12.1952
 20
-10.8776
 30
0.0
 10
12.1952
 20
-10.8776
 30
0.0
 10
11.936
 20
-10.7115
 30
0.0
 10
11.936
 20
-10.7115
 30
0.0
 10
11.936
 20
-10.7115
 30
0.0
 10
11.936
 20
-10.7115
 30
0.0
 10
11.5981
 20
-10.5859
 30
0.0
 10
11.5981
 20
-10.5859
 30
0.0
 10
11.5981
 20
-10.5859
 30
0.0
 10
11.5981
 20
-10.5859
 30
0.0
 10
11.2042
 20
-10.5092
 30
0.0
 10
11.2042
 20
-10.5092
 30
0.0
 10
11.2042
 20
-10.5092
 30
0.0
 10
11.2042
 20
-10.5092
 30
0.0
 10
10.7809
 20
-10.4865
 30
0.0
 10
10.7809
 20
-10.4865
 30
0.0
  0
SPLINE
  5
81
330
1F
100
AcDbEntity
  8
ROUND
 62
   250
100
AcDbSpline
210
0.0
220
0.0
230
1.0
 70
     8
 71
     3
 72
     8
 73
     4
 74
     0
 42
0.0000000001
 43
0.0000000001
 40
0.0
 40
0.0
 40
0.0
 40
0.0
 40
1.0
 40
1.0
 40
1.0
 40
1.0
 10
7.5735
 20
-15.3242
 30
0.0
 10
7.5752
 20
-15.2779
 30
0.0
 10
7.5752
 20
-15.2309
 30
0.0
 10
7.5735
 20
-15.1826
 30
0.0
  0
SPLINE
  5
82
330
1F
100
AcDbEntity
  8
ROUND
 62
   250
100
AcDbSpline
210
0.0
220
0.0
230
1.0
 70
     8
 71
     3
 72
     8
 73
     4
 74
     0
 42
0.0000000001
 43
0.0000000001
 40
0.0
 40
0.0
 40
0.0
 40
0.0
 40
1.0
 40
1.0
 40
1.0
 40
1.0
 10
7.5735
 20
-16.9396
 30
0.0
 10
8.6034
 20
-16.9466
 30
0.0
 10
9.6344
 20
-16.9535
 30
0.0
 10
10.6661
 20
-16.9604
 30
0.0
  0
SPLINE
  5
83
330
1F
100
AcDbEntity
  8
ROUND
 62
   250
100
AcDbSpline
210
0.0
220
0.0
230
1.0
 70
     8
 71
     3
 72
     8
 73
     4
 74
     0
 42
0.0000000001
 43
0.0000000001
 40
0.0
 40
0.0
 40
0.0
 40
0.0
 40
1.0
 40
1.0
 40
1.0
 40
1.0
 10
10.6661
 20
8.2528
 30
0.0
 10
9.6344
 20
8.2461
 30
0.0
 10
8.6034
 20
8.239
 30
0.0
 10
7.5735
 20
8.232
 30
0.0
  0
SPLINE
  5
84
330
1F
100
AcDbEntity
  8
ROUND
 62
   250
100
AcDbSpline
210
0.0
220
0.0
230
1.0
 70
     8
 71
     3
 72
     8
 73
     4
 74
     0
 42
0.0000000001
 43
0.0000000001
 40
0.0
 40
0.0
 40
0.0
 40
0.0
 40
1.0
 40
1.0
 40
1.0
 40
1.0
 10
7.5735
 20
6.475
 30
0.0
 10
7.5752
 20
6.5232
 30
0.0
 10
7.5752
 20
6.5703
 30
0.0
 10
7.5735
 20
6.6166
 30
0.0
  0
SPLINE
  5
85
330
1F
100
AcDbEntity
  8
ROUND
 62
   250
100
AcDbSpline
210
0.0
220
0.0
230
1.0
 70
     8
 71
     3
 72
     8
 73
     4
 74
     0
 42
0.0000000001
 43
0.0000000001
 40
0.0
 40
0.0
 40
0.0
 40
0.0
 40
1.0
 40
1.0
 40
1.0
 40
1.0
 10
7.5735
 20
1.8164
 30
0.0
 10
7.5752
 20
1.8988
 30
0.0
 10
7.5752
 20
1.9806
 30
0.0
 10
7.5735
 20
2.0617
 30
0.0
  0
SPLINE
  5
86
330
1F
100
AcDbEntity
  8
ROUND
 62
   250
100
AcDbSpline
210
0.0
220
0.0
230
1.0
 70
     8
 71
     3
 72
     8
 73
     4
 74
     0
 42
0.0000000001
 43
0.0000000001
 40
0.0
 40
0.0
 40
0.0
 40
0.0
 40
1.0
 40
1.0
 40
1.0
 40
1.0
 10
7.5735
 20
-4.4954
 30
0.0
 10
7.5752
 20
-4.401
 30
0.0
 10
7.5752
 20
-4.3066
 30
0.0
 10
7.5735
 20
-4.2122
 30
0.0
  0
SPLINE
  5
87
330
1F
100
AcDbEntity
  8
ROUND
 62
   250
100
AcDbSpline
210
0.0
220
0.0
230
1.0
 70
     8
 71
     3
 72
     8
 73
     4
 74
     0
 42
0.0000000001
 43
0.0000000001
 40
0.0
 40
0.0
 40
0.0
 40
0.0
 40
1.0
 40
1.0
 40
1.0
 40
1.0
 10
7.5735
 20
-10.7693
 30
0.0
 10
7.5752
 20
-10.6882
 30
0.0
 10
7.5752
 20
-10.6064
 30
0.0
 10
7.5735
 20
-10.524
 30
0.0
  0
SPLINE
  5
88
330
1F
100
AcDbEntity
  8
ROUND
 62
   250
100
AcDbSpline
210
0.0
220
0.0
230
1.0
 70
    24
 71
     3
 72
     8
 73
     4
 74
     0
 42
0.0000000001
 43
0.0000000001
 40
0.0
 40
0.0
 40
0.0
 40
0.0
 40
1.0
 40
1.0
 40
1.0
 40
1.0
 10
7.5747
 20
-16.9405
 30
0.0
 10
7.5747
 20
-16.9405
 30
0.0
 10
-33.0717
 20
-16.6567
 30
0.0
 10
-33.0717
 20
-16.6567
 30
0.0
  0
SPLINE
  5
89
330
1F
100
AcDbEntity
  8
ROUND
 62
   250
100
AcDbSpline
210
0.0
220
0.0
230
1.0
 70
    24
 71
     3
 72
     8
 73
     4
 74
     0
 42
0.0000000001
 43
0.0000000001
 40
0.0
 40
0.0
 40
0.0
 40
0.0
 40
1.0
 40
1.0
 40
1.0
 40
1.0
 10
20.7707
 20
-21.894
 30
0.0
 10
20.7707
 20
-21.894
 30
0.0
 10
16.1113
 20
-21.8127
 30
0.0
 10
16.1113
 20
-21.8127
 30
0.0
  0
SPLINE
  5
8A
330
1F
100
AcDbEntity
  8
ROUND
 62
   250
100
AcDbSpline
210
0.0
220
0.0
230
1.0
 70
    24
 71
     3
 72
     8
 73
     4
 74
     0
 42
0.0000000001
 43
0.0000000001
 40
0.0
 40
0.0
 40
0.0
 40
0.0
 40
1.0
 40
1.0
 40
1.0
 40
1.0
 10
20.7707
 20
13.1864
 30
0.0
 10
20.7707
 20
13.1864
 30
0.0
 10
16.1113
 20
13.1051
 30
0.0
 10
16.1113
 20
13.1051
 30
0.0
  0
SPLINE
  5
8B
330
1F
100
AcDbEntity
  8
ROUND
 62
   250
100
AcDbSpline
210
0.0
220
0.0
230
1.0
 70
    24
 71
     3
 72
     8
 73
     4
 74
     0
 42
0.0000000001
 43
0.0000000001
 40
0.0
 40
0.0
 40
0.0
 40
0.0
 40
1.0
 40
1.0
 40
1.0
 40
1.0
 10
7.5747
 20
8.2328
 30
0.0
 10
7.5747
 20
8.2328
 30
0.0
 10
-33.0717
 20
7.9491
 30
0.0
 10
-33.0717
 20
7.9491
 30
0.0
  0
SPLINE
  5
8C
330
1F
100
AcDbEntity
  8
ROUND
 62
   250
100
AcDbSpline
210
0.0
220
0.0
230
1.0
 70
    24
 71
     3
 72
     8
 73
     4
 74
     0
 42
0.0000000001
 43
0.0000000001
 40
0.0
 40
0.0
 40
0.0
 40
0.0
 40
1.0
 40
1.0
 40
1.0
 40
1.0
 10
15.2932
 20
-21.5781
 30
0.0
 10
15.2932
 20
-21.5781
 30
0.0
 10
13.2111
 20
-20.3271
 30
0.0
 10
13.2111
 20
-20.3271
 30
0.0
  0
SPLINE
  5
8D
330
1F
100
AcDbEntity
  8
ROUND
 62
   250
100
AcDbSpline
210
0.0
220
0.0
230
1.0
 70
    24
 71
     3
 72
     8
 73
     4
 74
     0
 42
0.0000000001
 43
0.0000000001
 40
0.0
 40
0.0
 40
0.0
 40
0.0
 40
1.0
 40
1.0
 40
1.0
 40
1.0
 10
-33.0717
 20
-16.6567
 30
0.0
 10
-33.0717
 20
-16.6567
 30
0.0
 10
-33.0717
 20
7.9491
 30
0.0
 10
-33.0717
 20
7.9491
 30
0.0
  0
SPLINE
  5
8E
330
1F
100
AcDbEntity
  8
ROUND
 62
   250
100
AcDbSpline
210
0.0
220
0.0
230
1.0
 70
    24
 71
     3
 72
     8
 73
     4
 74
     0
 42
0.0000000001
 43
0.0000000001
 40
0.0
 40
0.0
 40
0.0
 40
0.0
 40
1.0
 40
1.0
 40
1.0
 40
1.0
 10
16.1113
 20
-21.8127
 30
0.0
 10
16.1113
 20
-21.8127
 30
0.0
 10
16.1113
 20
13.1051
 30
0.0
 10
16.1113
 20
13.1051
 30
0.0
  0
SPLINE
  5
8F
330
1F
100
AcDbEntity
  8
ROUND
 62
   250
100
AcDbSpline
210
0.0
220
0.0
230
1.0
 70
    24
 71
     3
 72
     8
 73
     4
 74
     0
 42
0.0000000001
 43
0.0000000001
 40
0.0
 40
0.0
 40
0.0
 40
0.0
 40
1.0
 40
1.0
 40
1.0
 40
1.0
 10
21.7417
 20
-21.2258
 30
0.0
 10
21.7417
 20
-21.2258
 30
0.0
 10
21.7417
 20
12.5182
 30
0.0
 10
21.7417
 20
12.5182
 30
0.0
  0
SPLINE
  5
90
330
1F
100
AcDbEntity
  8
ROUND
 62
   250
100
AcDbSpline
210
0.0
220
0.0
230
1.0
 70
    24
 71
     3
 72
     8
 73
     4
 74
     0
 42
0.0000000001
 43
0.0000000001
 40
0.0
 40
0.0
 40
0.0
 40
0.0
 40
1.0
 40
1.0
 40
1.0
 40
1.0
 10
15.2932
 20
12.8705
 30
0.0
 10
15.2932
 20
12.8705
 30
0.0
 10
13.2111
 20
11.6195
 30
0.0
 10
13.2111
 20
11.6195
 30
0.0
  0
SPLINE
  5
91
330
1F
100
AcDbEntity
  8
ROUND
 62
   250
100
AcDbSpline
210
0.0
220
0.0
230
1.0
 70
     8
 71
     3
 72
     8
 73
     4
 74
     0
 42
0.0000000001
 43
0.0000000001
 40
0.0
 40
0.0
 40
0.0
 40
0.0
 40
1.0
 40
1.0
 40
1.0
 40
1.0
 10
15.2932
 20
-21.5781
 30
0.0
 10
15.5405
 20
-21.7268
 30
0.0
 10
15.8227
 20
-21.8076
 30
0.0
 10
16.1113
 20
-21.8127
 30
0.0
  0
SPLINE
  5
92
330
1F
100
AcDbEntity
  8
ROUND
 62
   250
100
AcDbSpline
210
0.0
220
0.0
230
1.0
 70
     8
 71
     3
 72
     8
 73
     4
 74
     0
 42
0.0000000001
 43
0.0000000001
 40
0.0
 40
0.0
 40
0.0
 40
0.0
 40
1.0
 40
1.0
 40
1.0
 40
1.0
 10
16.1113
 20
13.1051
 30
0.0
 10
15.8227
 20
13.1001
 30
0.0
 10
15.5405
 20
13.0192
 30
0.0
 10
15.2932
 20
12.8705
 30
0.0
  0
SPLINE
  5
93
330
1F
100
AcDbEntity
  8
ROUND
 62
   250
100
AcDbSpline
210
0.0
220
0.0
230
1.0
 70
    24
 71
     3
 72
     8
 73
     4
 74
     0
 42
0.0000000001
 43
0.0000000001
 40
0.0
 40
0.0
 40
0.0
 40
0.0
 40
1.0
 40
1.0
 40
1.0
 40
1.0
 10
-40.5589
 20
9.8944
 30
0.0
 10
-40.5589
 20
9.8944
 30
0.0
 10
-40.5589
 20
-18.602
 30
0.0
 10
-40.5589
 20
-18.602
 30
0.0
  0
SPLINE
  5
94
330
1F
100
AcDbEntity
  8
ROUND
 62
   250
100
AcDbSpline
210
0.0
220
0.0
230
1.0
 70
    24
 71
     3
 72
     8
 73
     4
 74
     0
 42
0.0000000001
 43
0.0000000001
 40
0.0
 40
0.0
 40
0.0
 40
0.0
 40
1.0
 40
1.0
 40
1.0
 40
1.0
 10
-40.2848
 20
9.8944
 30
0.0
 10
-40.2848
 20
9.8944
 30
0.0
 10
-40.2848
 20
-18.602
 30
0.0
 10
-40.2848
 20
-18.602
 30
0.0
  0
SPLINE
  5
95
330
1F
100
AcDbEntity
  8
ROUND
 62
   250
100
AcDbSpline
210
0.0
220
0.0
230
1.0
 70
    24
 71
     3
 72
     8
 73
     4
 74
     0
 42
0.0000000001
 43
0.0000000001
 40
0.0
 40
0.0
 40
0.0
 40
0.0
 40
1.0
 40
1.0
 40
1.0
 40
1.0
 10
-39.956
 20
9.8944
 30
0.0
 10
-39.956
 20
9.8944
 30
0.0
 10
-39.956
 20
-18.602
 30
0.0
 10
-39.956
 20
-18.602
 30
0.0
  0
SPLINE
  5
96
330
1F
100
AcDbEntity
  8
ROUND
 62
   250
100
AcDbSpline
210
0.0
220
0.0
230
1.0
 70
    24
 71
     3
 72
     8
 73
     4
 74
     0
 42
0.0000000001
 43
0.0000000001
 40
0.0
 40
0.0
 40
0.0
 40
0.0
 40
1.0
 40
1.0
 40
1.0
 40
1.0
 10
-39.6821
 20
9.8944
 30
0.0
 10
-39.6821
 20
9.8944
 30
0.0
 10
-39.6821
 20
-18.602
 30
0.0
 10
-39.6821
 20
-18.602
 30
0.0
  0
SPLINE
  5
97
330
1F
100
AcDbEntity
  8
ROUND
 62
   250
100
AcDbSpline
210
0.0
220
0.0
230
1.0
 70
    24
 71
     3
 72
     8
 73
     4
 74
     0
 42
0.0000000001
 43
0.0000000001
 40
0.0
 40
0.0
 40
0.0
 40
0.0
 40
1.0
 40
1.0
 40
1.0
 40
1.0
 10
-39.3531
 20
9.8944
 30
0.0
 10
-39.3531
 20
9.8944
 30
0.0
 10
-39.3531
 20
-18.602
 30
0.0
 10
-39.3531
 20
-18.602
 30
0.0
  0
SPLINE
  5
98
330
1F
100
AcDbEntity
  8
ROUND
 62
   250
100
AcDbSpline
210
0.0
220
0.0
230
1.0
 70
    24
 71
     3
 72
     8
 73
     4
 74
     0
 42
0.0000000001
 43
0.0000000001
 40
0.0
 40
0.0
 40
0.0
 40
0.0
 40
1.0
 40
1.0
 40
1.0
 40
1.0
 10
-39.0792
 20
9.8944
 30
0.0
 10
-39.0792
 20
9.8944
 30
0.0
 10
-39.0792
 20
-18.602
 30
0.0
 10
-39.0792
 20
-18.602
 30
0.0
  0
SPLINE
  5
99
330
1F
100
AcDbEntity
  8
ROUND
 62
   250
100
AcDbSpline
210
0.0
220
0.0
230
1.0
 70
    24
 71
     3
 72
     8
 73
     4
 74
     0
 42
0.0000000001
 43
0.0000000001
 40
0.0
 40
0.0
 40
0.0
 40
0.0
 40
1.0
 40
1.0
 40
1.0
 40
1.0
 10
-38.7504
 20
9.8944
 30
0.0
 10
-38.7504
 20
9.8944
 30
0.0
 10
-38.7504
 20
-18.602
 30
0.0
 10
-38.7504
 20
-18.602
 30
0.0
  0
SPLINE
  5
9A
330
1F
100
AcDbEntity
  8
ROUND
 62
   250
100
AcDbSpline
210
0.0
220
0.0
230
1.0
 70
    24
 71
     3
 72
     8
 73
     4
 74
     0
 42
0.0000000001
 43
0.0000000001
 40
0.0
 40
0.0
 40
0.0
 40
0.0
 40
1.0
 40
1.0
 40
1.0
 40
1.0
 10
-38.4763
 20
9.8944
 30
0.0
 10
-38.4763
 20
9.8944
 30
0.0
 10
-38.4763
 20
-18.602
 30
0.0
 10
-38.4763
 20
-18.602
 30
0.0
  0
SPLINE
  5
9B
330
1F
100
AcDbEntity
  8
ROUND
 62
   250
100
AcDbSpline
210
0.0
220
0.0
230
1.0
 70
    24
 71
     3
 72
     8
 73
     4
 74
     0
 42
0.0000000001
 43
0.0000000001
 40
0.0
 40
0.0
 40
0.0
 40
0.0
 40
1.0
 40
1.0
 40
1.0
 40
1.0
 10
-40.9013
 20
-18.6022
 30
0.0
 10
-40.9013
 20
-18.6022
 30
0.0
 10
-40.5589
 20
-18.6022
 30
0.0
 10
-40.5589
 20
-18.6022
 30
0.0
  0
SPLINE
  5
9C
330
1F
100
AcDbEntity
  8
ROUND
 62
   250
100
AcDbSpline
210
0.0
220
0.0
230
1.0
 70
    24
 71
     3
 72
     8
 73
     4
 74
     0
 42
0.0000000001
 43
0.0000000001
 40
0.0
 40
0.0
 40
0.0
 40
0.0
 40
1.0
 40
1.0
 40
1.0
 40
1.0
 10
-40.2848
 20
-18.6022
 30
0.0
 10
-40.2848
 20
-18.6022
 30
0.0
 10
-39.956
 20
-18.6022
 30
0.0
 10
-39.956
 20
-18.6022
 30
0.0
  0
SPLINE
  5
9D
330
1F
100
AcDbEntity
  8
ROUND
 62
   250
100
AcDbSpline
210
0.0
220
0.0
230
1.0
 70
    24
 71
     3
 72
     8
 73
     4
 74
     0
 42
0.0000000001
 43
0.0000000001
 40
0.0
 40
0.0
 40
0.0
 40
0.0
 40
1.0
 40
1.0
 40
1.0
 40
1.0
 10
-39.6821
 20
-18.6022
 30
0.0
 10
-39.6821
 20
-18.6022
 30
0.0
 10
-39.3531
 20
-18.6022
 30
0.0
 10
-39.3531
 20
-18.6022
 30
0.0
  0
SPLINE
  5
9E
330
1F
100
AcDbEntity
  8
ROUND
 62
   250
100
AcDbSpline
210
0.0
220
0.0
230
1.0
 70
    24
 71
     3
 72
     8
 73
     4
 74
     0
 42
0.0000000001
 43
0.0000000001
 40
0.0
 40
0.0
 40
0.0
 40
0.0
 40
1.0
 40
1.0
 40
1.0
 40
1.0
 10
-39.0792
 20
-18.6022
 30
0.0
 10
-39.0792
 20
-18.6022
 30
0.0
 10
-38.7504
 20
-18.6022
 30
0.0
 10
-38.7504
 20
-18.6022
 30
0.0
  0
SPLINE
  5
9F
330
1F
100
AcDbEntity
  8
ROUND
 62
   250
100
AcDbSpline
210
0.0
220
0.0
230
1.0
 70
    24
 71
     3
 72
     8
 73
     4
 74
     0
 42
0.0000000001
 43
0.0000000001
 40
0.0
 40
0.0
 40
0.0
 40
0.0
 40
1.0
 40
1.0
 40
1.0
 40
1.0
 10
-38.4763
 20
-18.6022
 30
0.0
 10
-38.4763
 20
-18.6022
 30
0.0
 10
-38.1613
 20
-18.6022
 30
0.0
 10
-38.1613
 20
-18.6022
 30
0.0
  0
SPLINE
  5
A0
330
1F
100
AcDbEntity
  8
ROUND
 62
   250
100
AcDbSpline
210
0.0
220
0.0
230
1.0
 70
    24
 71
     3
 72
     8
 73
     4
 74
     0
 42
0.0000000001
 43
0.0000000001
 40
0.0
 40
0.0
 40
0.0
 40
0.0
 40
1.0
 40
1.0
 40
1.0
 40
1.0
 10
-40.5589
 20
-18.5199
 30
0.0
 10
-40.5589
 20
-18.5199
 30
0.0
 10
-40.2848
 20
-18.5199
 30
0.0
 10
-40.2848
 20
-18.5199
 30
0.0
  0
SPLINE
  5
A1
330
1F
100
AcDbEntity
  8
ROUND
 62
   250
100
AcDbSpline
210
0.0
220
0.0
230
1.0
 70
    24
 71
     3
 72
     8
 73
     4
 74
     0
 42
0.0000000001
 43
0.0000000001
 40
0.0
 40
0.0
 40
0.0
 40
0.0
 40
1.0
 40
1.0
 40
1.0
 40
1.0
 10
-39.956
 20
-18.5199
 30
0.0
 10
-39.956
 20
-18.5199
 30
0.0
 10
-39.6821
 20
-18.5199
 30
0.0
 10
-39.6821
 20
-18.5199
 30
0.0
  0
SPLINE
  5
A2
330
1F
100
AcDbEntity
  8
ROUND
 62
   250
100
AcDbSpline
210
0.0
220
0.0
230
1.0
 70
    24
 71
     3
 72
     8
 73
     4
 74
     0
 42
0.0000000001
 43
0.0000000001
 40
0.0
 40
0.0
 40
0.0
 40
0.0
 40
1.0
 40
1.0
 40
1.0
 40
1.0
 10
-39.3531
 20
-18.5199
 30
0.0
 10
-39.3531
 20
-18.5199
 30
0.0
 10
-39.0792
 20
-18.5199
 30
0.0
 10
-39.0792
 20
-18.5199
 30
0.0
  0
SPLINE
  5
A3
330
1F
100
AcDbEntity
  8
ROUND
 62
   250
100
AcDbSpline
210
0.0
220
0.0
230
1.0
 70
    24
 71
     3
 72
     8
 73
     4
 74
     0
 42
0.0000000001
 43
0.0000000001
 40
0.0
 40
0.0
 40
0.0
 40
0.0
 40
1.0
 40
1.0
 40
1.0
 40
1.0
 10
-38.7504
 20
-18.5199
 30
0.0
 10
-38.7504
 20
-18.5199
 30
0.0
 10
-38.4763
 20
-18.5199
 30
0.0
 10
-38.4763
 20
-18.5199
 30
0.0
  0
SPLINE
  5
A4
330
1F
100
AcDbEntity
  8
ROUND
 62
   250
100
AcDbSpline
210
0.0
220
0.0
230
1.0
 70
    24
 71
     3
 72
     8
 73
     4
 74
     0
 42
0.0000000001
 43
0.0000000001
 40
0.0
 40
0.0
 40
0.0
 40
0.0
 40
1.0
 40
1.0
 40
1.0
 40
1.0
 10
-40.5589
 20
9.8123
 30
0.0
 10
-40.5589
 20
9.8123
 30
0.0
 10
-40.2848
 20
9.8123
 30
0.0
 10
-40.2848
 20
9.8123
 30
0.0
  0
SPLINE
  5
A5
330
1F
100
AcDbEntity
  8
ROUND
 62
   250
100
AcDbSpline
210
0.0
220
0.0
230
1.0
 70
    24
 71
     3
 72
     8
 73
     4
 74
     0
 42
0.0000000001
 43
0.0000000001
 40
0.0
 40
0.0
 40
0.0
 40
0.0
 40
1.0
 40
1.0
 40
1.0
 40
1.0
 10
-39.956
 20
9.8123
 30
0.0
 10
-39.956
 20
9.8123
 30
0.0
 10
-39.6821
 20
9.8123
 30
0.0
 10
-39.6821
 20
9.8123
 30
0.0
  0
SPLINE
  5
A6
330
1F
100
AcDbEntity
  8
ROUND
 62
   250
100
AcDbSpline
210
0.0
220
0.0
230
1.0
 70
    24
 71
     3
 72
     8
 73
     4
 74
     0
 42
0.0000000001
 43
0.0000000001
 40
0.0
 40
0.0
 40
0.0
 40
0.0
 40
1.0
 40
1.0
 40
1.0
 40
1.0
 10
-39.3531
 20
9.8123
 30
0.0
 10
-39.3531
 20
9.8123
 30
0.0
 10
-39.0792
 20
9.8123
 30
0.0
 10
-39.0792
 20
9.8123
 30
0.0
  0
SPLINE
  5
A7
330
1F
100
AcDbEntity
  8
ROUND
 62
   250
100
AcDbSpline
210
0.0
220
0.0
230
1.0
 70
    24
 71
     3
 72
     8
 73
     4
 74
     0
 42
0.0000000001
 43
0.0000000001
 40
0.0
 40
0.0
 40
0.0
 40
0.0
 40
1.0
 40
1.0
 40
1.0
 40
1.0
 10
-38.7504
 20
9.8123
 30
0.0
 10
-38.7504
 20
9.8123
 30
0.0
 10
-38.4763
 20
9.8123
 30
0.0
 10
-38.4763
 20
9.8123
 30
0.0
  0
SPLINE
  5
A8
330
1F
100
AcDbEntity
  8
ROUND
 62
   250
100
AcDbSpline
210
0.0
220
0.0
230
1.0
 70
    24
 71
     3
 72
     8
 73
     4
 74
     0
 42
0.0000000001
 43
0.0000000001
 40
0.0
 40
0.0
 40
0.0
 40
0.0
 40
1.0
 40
1.0
 40
1.0
 40
1.0
 10
-40.9013
 20
9.8946
 30
0.0
 10
-40.9013
 20
9.8946
 30
0.0
 10
-40.5589
 20
9.8946
 30
0.0
 10
-40.5589
 20
9.8946
 30
0.0
  0
SPLINE
  5
A9
330
1F
100
AcDbEntity
  8
ROUND
 62
   250
100
AcDbSpline
210
0.0
220
0.0
230
1.0
 70
    24
 71
     3
 72
     8
 73
     4
 74
     0
 42
0.0000000001
 43
0.0000000001
 40
0.0
 40
0.0
 40
0.0
 40
0.0
 40
1.0
 40
1.0
 40
1.0
 40
1.0
 10
-40.2848
 20
9.8946
 30
0.0
 10
-40.2848
 20
9.8946
 30
0.0
 10
-39.956
 20
9.8946
 30
0.0
 10
-39.956
 20
9.8946
 30
0.0
  0
SPLINE
  5
AA
330
1F
100
AcDbEntity
  8
ROUND
 62
   250
100
AcDbSpline
210
0.0
220
0.0
230
1.0
 70
    24
 71
     3
 72
     8
 73
     4
 74
     0
 42
0.0000000001
 43
0.0000000001
 40
0.0
 40
0.0
 40
0.0
 40
0.0
 40
1.0
 40
1.0
 40
1.0
 40
1.0
 10
-39.6821
 20
9.8946
 30
0.0
 10
-39.6821
 20
9.8946
 30
0.0
 10
-39.3531
 20
9.8946
 30
0.0
 10
-39.3531
 20
9.8946
 30
0.0
  0
SPLINE
  5
AB
330
1F
100
AcDbEntity
  8
ROUND
 62
   250
100
AcDbSpline
210
0.0
220
0.0
230
1.0
 70
    24
 71
     3
 72
     8
 73
     4
 74
     0
 42
0.0000000001
 43
0.0000000001
 40
0.0
 40
0.0
 40
0.0
 40
0.0
 40
1.0
 40
1.0
 40
1.0
 40
1.0
 10
-39.0792
 20
9.8946
 30
0.0
 10
-39.0792
 20
9.8946
 30
0.0
 10
-38.7504
 20
9.8946
 30
0.0
 10
-38.7504
 20
9.8946
 30
0.0
  0
SPLINE
  5
AC
330
1F
100
AcDbEntity
  8
ROUND
 62
   250
100
AcDbSpline
210
0.0
220
0.0
230
1.0
 70
    24
 71
     3
 72
     8
 73
     4
 74
     0
 42
0.0000000001
 43
0.0000000001
 40
0.0
 40
0.0
 40
0.0
 40
0.0
 40
1.0
 40
1.0
 40
1.0
 40
1.0
 10
-38.4763
 20
9.8946
 30
0.0
 10
-38.4763
 20
9.8946
 30
0.0
 10
-38.1613
 20
9.8946
 30
0.0
 10
-38.1613
 20
9.8946
 30
0.0
  0
SPLINE
  5
AD
330
1F
100
AcDbEntity
  8
ROUND
 62
   250
100
AcDbSpline
210
0.0
220
0.0
230
1.0
 70
    24
 71
     3
 72
     8
 73
     4
 74
     0
 42
0.0000000001
 43
0.0000000001
 40
0.0
 40
0.0
 40
0.0
 40
0.0
 40
1.0
 40
1.0
 40
1.0
 40
1.0
 10
-40.9971
 20
-17.5061
 30
0.0
 10
-40.9971
 20
-17.5061
 30
0.0
 10
-40.9013
 20
-18.6022
 30
0.0
 10
-40.9013
 20
-18.6022
 30
0.0
  0
SPLINE
  5
AE
330
1F
100
AcDbEntity
  8
ROUND
 62
   250
100
AcDbSpline
210
0.0
220
0.0
230
1.0
 70
    24
 71
     3
 72
     8
 73
     4
 74
     0
 42
0.0000000001
 43
0.0000000001
 40
0.0
 40
0.0
 40
0.0
 40
0.0
 40
1.0
 40
1.0
 40
1.0
 40
1.0
 10
-38.1613
 20
9.8946
 30
0.0
 10
-38.1613
 20
9.8946
 30
0.0
 10
-38.0653
 20
8.7985
 30
0.0
 10
-38.0653
 20
8.7985
 30
0.0
  0
SPLINE
  5
AF
330
1F
100
AcDbEntity
  8
ROUND
 62
   250
100
AcDbSpline
210
0.0
220
0.0
230
1.0
 70
    24
 71
     3
 72
     8
 73
     4
 74
     0
 42
0.0000000001
 43
0.0000000001
 40
0.0
 40
0.0
 40
0.0
 40
0.0
 40
1.0
 40
1.0
 40
1.0
 40
1.0
 10
-40.9971
 20
-17.5061
 30
0.0
 10
-40.9971
 20
-17.5061
 30
0.0
 10
-40.9971
 20
8.7985
 30
0.0
 10
-40.9971
 20
8.7985
 30
0.0
  0
SPLINE
  5
B0
330
1F
100
AcDbEntity
  8
ROUND
 62
   250
100
AcDbSpline
210
0.0
220
0.0
230
1.0
 70
    24
 71
     3
 72
     8
 73
     4
 74
     0
 42
0.0000000001
 43
0.0000000001
 40
0.0
 40
0.0
 40
0.0
 40
0.0
 40
1.0
 40
1.0
 40
1.0
 40
1.0
 10
-38.0653
 20
-17.5061
 30
0.0
 10
-38.0653
 20
-17.5061
 30
0.0
 10
-38.0653
 20
8.7985
 30
0.0
 10
-38.0653
 20
8.7985
 30
0.0
  0
SPLINE
  5
B1
330
1F
100
AcDbEntity
  8
ROUND
 62
   250
100
AcDbSpline
210
0.0
220
0.0
230
1.0
 70
    24
 71
     3
 72
     8
 73
     4
 74
     0
 42
0.0000000001
 43
0.0000000001
 40
0.0
 40
0.0
 40
0.0
 40
0.0
 40
1.0
 40
1.0
 40
1.0
 40
1.0
 10
-40.9971
 20
8.7985
 30
0.0
 10
-40.9971
 20
8.7985
 30
0.0
 10
-40.9013
 20
9.8946
 30
0.0
 10
-40.9013
 20
9.8946
 30
0.0
  0
SPLINE
  5
B2
330
1F
100
AcDbEntity
  8
ROUND
 62
   250
100
AcDbSpline
210
0.0
220
0.0
230
1.0
 70
    24
 71
     3
 72
     8
 73
     4
 74
     0
 42
0.0000000001
 43
0.0000000001
 40
0.0
 40
0.0
 40
0.0
 40
0.0
 40
1.0
 40
1.0
 40
1.0
 40
1.0
 10
-38.1613
 20
-18.6022
 30
0.0
 10
-38.1613
 20
-18.6022
 30
0.0
 10
-38.0653
 20
-17.5061
 30
0.0
 10
-38.0653
 20
-17.5061
 30
0.0
  0
SPLINE
  5
B3
330
1F
100
AcDbEntity
  8
ROUND
 62
   250
100
AcDbSpline
210
0.0
220
0.0
230
1.0
 70
    24
 71
     3
 72
     8
 73
     4
 74
     0
 42
0.0000000001
 43
0.0000000001
 40
0.0
 40
0.0
 40
0.0
 40
0.0
 40
1.0
 40
1.0
 40
1.0
 40
1.0
 10
-33.0931
 20
8.5353
 30
0.0
 10
-33.0931
 20
8.5353
 30
0.0
 10
-33.0931
 20
20.6694
 30
0.0
 10
-33.0931
 20
20.6694
 30
0.0
  0
SPLINE
  5
B4
330
1F
100
AcDbEntity
  8
ROUND
 62
   250
100
AcDbSpline
210
0.0
220
0.0
230
1.0
 70
    24
 71
     3
 72
     8
 73
     4
 74
     0
 42
0.0000000001
 43
0.0000000001
 40
0.0
 40
0.0
 40
0.0
 40
0.0
 40
1.0
 40
1.0
 40
1.0
 40
1.0
 10
21.7275
 20
14.3515
 30
0.0
 10
21.7275
 20
14.3515
 30
0.0
 10
21.7275
 20
20.5775
 30
0.0
 10
21.7275
 20
20.5775
 30
0.0
  0
SPLINE
  5
B5
330
1F
100
AcDbEntity
  8
ROUND
 62
   250
100
AcDbSpline
210
0.0
220
0.0
230
1.0
 70
    24
 71
     3
 72
     8
 73
     4
 74
     0
 42
0.0000000001
 43
0.0000000001
 40
0.0
 40
0.0
 40
0.0
 40
0.0
 40
1.0
 40
1.0
 40
1.0
 40
1.0
 10
-44.8358
 20
-18.121
 30
0.0
 10
-44.8358
 20
-18.121
 30
0.0
 10
-44.8358
 20
9.2166
 30
0.0
 10
-44.8358
 20
9.2166
 30
0.0
  0
SPLINE
  5
B6
330
1F
100
AcDbEntity
  8
ROUND
 62
   250
100
AcDbSpline
210
0.0
220
0.0
230
1.0
 70
    11
 71
     3
 72
    20
 73
    16
 74
     0
 42
0.0000000001
 43
0.0000000001
 40
0.0
 40
0.0
 40
0.0
 40
0.0
 40
0.2
 40
0.2
 40
0.2
 40
0.2
 40
0.4
 40
0.4
 40
0.4
 40
0.4
 40
0.6
 40
0.6
 40
0.6
 40
0.6
 40
1.0
 40
1.0
 40
1.0
 40
1.0
 10
-44.0343
 20
-13.4545
 30
0.0
 10
-44.0343
 20
-13.4545
 30
0.0
 10
-44.717
 20
-18.2915
 30
0.0
 10
-44.717
 20
-18.2915
 30
0.0
 10
-44.717
 20
-18.2915
 30
0.0
 10
-44.717
 20
-18.2915
 30
0.0
 10
-44.8686
 20
-18.2915
 30
0.0
 10
-44.8686
 20
-18.2915
 30
0.0
 10
-44.8686
 20
-18.2915
 30
0.0
 10
-44.8686
 20
-18.2915
 30
0.0
 10
-45.5966
 20
-13.4545
 30
0.0
 10
-45.5966
 20
-13.4545
 30
0.0
 10
-45.5966
 20
-13.4545
 30
0.0
 10
-45.5966
 20
-13.4545
 30
0.0
 10
-44.0343
 20
-13.4545
 30
0.0
 10
-44.0343
 20
-13.4545
 30
0.0
  0
SPLINE
  5
B7
330
1F
100
AcDbEntity
  8
ROUND
 62
   250
100
AcDbSpline
210
0.0
220
0.0
230
1.0
 70
    11
 71
     3
 72
    20
 73
    16
 74
     0
 42
0.0000000001
 43
0.0000000001
 40
0.0
 40
0.0
 40
0.0
 40
0.0
 40
0.2
 40
0.2
 40
0.2
 40
0.2
 40
0.4
 40
0.4
 40
0.4
 40
0.4
 40
0.6
 40
0.6
 40
0.6
 40
0.6
 40
1.0
 40
1.0
 40
1.0
 40
1.0
 10
-45.5508
 20
4.9186
 30
0.0
 10
-45.5508
 20
4.9186
 30
0.0
 10
-44.8683
 20
9.7549
 30
0.0
 10
-44.8683
 20
9.7549
 30
0.0
 10
-44.8683
 20
9.7549
 30
0.0
 10
-44.8683
 20
9.7549
 30
0.0
 10
-44.7167
 20
9.7549
 30
0.0
 10
-44.7167
 20
9.7549
 30
0.0
 10
-44.7167
 20
9.7549
 30
0.0
 10
-44.7167
 20
9.7549
 30
0.0
 10
-43.9887
 20
4.9186
 30
0.0
 10
-43.9887
 20
4.9186
 30
0.0
 10
-43.9887
 20
4.9186
 30
0.0
 10
-43.9887
 20
4.9186
 30
0.0
 10
-45.5508
 20
4.9186
 30
0.0
 10
-45.5508
 20
4.9186
 30
0.0
  0
SPLINE
  5
B8
330
1F
100
AcDbEntity
  8
ROUND
 62
   250
100
AcDbSpline
210
0.0
220
0.0
230
1.0
 70
    11
 71
     3
 72
    84
 73
    80
 74
     0
 42
0.0000000001
 43
0.0000000001
 40
0.0
 40
0.0
 40
0.0
 40
0.0
 40
0.0476190476190476
 40
0.0476190476190476
 40
0.0476190476190476
 40
0.0476190476190476
 40
0.0952380952380952
 40
0.0952380952380952
 40
0.0952380952380952
 40
0.0952380952380952
 40
0.1428571428571428
 40
0.1428571428571428
 40
0.1428571428571428
 40
0.1428571428571428
 40
0.1904761904761905
 40
0.1904761904761905
 40
0.1904761904761905
 40
0.1904761904761905
 40
0.2380952380952381
 40
0.2380952380952381
 40
0.2380952380952381
 40
0.2380952380952381
 40
0.2857142857142857
 40
0.2857142857142857
 40
0.2857142857142857
 40
0.2857142857142857
 40
0.3333333333333333
 40
0.3333333333333333
 40
0.3333333333333333
 40
0.3333333333333333
 40
0.3809523809523809
 40
0.3809523809523809
 40
0.3809523809523809
 40
0.3809523809523809
 40
0.4285714285714285
 40
0.4285714285714285
 40
0.4285714285714285
 40
0.4285714285714285
 40
0.4761904761904762
 40
0.4761904761904762
 40
0.4761904761904762
 40
0.4761904761904762
 40
0.5238095238095238
 40
0.5238095238095238
 40
0.5238095238095238
 40
0.5238095238095238
 40
0.5714285714285714
 40
0.5714285714285714
 40
0.5714285714285714
 40
0.5714285714285714
 40
0.6190476190476191
 40
0.6190476190476191
 40
0.6190476190476191
 40
0.6190476190476191
 40
0.6666666666666666
 40
0.6666666666666666
 40
0.6666666666666666
 40
0.6666666666666666
 40
0.7142857142857143
 40
0.7142857142857143
 40
0.7142857142857143
 40
0.7142857142857143
 40
0.7619047619047619
 40
0.7619047619047619
 40
0.7619047619047619
 40
0.7619047619047619
 40
0.8095238095238095
 40
0.8095238095238095
 40
0.8095238095238095
 40
0.8095238095238095
 40
0.8571428571428571
 40
0.8571428571428571
 40
0.8571428571428571
 40
0.8571428571428571
 40
0.9047619047619048
 40
0.9047619047619048
 40
0.9047619047619048
 40
0.9047619047619048
 40
1.0
 40
1.0
 40
1.0
 40
1.0
 10
-48.3116
 20
-5.8257
 30
0.0
 10
-48.3116
 20
-5.8257
 30
0.0
 10
-48.7294
 20
-5.4526
 30
0.0
 10
-48.7294
 20
-5.4526
 30
0.0
 10
-48.7294
 20
-5.4526
 30
0.0
 10
-48.7294
 20
-5.4526
 30
0.0
 10
-48.5428
 20
-5.2327
 30
0.0
 10
-48.5428
 20
-5.2327
 30
0.0
 10
-48.5428
 20
-5.2327
 30
0.0
 10
-48.5428
 20
-5.2327
 30
0.0
 10
-48.103
 20
-5.6234
 30
0.0
 10
-48.103
 20
-5.6234
 30
0.0
 10
-48.103
 20
-5.6234
 30
0.0
 10
-47.9134
 20
-5.4958
 30
0.0
 10
-47.7473
 20
-5.4102
 30
0.0
 10
-47.6056
 20
-5.3654
 30
0.0
 10
-47.6056
 20
-5.3654
 30
0.0
 10
-47.4189
 20
-5.3062
 30
0.0
 10
-47.2096
 20
-5.2767
 30
0.0
 10
-46.979
 20
-5.2767
 30
0.0
 10
-46.979
 20
-5.2767
 30
0.0
 10
-46.6454
 20
-5.2767
 30
0.0
 10
-46.3481
 20
-5.3443
 30
0.0
 10
-46.0879
 20
-5.4792
 30
0.0
 10
-46.0879
 20
-5.4792
 30
0.0
 10
-45.827
 20
-5.6142
 30
0.0
 10
-45.6298
 20
-5.803
 30
0.0
 10
-45.4964
 20
-6.0465
 30
0.0
 10
-45.4964
 20
-6.0465
 30
0.0
 10
-45.3636
 20
-6.2907
 30
0.0
 10
-45.297
 20
-6.5494
 30
0.0
 10
-45.297
 20
-6.8231
 30
0.0
 10
-45.297
 20
-6.8231
 30
0.0
 10
-45.297
 20
-7.0279
 30
0.0
 10
-45.3257
 20
-7.2129
 30
0.0
 10
-45.3834
 20
-7.3789
 30
0.0
 10
-45.3834
 20
-7.3789
 30
0.0
 10
-45.4281
 20
-7.5065
 30
0.0
 10
-45.513
 20
-7.655
 30
0.0
 10
-45.639
 20
-7.8257
 30
0.0
 10
-45.639
 20
-7.8257
 30
0.0
 10
-45.639
 20
-7.8257
 30
0.0
 10
-45.221
 20
-8.1988
 30
0.0
 10
-45.221
 20
-8.1988
 30
0.0
 10
-45.221
 20
-8.1988
 30
0.0
 10
-45.221
 20
-8.1988
 30
0.0
 10
-45.4076
 20
-8.4188
 30
0.0
 10
-45.4076
 20
-8.4188
 30
0.0
 10
-45.4076
 20
-8.4188
 30
0.0
 10
-45.4076
 20
-8.4188
 30
0.0
 10
-45.8452
 20
-8.0274
 30
0.0
 10
-45.8452
 20
-8.0274
 30
0.0
 10
-45.8452
 20
-8.0274
 30
0.0
 10
-46.0659
 20
-8.173
 30
0.0
 10
-46.2547
 20
-8.2701
 30
0.0
 10
-46.411
 20
-8.3186
 30
0.0
 10
-46.411
 20
-8.3186
 30
0.0
 10
-46.5672
 20
-8.3672
 30
0.0
 10
-46.7554
 20
-8.3923
 30
0.0
 10
-46.9745
 20
-8.3923
 30
0.0
 10
-46.9745
 20
-8.3923
 30
0.0
 10
-47.3089
 20
-8.3923
 30
0.0
 10
-47.607
 20
-8.3256
 30
0.0
 10
-47.8687
 20
-8.1921
 30
0.0
 10
-47.8687
 20
-8.1921
 30
0.0
 10
-48.1302
 20
-8.0585
 30
0.0
 10
-48.3282
 20
-7.872
 30
0.0
 10
-48.4632
 20
-7.6308
 30
0.0
 10
-48.4632
 20
-7.6308
 30
0.0
 10
-48.5975
 20
-7.3904
 30
0.0
 10
-48.6649
 20
-7.1226
 30
0.0
 10
-48.6649
 20
-6.8277
 30
0.0
 10
-48.6649
 20
-6.8277
 30
0.0
 10
-48.6649
 20
-6.629
 30
0.0
 10
-48.6391
 20
-6.4552
 30
0.0
 10
-48.5861
 20
-6.3065
 30
0.0
 10
-48.5861
 20
-6.3065
 30
0.0
 10
-48.5338
 20
-6.158
 30
0.0
 10
-48.4419
 20
-5.9971
 30
0.0
 10
-48.3116
 20
-5.8257
 30
0.0
  0
SPLINE
  5
B9
330
1F
100
AcDbEntity
  8
ROUND
 62
   250
100
AcDbSpline
210
0.0
220
0.0
230
1.0
 70
    11
 71
     3
 72
    32
 73
    28
 74
     0
 42
0.0000000001
 43
0.0000000001
 40
0.0
 40
0.0
 40
0.0
 40
0.0
 40
0.125
 40
0.125
 40
0.125
 40
0.125
 40
0.25
 40
0.25
 40
0.25
 40
0.25
 40
0.375
 40
0.375
 40
0.375
 40
0.375
 40
0.5
 40
0.5
 40
0.5
 40
0.5
 40
0.625
 40
0.625
 40
0.625
 40
0.625
 40
0.75
 40
0.75
 40
0.75
 40
0.75
 40
1.0
 40
1.0
 40
1.0
 40
1.0
 10
-48.0121
 20
-6.0919
 30
0.0
 10
-48.1212
 20
-6.2316
 30
0.0
 10
-48.1964
 20
-6.3536
 30
0.0
 10
-48.2365
 20
-6.4575
 30
0.0
 10
-48.2365
 20
-6.4575
 30
0.0
 10
-48.2758
 20
-6.5623
 30
0.0
 10
-48.2963
 20
-6.6851
 30
0.0
 10
-48.2963
 20
-6.8254
 30
0.0
 10
-48.2963
 20
-6.8254
 30
0.0
 10
-48.2963
 20
-7.15
 30
0.0
 10
-48.1864
 20
-7.4176
 30
0.0
 10
-47.9664
 20
-7.63
 30
0.0
 10
-47.9664
 20
-7.63
 30
0.0
 10
-47.7465
 20
-7.8415
 30
0.0
 10
-47.4182
 20
-7.9478
 30
0.0
 10
-46.9806
 20
-7.9478
 30
0.0
 10
-46.9806
 20
-7.9478
 30
0.0
 10
-46.8092
 20
-7.9478
 30
0.0
 10
-46.6567
 20
-7.9312
 30
0.0
 10
-46.5232
 20
-7.8984
 30
0.0
 10
-46.5232
 20
-7.8984
 30
0.0
 10
-46.4239
 20
-7.8751
 30
0.0
 10
-46.3018
 20
-7.8257
 30
0.0
 10
-46.157
 20
-7.7498
 30
0.0
 10
-46.157
 20
-7.7498
 30
0.0
 10
-46.157
 20
-7.7498
 30
0.0
 10
-48.0121
 20
-6.0919
 30
0.0
 10
-48.0121
 20
-6.0919
 30
0.0
  0
SPLINE
  5
BA
330
1F
100
AcDbEntity
  8
ROUND
 62
   250
100
AcDbSpline
210
0.0
220
0.0
230
1.0
 70
    11
 71
     3
 72
    28
 73
    24
 74
     0
 42
0.0000000001
 43
0.0000000001
 40
0.0
 40
0.0
 40
0.0
 40
0.0
 40
0.1428571428571428
 40
0.1428571428571428
 40
0.1428571428571428
 40
0.1428571428571428
 40
0.2857142857142857
 40
0.2857142857142857
 40
0.2857142857142857
 40
0.2857142857142857
 40
0.4285714285714285
 40
0.4285714285714285
 40
0.4285714285714285
 40
0.4285714285714285
 40
0.5714285714285714
 40
0.5714285714285714
 40
0.5714285714285714
 40
0.5714285714285714
 40
0.7142857142857143
 40
0.7142857142857143
 40
0.7142857142857143
 40
0.7142857142857143
 40
1.0
 40
1.0
 40
1.0
 40
1.0
 10
-47.7829
 20
-5.9099
 30
0.0
 10
-47.7829
 20
-5.9099
 30
0.0
 10
-45.9347
 20
-7.561
 30
0.0
 10
-45.9347
 20
-7.561
 30
0.0
 10
-45.9347
 20
-7.561
 30
0.0
 10
-45.8415
 20
-7.4473
 30
0.0
 10
-45.7762
 20
-7.3418
 30
0.0
 10
-45.7391
 20
-7.2456
 30
0.0
 10
-45.7391
 20
-7.2456
 30
0.0
 10
-45.6898
 20
-7.1197
 30
0.0
 10
-45.6654
 20
-6.9831
 30
0.0
 10
-45.6654
 20
-6.8367
 30
0.0
 10
-45.6654
 20
-6.8367
 30
0.0
 10
-45.6654
 20
-6.5136
 30
0.0
 10
-45.7792
 20
-6.2474
 30
0.0
 10
-46.0076
 20
-6.0366
 30
0.0
 10
-46.0076
 20
-6.0366
 30
0.0
 10
-46.2359
 20
-5.8265
 30
0.0
 10
-46.5559
 20
-5.7211
 30
0.0
 10
-46.9677
 20
-5.7211
 30
0.0
 10
-46.9677
 20
-5.7211
 30
0.0
 10
-47.2755
 20
-5.7211
 30
0.0
 10
-47.5479
 20
-5.7841
 30
0.0
 10
-47.7829
 20
-5.9099
 30
0.0
  0
SPLINE
  5
BB
330
1F
100
AcDbEntity
  8
ROUND
 62
   250
100
AcDbSpline
210
0.0
220
0.0
230
1.0
 70
    11
 71
     3
 72
    40
 73
    36
 74
     0
 42
0.0000000001
 43
0.0000000001
 40
0.0
 40
0.0
 40
0.0
 40
0.0
 40
0.1
 40
0.1
 40
0.1
 40
0.1
 40
0.2
 40
0.2
 40
0.2
 40
0.2
 40
0.3
 40
0.3
 40
0.3
 40
0.3
 40
0.4
 40
0.4
 40
0.4
 40
0.4
 40
0.5
 40
0.5
 40
0.5
 40
0.5
 40
0.6
 40
0.6
 40
0.6
 40
0.6
 40
0.7
 40
0.7
 40
0.7
 40
0.7
 40
0.8
 40
0.8
 40
0.8
 40
0.8
 40
1.0
 40
1.0
 40
1.0
 40
1.0
 10
-45.3523
 20
-3.3686
 30
0.0
 10
-45.3523
 20
-3.3686
 30
0.0
 10
-45.3523
 20
-3.7682
 30
0.0
 10
-45.3523
 20
-3.7682
 30
0.0
 10
-45.3523
 20
-3.7682
 30
0.0
 10
-45.3523
 20
-3.7682
 30
0.0
 10
-47.9005
 20
-3.7682
 30
0.0
 10
-47.9005
 20
-3.7682
 30
0.0
 10
-47.9005
 20
-3.7682
 30
0.0
 10
-47.8087
 20
-3.8646
 30
0.0
 10
-47.717
 20
-3.9905
 30
0.0
 10
-47.6252
 20
-4.1468
 30
0.0
 10
-47.6252
 20
-4.1468
 30
0.0
 10
-47.5335
 20
-4.3037
 30
0.0
 10
-47.4643
 20
-4.4439
 30
0.0
 10
-47.4189
 20
-4.5684
 30
0.0
 10
-47.4189
 20
-4.5684
 30
0.0
 10
-47.4189
 20
-4.5684
 30
0.0
 10
-47.805
 20
-4.5684
 30
0.0
 10
-47.805
 20
-4.5684
 30
0.0
 10
-47.805
 20
-4.5684
 30
0.0
 10
-47.9103
 20
-4.3446
 30
0.0
 10
-48.0377
 20
-4.149
 30
0.0
 10
-48.1872
 20
-3.9813
 30
0.0
 10
-48.1872
 20
-3.9813
 30
0.0
 10
-48.3373
 20
-3.8145
 30
0.0
 10
-48.4822
 20
-3.6955
 30
0.0
 10
-48.6233
 20
-3.6257
 30
0.0
 10
-48.6233
 20
-3.6257
 30
0.0
 10
-48.6233
 20
-3.6257
 30
0.0
 10
-48.6233
 20
-3.3686
 30
0.0
 10
-48.6233
 20
-3.3686
 30
0.0
 10
-48.6233
 20
-3.3686
 30
0.0
 10
-48.6233
 20
-3.3686
 30
0.0
 10
-45.3523
 20
-3.3686
 30
0.0
 10
-45.3523
 20
-3.3686
 30
0.0
  0
SPLINE
  5
BC
330
1F
100
AcDbEntity
  8
ROUND
 62
   250
100
AcDbSpline
210
0.0
220
0.0
230
1.0
 70
    11
 71
     3
 72
    52
 73
    48
 74
     0
 42
0.0000000001
 43
0.0000000001
 40
0.0
 40
0.0
 40
0.0
 40
0.0
 40
0.0769230769230769
 40
0.0769230769230769
 40
0.0769230769230769
 40
0.0769230769230769
 40
0.1538461538461539
 40
0.1538461538461539
 40
0.1538461538461539
 40
0.1538461538461539
 40
0.2307692307692308
 40
0.2307692307692308
 40
0.2307692307692308
 40
0.2307692307692308
 40
0.3076923076923077
 40
0.3076923076923077
 40
0.3076923076923077
 40
0.3076923076923077
 40
0.3846153846153846
 40
0.3846153846153846
 40
0.3846153846153846
 40
0.3846153846153846
 40
0.4615384615384616
 40
0.4615384615384616
 40
0.4615384615384616
 40
0.4615384615384616
 40
0.5384615384615384
 40
0.5384615384615384
 40
0.5384615384615384
 40
0.5384615384615384
 40
0.6153846153846154
 40
0.6153846153846154
 40
0.6153846153846154
 40
0.6153846153846154
 40
0.6923076923076923
 40
0.6923076923076923
 40
0.6923076923076923
 40
0.6923076923076923
 40
0.7692307692307693
 40
0.7692307692307693
 40
0.7692307692307693
 40
0.7692307692307693
 40
0.8461538461538461
 40
0.8461538461538461
 40
0.8461538461538461
 40
0.8461538461538461
 40
1.0
 40
1.0
 40
1.0
 40
1.0
 10
-46.9585
 20
-2.344
 30
0.0
 10
-47.3439
 20
-2.344
 30
0.0
 10
-47.6541
 20
-2.3045
 30
0.0
 10
-47.8884
 20
-2.2248
 30
0.0
 10
-47.8884
 20
-2.2248
 30
0.0
 10
-48.1235
 20
-2.146
 30
0.0
 10
-48.3047
 20
-2.0278
 30
0.0
 10
-48.4321
 20
-1.8716
 30
0.0
 10
-48.4321
 20
-1.8716
 30
0.0
 10
-48.5596
 20
-1.7153
 30
0.0
 10
-48.6233
 20
-1.5188
 30
0.0
 10
-48.6233
 20
-1.2822
 30
0.0
 10
-48.6233
 20
-1.2822
 30
0.0
 10
-48.6233
 20
-1.107
 30
0.0
 10
-48.5877
 20
-0.9538
 30
0.0
 10
-48.5171
 20
-0.8219
 30
0.0
 10
-48.5171
 20
-0.8219
 30
0.0
 10
-48.4472
 20
-0.6899
 30
0.0
 10
-48.3457
 20
-0.5815
 30
0.0
 10
-48.213
 20
-0.4951
 30
0.0
 10
-48.213
 20
-0.4951
 30
0.0
 10
-48.0803
 20
-0.4093
 30
0.0
 10
-47.9187
 20
-0.3417
 30
0.0
 10
-47.7283
 20
-0.2932
 30
0.0
 10
-47.7283
 20
-0.2932
 30
0.0
 10
-47.538
 20
-0.244
 30
0.0
 10
-47.2817
 20
-0.2197
 30
0.0
 10
-46.9585
 20
-0.2197
 30
0.0
 10
-46.9585
 20
-0.2197
 30
0.0
 10
-46.5764
 20
-0.2197
 30
0.0
 10
-46.2684
 20
-0.2592
 30
0.0
 10
-46.0334
 20
-0.3372
 30
0.0
 10
-46.0334
 20
-0.3372
 30
0.0
 10
-45.7983
 20
-0.4161
 30
0.0
 10
-45.6169
 20
-0.5336
 30
0.0
 10
-45.4889
 20
-0.6899
 30
0.0
 10
-45.4889
 20
-0.6899
 30
0.0
 10
-45.3607
 20
-0.8461
 30
0.0
 10
-45.297
 20
-1.0433
 30
0.0
 10
-45.297
 20
-1.2822
 30
0.0
 10
-45.297
 20
-1.2822
 30
0.0
 10
-45.297
 20
-1.5962
 30
0.0
 10
-45.4092
 20
-1.8427
 30
0.0
 10
-45.6345
 20
-2.0217
 30
0.0
 10
-45.6345
 20
-2.0217
 30
0.0
 10
-45.9052
 20
-2.2363
 30
0.0
 10
-46.3473
 20
-2.344
 30
0.0
 10
-46.9585
 20
-2.344
 30
0.0
  0
SPLINE
  5
BD
330
1F
100
AcDbEntity
  8
ROUND
 62
   250
100
AcDbSpline
210
0.0
220
0.0
230
1.0
 70
    11
 71
     3
 72
    36
 73
    32
 74
     0
 42
0.0000000001
 43
0.0000000001
 40
0.0
 40
0.0
 40
0.0
 40
0.0
 40
0.1111111111111111
 40
0.1111111111111111
 40
0.1111111111111111
 40
0.1111111111111111
 40
0.2222222222222222
 40
0.2222222222222222
 40
0.2222222222222222
 40
0.2222222222222222
 40
0.3333333333333333
 40
0.3333333333333333
 40
0.3333333333333333
 40
0.3333333333333333
 40
0.4444444444444444
 40
0.4444444444444444
 40
0.4444444444444444
 40
0.4444444444444444
 40
0.5555555555555556
 40
0.5555555555555556
 40
0.5555555555555556
 40
0.5555555555555556
 40
0.6666666666666666
 40
0.6666666666666666
 40
0.6666666666666666
 40
0.6666666666666666
 40
0.7777777777777778
 40
0.7777777777777778
 40
0.7777777777777778
 40
0.7777777777777778
 40
1.0
 40
1.0
 40
1.0
 40
1.0
 10
-46.9585
 20
-1.933
 30
0.0
 10
-46.4239
 20
-1.933
 30
0.0
 10
-46.0682
 20
-1.8699
 30
0.0
 10
-45.8908
 20
-1.7448
 30
0.0
 10
-45.8908
 20
-1.7448
 30
0.0
 10
-45.7141
 20
-1.6197
 30
0.0
 10
-45.6253
 20
-1.4657
 30
0.0
 10
-45.6253
 20
-1.2822
 30
0.0
 10
-45.6253
 20
-1.2822
 30
0.0
 10
-45.6253
 20
-1.0979
 30
0.0
 10
-45.7148
 20
-0.944
 30
0.0
 10
-45.8923
 20
-0.8188
 30
0.0
 10
-45.8923
 20
-0.8188
 30
0.0
 10
-46.0698
 20
-0.6937
 30
0.0
 10
-46.4255
 20
-0.6307
 30
0.0
 10
-46.9585
 20
-0.6307
 30
0.0
 10
-46.9585
 20
-0.6307
 30
0.0
 10
-47.4948
 20
-0.6307
 30
0.0
 10
-47.8511
 20
-0.6937
 30
0.0
 10
-48.0272
 20
-0.8188
 30
0.0
 10
-48.0272
 20
-0.8188
 30
0.0
 10
-48.2039
 20
-0.944
 30
0.0
 10
-48.2918
 20
-1.0994
 30
0.0
 10
-48.2918
 20
-1.2861
 30
0.0
 10
-48.2918
 20
-1.2861
 30
0.0
 10
-48.2918
 20
-1.4702
 30
0.0
 10
-48.2138
 20
-1.6166
 30
0.0
 10
-48.0583
 20
-1.7266
 30
0.0
 10
-48.0583
 20
-1.7266
 30
0.0
 10
-47.8603
 20
-1.864
 30
0.0
 10
-47.4932
 20
-1.933
 30
0.0
 10
-46.9585
 20
-1.933
 30
0.0
  0
SPLINE
  5
BE
330
1F
100
AcDbEntity
  8
ROUND
 62
   250
100
AcDbSpline
210
0.0
220
0.0
230
1.0
 70
    11
 71
     3
 72
    48
 73
    44
 74
     0
 42
0.0000000001
 43
0.0000000001
 40
0.0
 40
0.0
 40
0.0
 40
0.0
 40
0.0833333333333333
 40
0.0833333333333333
 40
0.0833333333333333
 40
0.0833333333333333
 40
0.1666666666666667
 40
0.1666666666666667
 40
0.1666666666666667
 40
0.1666666666666667
 40
0.25
 40
0.25
 40
0.25
 40
0.25
 40
0.3333333333333333
 40
0.3333333333333333
 40
0.3333333333333333
 40
0.3333333333333333
 40
0.4166666666666667
 40
0.4166666666666667
 40
0.4166666666666667
 40
0.4166666666666667
 40
0.5
 40
0.5
 40
0.5
 40
0.5
 40
0.5833333333333334
 40
0.5833333333333334
 40
0.5833333333333334
 40
0.5833333333333334
 40
0.6666666666666666
 40
0.6666666666666666
 40
0.6666666666666666
 40
0.6666666666666666
 40
0.75
 40
0.75
 40
0.75
 40
0.75
 40
0.8333333333333334
 40
0.8333333333333334
 40
0.8333333333333334
 40
0.8333333333333334
 40
1.0
 40
1.0
 40
1.0
 40
1.0
 10
-45.3523
 20
1.4685
 30
0.0
 10
-45.3523
 20
1.4685
 30
0.0
 10
-46.1319
 20
1.4685
 30
0.0
 10
-46.1319
 20
1.4685
 30
0.0
 10
-46.1319
 20
1.4685
 30
0.0
 10
-46.1319
 20
1.4685
 30
0.0
 10
-46.1319
 20
0.0555
 30
0.0
 10
-46.1319
 20
0.0555
 30
0.0
 10
-46.1319
 20
0.0555
 30
0.0
 10
-46.1319
 20
0.0555
 30
0.0
 10
-46.499
 20
0.0555
 30
0.0
 10
-46.499
 20
0.0555
 30
0.0
 10
-46.499
 20
0.0555
 30
0.0
 10
-46.499
 20
0.0555
 30
0.0
 10
-48.6096
 20
1.542
 30
0.0
 10
-48.6096
 20
1.542
 30
0.0
 10
-48.6096
 20
1.542
 30
0.0
 10
-48.6096
 20
1.542
 30
0.0
 10
-48.6096
 20
1.869
 30
0.0
 10
-48.6096
 20
1.869
 30
0.0
 10
-48.6096
 20
1.869
 30
0.0
 10
-48.6096
 20
1.869
 30
0.0
 10
-46.499
 20
1.869
 30
0.0
 10
-46.499
 20
1.869
 30
0.0
 10
-46.499
 20
1.869
 30
0.0
 10
-46.499
 20
1.869
 30
0.0
 10
-46.499
 20
2.3088
 30
0.0
 10
-46.499
 20
2.3088
 30
0.0
 10
-46.499
 20
2.3088
 30
0.0
 10
-46.499
 20
2.3088
 30
0.0
 10
-46.1319
 20
2.3088
 30
0.0
 10
-46.1319
 20
2.3088
 30
0.0
 10
-46.1319
 20
2.3088
 30
0.0
 10
-46.1319
 20
2.3088
 30
0.0
 10
-46.1319
 20
1.869
 30
0.0
 10
-46.1319
 20
1.869
 30
0.0
 10
-46.1319
 20
1.869
 30
0.0
 10
-46.1319
 20
1.869
 30
0.0
 10
-45.3523
 20
1.869
 30
0.0
 10
-45.3523
 20
1.869
 30
0.0
 10
-45.3523
 20
1.869
 30
0.0
 10
-45.3523
 20
1.869
 30
0.0
 10
-45.3523
 20
1.4685
 30
0.0
 10
-45.3523
 20
1.4685
 30
0.0
  0
SPLINE
  5
BF
330
1F
100
AcDbEntity
  8
ROUND
 62
   250
100
AcDbSpline
210
0.0
220
0.0
230
1.0
 70
    11
 71
     3
 72
    16
 73
    12
 74
     0
 42
0.0000000001
 43
0.0000000001
 40
0.0
 40
0.0
 40
0.0
 40
0.0
 40
0.25
 40
0.25
 40
0.25
 40
0.25
 40
0.5
 40
0.5
 40
0.5
 40
0.5
 40
1.0
 40
1.0
 40
1.0
 40
1.0
 10
-46.499
 20
1.4685
 30
0.0
 10
-46.499
 20
1.4685
 30
0.0
 10
-47.9672
 20
1.4685
 30
0.0
 10
-47.9672
 20
1.4685
 30
0.0
 10
-47.9672
 20
1.4685
 30
0.0
 10
-47.9672
 20
1.4685
 30
0.0
 10
-46.499
 20
0.4493
 30
0.0
 10
-46.499
 20
0.4493
 30
0.0
 10
-46.499
 20
0.4493
 30
0.0
 10
-46.499
 20
0.4493
 30
0.0
 10
-46.499
 20
1.4685
 30
0.0
 10
-46.499
 20
1.4685
 30
0.0
  0
SPLINE
  5
C0
330
1F
100
AcDbEntity
  8
ROUND
 62
   250
100
AcDbSpline
210
0.0
220
0.0
230
1.0
 70
    24
 71
     3
 72
     8
 73
     4
 74
     0
 42
0.0000000001
 43
0.0000000001
 40
0.0
 40
0.0
 40
0.0
 40
0.0
 40
1.0
 40
1.0
 40
1.0
 40
1.0
 10
-45.446
 20
9.9097
 30
0.0
 10
-45.446
 20
9.9097
 30
0.0
 10
-41.8335
 20
9.9097
 30
0.0
 10
-41.8335
 20
9.9097
 30
0.0
  0
SPLINE
  5
C1
330
1F
100
AcDbEntity
  8
ROUND
 62
   250
100
AcDbSpline
210
0.0
220
0.0
230
1.0
 70
    24
 71
     3
 72
     8
 73
     4
 74
     0
 42
0.0000000001
 43
0.0000000001
 40
0.0
 40
0.0
 40
0.0
 40
0.0
 40
1.0
 40
1.0
 40
1.0
 40
1.0
 10
-45.4026
 20
-18.5051
 30
0.0
 10
-45.4026
 20
-18.5051
 30
0.0
 10
-41.8335
 20
-18.5051
 30
0.0
 10
-41.8335
 20
-18.5051
 30
0.0
  0
SPLINE
  5
C2
330
1F
100
AcDbEntity
  8
ROUND
 62
   250
100
AcDbSpline
210
0.0
220
0.0
230
1.0
 70
    24
 71
     3
 72
     8
 73
     4
 74
     0
 42
0.0000000001
 43
0.0000000001
 40
0.0
 40
0.0
 40
0.0
 40
0.0
 40
1.0
 40
1.0
 40
1.0
 40
1.0
 10
42.5114
 20
-18.7884
 30
0.0
 10
42.5114
 20
-18.7884
 30
0.0
 10
42.5114
 20
9.7088
 30
0.0
 10
42.5114
 20
9.7088
 30
0.0
  0
SPLINE
  5
C3
330
1F
100
AcDbEntity
  8
ROUND
 62
   250
100
AcDbSpline
210
0.0
220
0.0
230
1.0
 70
    11
 71
     3
 72
    20
 73
    16
 74
     0
 42
0.0000000001
 43
0.0000000001
 40
0.0
 40
0.0
 40
0.0
 40
0.0
 40
0.2
 40
0.2
 40
0.2
 40
0.2
 40
0.4
 40
0.4
 40
0.4
 40
0.4
 40
0.6
 40
0.6
 40
0.6
 40
0.6
 40
1.0
 40
1.0
 40
1.0
 40
1.0
 10
43.2415
 20
-15.1393
 30
0.0
 10
43.2415
 20
-15.1393
 30
0.0
 10
42.5588
 20
-19.9772
 30
0.0
 10
42.5588
 20
-19.9772
 30
0.0
 10
42.5588
 20
-19.9772
 30
0.0
 10
42.5588
 20
-19.9772
 30
0.0
 10
42.4071
 20
-19.9772
 30
0.0
 10
42.4071
 20
-19.9772
 30
0.0
 10
42.4071
 20
-19.9772
 30
0.0
 10
42.4071
 20
-19.9772
 30
0.0
 10
41.679
 20
-15.1393
 30
0.0
 10
41.679
 20
-15.1393
 30
0.0
 10
41.679
 20
-15.1393
 30
0.0
 10
41.679
 20
-15.1393
 30
0.0
 10
43.2415
 20
-15.1393
 30
0.0
 10
43.2415
 20
-15.1393
 30
0.0
  0
SPLINE
  5
C4
330
1F
100
AcDbEntity
  8
ROUND
 62
   250
100
AcDbSpline
210
0.0
220
0.0
230
1.0
 70
    11
 71
     3
 72
    20
 73
    16
 74
     0
 42
0.0000000001
 43
0.0000000001
 40
0.0
 40
0.0
 40
0.0
 40
0.0
 40
0.2
 40
0.2
 40
0.2
 40
0.2
 40
0.4
 40
0.4
 40
0.4
 40
0.4
 40
0.6
 40
0.6
 40
0.6
 40
0.6
 40
1.0
 40
1.0
 40
1.0
 40
1.0
 10
41.726
 20
6.0611
 30
0.0
 10
41.726
 20
6.0611
 30
0.0
 10
42.4086
 20
10.8973
 30
0.0
 10
42.4086
 20
10.8973
 30
0.0
 10
42.4086
 20
10.8973
 30
0.0
 10
42.4086
 20
10.8973
 30
0.0
 10
42.5601
 20
10.8973
 30
0.0
 10
42.5601
 20
10.8973
 30
0.0
 10
42.5601
 20
10.8973
 30
0.0
 10
42.5601
 20
10.8973
 30
0.0
 10
43.2881
 20
6.0611
 30
0.0
 10
43.2881
 20
6.0611
 30
0.0
 10
43.2881
 20
6.0611
 30
0.0
 10
43.2881
 20
6.0611
 30
0.0
 10
41.726
 20
6.0611
 30
0.0
 10
41.726
 20
6.0611
 30
0.0
  0
SPLINE
  5
C5
330
1F
100
AcDbEntity
  8
ROUND
 62
   250
100
AcDbSpline
210
0.0
220
0.0
230
1.0
 70
    11
 71
     3
 72
    84
 73
    80
 74
     0
 42
0.0000000001
 43
0.0000000001
 40
0.0
 40
0.0
 40
0.0
 40
0.0
 40
0.0476190476190476
 40
0.0476190476190476
 40
0.0476190476190476
 40
0.0476190476190476
 40
0.0952380952380952
 40
0.0952380952380952
 40
0.0952380952380952
 40
0.0952380952380952
 40
0.1428571428571428
 40
0.1428571428571428
 40
0.1428571428571428
 40
0.1428571428571428
 40
0.1904761904761905
 40
0.1904761904761905
 40
0.1904761904761905
 40
0.1904761904761905
 40
0.2380952380952381
 40
0.2380952380952381
 40
0.2380952380952381
 40
0.2380952380952381
 40
0.2857142857142857
 40
0.2857142857142857
 40
0.2857142857142857
 40
0.2857142857142857
 40
0.3333333333333333
 40
0.3333333333333333
 40
0.3333333333333333
 40
0.3333333333333333
 40
0.3809523809523809
 40
0.3809523809523809
 40
0.3809523809523809
 40
0.3809523809523809
 40
0.4285714285714285
 40
0.4285714285714285
 40
0.4285714285714285
 40
0.4285714285714285
 40
0.4761904761904762
 40
0.4761904761904762
 40
0.4761904761904762
 40
0.4761904761904762
 40
0.5238095238095238
 40
0.5238095238095238
 40
0.5238095238095238
 40
0.5238095238095238
 40
0.5714285714285714
 40
0.5714285714285714
 40
0.5714285714285714
 40
0.5714285714285714
 40
0.6190476190476191
 40
0.6190476190476191
 40
0.6190476190476191
 40
0.6190476190476191
 40
0.6666666666666666
 40
0.6666666666666666
 40
0.6666666666666666
 40
0.6666666666666666
 40
0.7142857142857143
 40
0.7142857142857143
 40
0.7142857142857143
 40
0.7142857142857143
 40
0.7619047619047619
 40
0.7619047619047619
 40
0.7619047619047619
 40
0.7619047619047619
 40
0.8095238095238095
 40
0.8095238095238095
 40
0.8095238095238095
 40
0.8095238095238095
 40
0.8571428571428571
 40
0.8571428571428571
 40
0.8571428571428571
 40
0.8571428571428571
 40
0.9047619047619048
 40
0.9047619047619048
 40
0.9047619047619048
 40
0.9047619047619048
 40
1.0
 40
1.0
 40
1.0
 40
1.0
 10
38.853
 20
-6.9541
 30
0.0
 10
38.853
 20
-6.9541
 30
0.0
 10
38.4352
 20
-6.581
 30
0.0
 10
38.4352
 20
-6.581
 30
0.0
 10
38.4352
 20
-6.581
 30
0.0
 10
38.4352
 20
-6.581
 30
0.0
 10
38.6217
 20
-6.361
 30
0.0
 10
38.6217
 20
-6.361
 30
0.0
 10
38.6217
 20
-6.361
 30
0.0
 10
38.6217
 20
-6.361
 30
0.0
 10
39.0616
 20
-6.7517
 30
0.0
 10
39.0616
 20
-6.7517
 30
0.0
 10
39.0616
 20
-6.7517
 30
0.0
 10
39.2512
 20
-6.6242
 30
0.0
 10
39.4173
 20
-6.5386
 30
0.0
 10
39.559
 20
-6.4937
 30
0.0
 10
39.559
 20
-6.4937
 30
0.0
 10
39.7457
 20
-6.4346
 30
0.0
 10
39.955
 20
-6.4051
 30
0.0
 10
40.1856
 20
-6.4051
 30
0.0
 10
40.1856
 20
-6.4051
 30
0.0
 10
40.5192
 20
-6.4051
 30
0.0
 10
40.8165
 20
-6.4726
 30
0.0
 10
41.0767
 20
-6.6076
 30
0.0
 10
41.0767
 20
-6.6076
 30
0.0
 10
41.3376
 20
-6.7425
 30
0.0
 10
41.5348
 20
-6.9313
 30
0.0
 10
41.6682
 20
-7.1748
 30
0.0
 10
41.6682
 20
-7.1748
 30
0.0
 10
41.801
 20
-7.4191
 30
0.0
 10
41.8676
 20
-7.6777
 30
0.0
 10
41.8676
 20
-7.9515
 30
0.0
 10
41.8676
 20
-7.9515
 30
0.0
 10
41.8676
 20
-8.1563
 30
0.0
 10
41.8389
 20
-8.3412
 30
0.0
 10
41.7812
 20
-8.5073
 30
0.0
 10
41.7812
 20
-8.5073
 30
0.0
 10
41.7365
 20
-8.6348
 30
0.0
 10
41.6516
 20
-8.7833
 30
0.0
 10
41.5256
 20
-8.9541
 30
0.0
 10
41.5256
 20
-8.9541
 30
0.0
 10
41.5256
 20
-8.9541
 30
0.0
 10
41.9436
 20
-9.3272
 30
0.0
 10
41.9436
 20
-9.3272
 30
0.0
 10
41.9436
 20
-9.3272
 30
0.0
 10
41.9436
 20
-9.3272
 30
0.0
 10
41.757
 20
-9.5471
 30
0.0
 10
41.757
 20
-9.5471
 30
0.0
 10
41.757
 20
-9.5471
 30
0.0
 10
41.757
 20
-9.5471
 30
0.0
 10
41.3194
 20
-9.1558
 30
0.0
 10
41.3194
 20
-9.1558
 30
0.0
 10
41.3194
 20
-9.1558
 30
0.0
 10
41.0987
 20
-9.3014
 30
0.0
 10
40.9099
 20
-9.3984
 30
0.0
 10
40.7536
 20
-9.447
 30
0.0
 10
40.7536
 20
-9.447
 30
0.0
 10
40.5974
 20
-9.4955
 30
0.0
 10
40.4092
 20
-9.5206
 30
0.0
 10
40.1901
 20
-9.5206
 30
0.0
 10
40.1901
 20
-9.5206
 30
0.0
 10
39.8557
 20
-9.5206
 30
0.0
 10
39.5576
 20
-9.4539
 30
0.0
 10
39.2959
 20
-9.3204
 30
0.0
 10
39.2959
 20
-9.3204
 30
0.0
 10
39.0344
 20
-9.1869
 30
0.0
 10
38.8364
 20
-9.0003
 30
0.0
 10
38.7014
 20
-8.7591
 30
0.0
 10
38.7014
 20
-8.7591
 30
0.0
 10
38.5671
 20
-8.5187
 30
0.0
 10
38.4997
 20
-8.2509
 30
0.0
 10
38.4997
 20
-7.956
 30
0.0
 10
38.4997
 20
-7.956
 30
0.0
 10
38.4997
 20
-7.7574
 30
0.0
 10
38.5255
 20
-7.5835
 30
0.0
 10
38.5785
 20
-7.4349
 30
0.0
 10
38.5785
 20
-7.4349
 30
0.0
 10
38.6308
 20
-7.2864
 30
0.0
 10
38.7227
 20
-7.1255
 30
0.0
 10
38.853
 20
-6.9541
 30
0.0
  0
SPLINE
  5
C6
330
1F
100
AcDbEntity
  8
ROUND
 62
   250
100
AcDbSpline
210
0.0
220
0.0
230
1.0
 70
    11
 71
     3
 72
    32
 73
    28
 74
     0
 42
0.0000000001
 43
0.0000000001
 40
0.0
 40
0.0
 40
0.0
 40
0.0
 40
0.125
 40
0.125
 40
0.125
 40
0.125
 40
0.25
 40
0.25
 40
0.25
 40
0.25
 40
0.375
 40
0.375
 40
0.375
 40
0.375
 40
0.5
 40
0.5
 40
0.5
 40
0.5
 40
0.625
 40
0.625
 40
0.625
 40
0.625
 40
0.75
 40
0.75
 40
0.75
 40
0.75
 40
1.0
 40
1.0
 40
1.0
 40
1.0
 10
39.1525
 20
-7.2203
 30
0.0
 10
39.0434
 20
-7.3599
 30
0.0
 10
38.9682
 20
-7.482
 30
0.0
 10
38.9281
 20
-7.5858
 30
0.0
 10
38.9281
 20
-7.5858
 30
0.0
 10
38.8888
 20
-7.6906
 30
0.0
 10
38.8683
 20
-7.8135
 30
0.0
 10
38.8683
 20
-7.9537
 30
0.0
 10
38.8683
 20
-7.9537
 30
0.0
 10
38.8683
 20
-8.2783
 30
0.0
 10
38.9782
 20
-8.546
 30
0.0
 10
39.1982
 20
-8.7583
 30
0.0
 10
39.1982
 20
-8.7583
 30
0.0
 10
39.4181
 20
-8.9699
 30
0.0
 10
39.7464
 20
-9.0761
 30
0.0
 10
40.184
 20
-9.0761
 30
0.0
 10
40.184
 20
-9.0761
 30
0.0
 10
40.3554
 20
-9.0761
 30
0.0
 10
40.5079
 20
-9.0595
 30
0.0
 10
40.6414
 20
-9.0268
 30
0.0
 10
40.6414
 20
-9.0268
 30
0.0
 10
40.7407
 20
-9.0034
 30
0.0
 10
40.8628
 20
-8.9541
 30
0.0
 10
41.0076
 20
-8.8781
 30
0.0
 10
41.0076
 20
-8.8781
 30
0.0
 10
41.0076
 20
-8.8781
 30
0.0
 10
39.1525
 20
-7.2203
 30
0.0
 10
39.1525
 20
-7.2203
 30
0.0
  0
SPLINE
  5
C7
330
1F
100
AcDbEntity
  8
ROUND
 62
   250
100
AcDbSpline
210
0.0
220
0.0
230
1.0
 70
    11
 71
     3
 72
    28
 73
    24
 74
     0
 42
0.0000000001
 43
0.0000000001
 40
0.0
 40
0.0
 40
0.0
 40
0.0
 40
0.1428571428571428
 40
0.1428571428571428
 40
0.1428571428571428
 40
0.1428571428571428
 40
0.2857142857142857
 40
0.2857142857142857
 40
0.2857142857142857
 40
0.2857142857142857
 40
0.4285714285714285
 40
0.4285714285714285
 40
0.4285714285714285
 40
0.4285714285714285
 40
0.5714285714285714
 40
0.5714285714285714
 40
0.5714285714285714
 40
0.5714285714285714
 40
0.7142857142857143
 40
0.7142857142857143
 40
0.7142857142857143
 40
0.7142857142857143
 40
1.0
 40
1.0
 40
1.0
 40
1.0
 10
39.3817
 20
-7.0382
 30
0.0
 10
39.3817
 20
-7.0382
 30
0.0
 10
41.2299
 20
-8.6893
 30
0.0
 10
41.2299
 20
-8.6893
 30
0.0
 10
41.2299
 20
-8.6893
 30
0.0
 10
41.3231
 20
-8.5756
 30
0.0
 10
41.3884
 20
-8.4702
 30
0.0
 10
41.4255
 20
-8.3739
 30
0.0
 10
41.4255
 20
-8.3739
 30
0.0
 10
41.4748
 20
-8.248
 30
0.0
 10
41.4992
 20
-8.1114
 30
0.0
 10
41.4992
 20
-7.965
 30
0.0
 10
41.4992
 20
-7.965
 30
0.0
 10
41.4992
 20
-7.6419
 30
0.0
 10
41.3853
 20
-7.3757
 30
0.0
 10
41.157
 20
-7.165
 30
0.0
 10
41.157
 20
-7.165
 30
0.0
 10
40.9287
 20
-6.9549
 30
0.0
 10
40.6087
 20
-6.8494
 30
0.0
 10
40.1969
 20
-6.8494
 30
0.0
 10
40.1969
 20
-6.8494
 30
0.0
 10
39.8891
 20
-6.8494
 30
0.0
 10
39.6167
 20
-6.9125
 30
0.0
 10
39.3817
 20
-7.0382
 30
0.0
  0
SPLINE
  5
C8
330
1F
100
AcDbEntity
  8
ROUND
 62
   250
100
AcDbSpline
210
0.0
220
0.0
230
1.0
 70
    11
 71
     3
 72
    40
 73
    36
 74
     0
 42
0.0000000001
 43
0.0000000001
 40
0.0
 40
0.0
 40
0.0
 40
0.0
 40
0.1
 40
0.1
 40
0.1
 40
0.1
 40
0.2
 40
0.2
 40
0.2
 40
0.2
 40
0.3
 40
0.3
 40
0.3
 40
0.3
 40
0.4
 40
0.4
 40
0.4
 40
0.4
 40
0.5
 40
0.5
 40
0.5
 40
0.5
 40
0.6
 40
0.6
 40
0.6
 40
0.6
 40
0.7
 40
0.7
 40
0.7
 40
0.7
 40
0.8
 40
0.8
 40
0.8
 40
0.8
 40
1.0
 40
1.0
 40
1.0
 40
1.0
 10
41.8123
 20
-4.497
 30
0.0
 10
41.8123
 20
-4.497
 30
0.0
 10
41.8123
 20
-4.8965
 30
0.0
 10
41.8123
 20
-4.8965
 30
0.0
 10
41.8123
 20
-4.8965
 30
0.0
 10
41.8123
 20
-4.8965
 30
0.0
 10
39.2641
 20
-4.8965
 30
0.0
 10
39.2641
 20
-4.8965
 30
0.0
 10
39.2641
 20
-4.8965
 30
0.0
 10
39.3559
 20
-4.9929
 30
0.0
 10
39.4476
 20
-5.1189
 30
0.0
 10
39.5393
 20
-5.2751
 30
0.0
 10
39.5393
 20
-5.2751
 30
0.0
 10
39.6311
 20
-5.432
 30
0.0
 10
39.7003
 20
-5.5723
 30
0.0
 10
39.7457
 20
-5.6967
 30
0.0
 10
39.7457
 20
-5.6967
 30
0.0
 10
39.7457
 20
-5.6967
 30
0.0
 10
39.3596
 20
-5.6967
 30
0.0
 10
39.3596
 20
-5.6967
 30
0.0
 10
39.3596
 20
-5.6967
 30
0.0
 10
39.2543
 20
-5.473
 30
0.0
 10
39.1269
 20
-5.2774
 30
0.0
 10
38.9774
 20
-5.1097
 30
0.0
 10
38.9774
 20
-5.1097
 30
0.0
 10
38.8273
 20
-4.9428
 30
0.0
 10
38.6824
 20
-4.8238
 30
0.0
 10
38.5413
 20
-4.754
 30
0.0
 10
38.5413
 20
-4.754
 30
0.0
 10
38.5413
 20
-4.754
 30
0.0
 10
38.5413
 20
-4.497
 30
0.0
 10
38.5413
 20
-4.497
 30
0.0
 10
38.5413
 20
-4.497
 30
0.0
 10
38.5413
 20
-4.497
 30
0.0
 10
41.8123
 20
-4.497
 30
0.0
 10
41.8123
 20
-4.497
 30
0.0
  0
SPLINE
  5
C9
330
1F
100
AcDbEntity
  8
ROUND
 62
   250
100
AcDbSpline
210
0.0
220
0.0
230
1.0
 70
    11
 71
     3
 72
    40
 73
    36
 74
     0
 42
0.0000000001
 43
0.0000000001
 40
0.0
 40
0.0
 40
0.0
 40
0.0
 40
0.1
 40
0.1
 40
0.1
 40
0.1
 40
0.2
 40
0.2
 40
0.2
 40
0.2
 40
0.3
 40
0.3
 40
0.3
 40
0.3
 40
0.4
 40
0.4
 40
0.4
 40
0.4
 40
0.5
 40
0.5
 40
0.5
 40
0.5
 40
0.6
 40
0.6
 40
0.6
 40
0.6
 40
0.7
 40
0.7
 40
0.7
 40
0.7
 40
0.8
 40
0.8
 40
0.8
 40
0.8
 40
1.0
 40
1.0
 40
1.0
 40
1.0
 10
41.8123
 20
-2.3037
 30
0.0
 10
41.8123
 20
-2.3037
 30
0.0
 10
41.8123
 20
-2.7034
 30
0.0
 10
41.8123
 20
-2.7034
 30
0.0
 10
41.8123
 20
-2.7034
 30
0.0
 10
41.8123
 20
-2.7034
 30
0.0
 10
39.2641
 20
-2.7034
 30
0.0
 10
39.2641
 20
-2.7034
 30
0.0
 10
39.2641
 20
-2.7034
 30
0.0
 10
39.3559
 20
-2.7996
 30
0.0
 10
39.4476
 20
-2.9256
 30
0.0
 10
39.5393
 20
-3.0818
 30
0.0
 10
39.5393
 20
-3.0818
 30
0.0
 10
39.6311
 20
-3.2387
 30
0.0
 10
39.7003
 20
-3.379
 30
0.0
 10
39.7457
 20
-3.5034
 30
0.0
 10
39.7457
 20
-3.5034
 30
0.0
 10
39.7457
 20
-3.5034
 30
0.0
 10
39.3596
 20
-3.5034
 30
0.0
 10
39.3596
 20
-3.5034
 30
0.0
 10
39.3596
 20
-3.5034
 30
0.0
 10
39.2543
 20
-3.2796
 30
0.0
 10
39.1269
 20
-3.0841
 30
0.0
 10
38.9774
 20
-2.9164
 30
0.0
 10
38.9774
 20
-2.9164
 30
0.0
 10
38.8273
 20
-2.7495
 30
0.0
 10
38.6824
 20
-2.6305
 30
0.0
 10
38.5413
 20
-2.5607
 30
0.0
 10
38.5413
 20
-2.5607
 30
0.0
 10
38.5413
 20
-2.5607
 30
0.0
 10
38.5413
 20
-2.3037
 30
0.0
 10
38.5413
 20
-2.3037
 30
0.0
 10
38.5413
 20
-2.3037
 30
0.0
 10
38.5413
 20
-2.3037
 30
0.0
 10
41.8123
 20
-2.3037
 30
0.0
 10
41.8123
 20
-2.3037
 30
0.0
  0
SPLINE
  5
CA
330
1F
100
AcDbEntity
  8
ROUND
 62
   250
100
AcDbSpline
210
0.0
220
0.0
230
1.0
 70
    11
 71
     3
 72
    52
 73
    48
 74
     0
 42
0.0000000001
 43
0.0000000001
 40
0.0
 40
0.0
 40
0.0
 40
0.0
 40
0.0769230769230769
 40
0.0769230769230769
 40
0.0769230769230769
 40
0.0769230769230769
 40
0.1538461538461539
 40
0.1538461538461539
 40
0.1538461538461539
 40
0.1538461538461539
 40
0.2307692307692308
 40
0.2307692307692308
 40
0.2307692307692308
 40
0.2307692307692308
 40
0.3076923076923077
 40
0.3076923076923077
 40
0.3076923076923077
 40
0.3076923076923077
 40
0.3846153846153846
 40
0.3846153846153846
 40
0.3846153846153846
 40
0.3846153846153846
 40
0.4615384615384616
 40
0.4615384615384616
 40
0.4615384615384616
 40
0.4615384615384616
 40
0.5384615384615384
 40
0.5384615384615384
 40
0.5384615384615384
 40
0.5384615384615384
 40
0.6153846153846154
 40
0.6153846153846154
 40
0.6153846153846154
 40
0.6153846153846154
 40
0.6923076923076923
 40
0.6923076923076923
 40
0.6923076923076923
 40
0.6923076923076923
 40
0.7692307692307693
 40
0.7692307692307693
 40
0.7692307692307693
 40
0.7692307692307693
 40
0.8461538461538461
 40
0.8461538461538461
 40
0.8461538461538461
 40
0.8461538461538461
 40
1.0
 40
1.0
 40
1.0
 40
1.0
 10
40.2061
 20
-1.279
 30
0.0
 10
39.8207
 20
-1.279
 30
0.0
 10
39.5105
 20
-1.2397
 30
0.0
 10
39.2762
 20
-1.16
 30
0.0
 10
39.2762
 20
-1.16
 30
0.0
 10
39.0411
 20
-1.0812
 30
0.0
 10
38.8599
 20
-0.9628
 30
0.0
 10
38.7325
 20
-0.8066
 30
0.0
 10
38.7325
 20
-0.8066
 30
0.0
 10
38.605
 20
-0.6503
 30
0.0
 10
38.5413
 20
-0.454
 30
0.0
 10
38.5413
 20
-0.2173
 30
0.0
 10
38.5413
 20
-0.2173
 30
0.0
 10
38.5413
 20
-0.0422
 30
0.0
 10
38.5769
 20
0.1112
 30
0.0
 10
38.6475
 20
0.2431
 30
0.0
 10
38.6475
 20
0.2431
 30
0.0
 10
38.7174
 20
0.375
 30
0.0
 10
38.8189
 20
0.4835
 30
0.0
 10
38.9516
 20
0.5699
 30
0.0
 10
38.9516
 20
0.5699
 30
0.0
 10
39.0843
 20
0.6557
 30
0.0
 10
39.2459
 20
0.7231
 30
0.0
 10
39.4363
 20
0.7716
 30
0.0
 10
39.4363
 20
0.7716
 30
0.0
 10
39.6266
 20
0.8209
 30
0.0
 10
39.8829
 20
0.8453
 30
0.0
 10
40.2061
 20
0.8453
 30
0.0
 10
40.2061
 20
0.8453
 30
0.0
 10
40.5882
 20
0.8453
 30
0.0
 10
40.8962
 20
0.8058
 30
0.0
 10
41.1312
 20
0.7277
 30
0.0
 10
41.1312
 20
0.7277
 30
0.0
 10
41.3663
 20
0.6489
 30
0.0
 10
41.5477
 20
0.5312
 30
0.0
 10
41.6757
 20
0.375
 30
0.0
 10
41.6757
 20
0.375
 30
0.0
 10
41.8039
 20
0.2187
 30
0.0
 10
41.8676
 20
0.0217
 30
0.0
 10
41.8676
 20
-0.2173
 30
0.0
 10
41.8676
 20
-0.2173
 30
0.0
 10
41.8676
 20
-0.5312
 30
0.0
 10
41.7554
 20
-0.7777
 30
0.0
 10
41.5301
 20
-0.9567
 30
0.0
 10
41.5301
 20
-0.9567
 30
0.0
 10
41.2594
 20
-1.1713
 30
0.0
 10
40.8173
 20
-1.279
 30
0.0
 10
40.2061
 20
-1.279
 30
0.0
  0
SPLINE
  5
CB
330
1F
100
AcDbEntity
  8
ROUND
 62
   250
100
AcDbSpline
210
0.0
220
0.0
230
1.0
 70
    11
 71
     3
 72
    36
 73
    32
 74
     0
 42
0.0000000001
 43
0.0000000001
 40
0.0
 40
0.0
 40
0.0
 40
0.0
 40
0.1111111111111111
 40
0.1111111111111111
 40
0.1111111111111111
 40
0.1111111111111111
 40
0.2222222222222222
 40
0.2222222222222222
 40
0.2222222222222222
 40
0.2222222222222222
 40
0.3333333333333333
 40
0.3333333333333333
 40
0.3333333333333333
 40
0.3333333333333333
 40
0.4444444444444444
 40
0.4444444444444444
 40
0.4444444444444444
 40
0.4444444444444444
 40
0.5555555555555556
 40
0.5555555555555556
 40
0.5555555555555556
 40
0.5555555555555556
 40
0.6666666666666666
 40
0.6666666666666666
 40
0.6666666666666666
 40
0.6666666666666666
 40
0.7777777777777778
 40
0.7777777777777778
 40
0.7777777777777778
 40
0.7777777777777778
 40
1.0
 40
1.0
 40
1.0
 40
1.0
 10
40.2061
 20
-0.868
 30
0.0
 10
40.7407
 20
-0.868
 30
0.0
 10
41.0964
 20
-0.805
 30
0.0
 10
41.2738
 20
-0.6799
 30
0.0
 10
41.2738
 20
-0.6799
 30
0.0
 10
41.4505
 20
-0.5547
 30
0.0
 10
41.5393
 20
-0.4008
 30
0.0
 10
41.5393
 20
-0.2173
 30
0.0
 10
41.5393
 20
-0.2173
 30
0.0
 10
41.5393
 20
-0.033
 30
0.0
 10
41.4498
 20
0.121
 30
0.0
 10
41.2723
 20
0.2461
 30
0.0
 10
41.2723
 20
0.2461
 30
0.0
 10
41.0948
 20
0.3712
 30
0.0
 10
40.7391
 20
0.4341
 30
0.0
 10
40.2061
 20
0.4341
 30
0.0
 10
40.2061
 20
0.4341
 30
0.0
 10
39.6698
 20
0.4341
 30
0.0
 10
39.3135
 20
0.3712
 30
0.0
 10
39.1374
 20
0.2461
 30
0.0
 10
39.1374
 20
0.2461
 30
0.0
 10
38.9607
 20
0.121
 30
0.0
 10
38.8728
 20
-0.0346
 30
0.0
 10
38.8728
 20
-0.2211
 30
0.0
 10
38.8728
 20
-0.2211
 30
0.0
 10
38.8728
 20
-0.4054
 30
0.0
 10
38.9508
 20
-0.5517
 30
0.0
 10
39.1063
 20
-0.6616
 30
0.0
 10
39.1063
 20
-0.6616
 30
0.0
 10
39.3043
 20
-0.799
 30
0.0
 10
39.6714
 20
-0.868
 30
0.0
 10
40.2061
 20
-0.868
 30
0.0
  0
SPLINE
  5
CC
330
1F
100
AcDbEntity
  8
ROUND
 62
   250
100
AcDbSpline
210
0.0
220
0.0
230
1.0
 70
    24
 71
     3
 72
     8
 73
     4
 74
     0
 42
0.0000000001
 43
0.0000000001
 40
0.0
 40
0.0
 40
0.0
 40
0.0
 40
1.0
 40
1.0
 40
1.0
 40
1.0
 10
36.1634
 20
10.9716
 30
0.0
 10
36.1634
 20
10.9716
 30
0.0
 10
42.8847
 20
10.9716
 30
0.0
 10
42.8847
 20
10.9716
 30
0.0
  0
SPLINE
  5
CD
330
1F
100
AcDbEntity
  8
ROUND
 62
   250
100
AcDbSpline
210
0.0
220
0.0
230
1.0
 70
    24
 71
     3
 72
     8
 73
     4
 74
     0
 42
0.0000000001
 43
0.0000000001
 40
0.0
 40
0.0
 40
0.0
 40
0.0
 40
1.0
 40
1.0
 40
1.0
 40
1.0
 10
36.4617
 20
-20.1597
 30
0.0
 10
36.4617
 20
-20.1597
 30
0.0
 10
42.9076
 20
-20.1597
 30
0.0
 10
42.9076
 20
-20.1597
 30
0.0
  0
SPLINE
  5
CE
330
1F
100
AcDbEntity
  8
ROUND
 62
   250
100
AcDbSpline
210
0.0
220
0.0
230
1.0
 70
    24
 71
     3
 72
     8
 73
     4
 74
     0
 42
0.0000000001
 43
0.0000000001
 40
0.0
 40
0.0
 40
0.0
 40
0.0
 40
1.0
 40
1.0
 40
1.0
 40
1.0
 10
47.903
 20
-22.1676
 30
0.0
 10
47.903
 20
-22.1676
 30
0.0
 10
47.903
 20
13.5561
 30
0.0
 10
47.903
 20
13.5561
 30
0.0
  0
SPLINE
  5
CF
330
1F
100
AcDbEntity
  8
ROUND
 62
   250
100
AcDbSpline
210
0.0
220
0.0
230
1.0
 70
    11
 71
     3
 72
    20
 73
    16
 74
     0
 42
0.0000000001
 43
0.0000000001
 40
0.0
 40
0.0
 40
0.0
 40
0.0
 40
0.2
 40
0.2
 40
0.2
 40
0.2
 40
0.4
 40
0.4
 40
0.4
 40
0.4
 40
0.6
 40
0.6
 40
0.6
 40
0.6
 40
1.0
 40
1.0
 40
1.0
 40
1.0
 10
48.6676
 20
-17.5127
 30
0.0
 10
48.6676
 20
-17.5127
 30
0.0
 10
47.9851
 20
-22.3488
 30
0.0
 10
47.9851
 20
-22.3488
 30
0.0
 10
47.9851
 20
-22.3488
 30
0.0
 10
47.9851
 20
-22.3488
 30
0.0
 10
47.8335
 20
-22.3488
 30
0.0
 10
47.8335
 20
-22.3488
 30
0.0
 10
47.8335
 20
-22.3488
 30
0.0
 10
47.8335
 20
-22.3488
 30
0.0
 10
47.1057
 20
-17.5127
 30
0.0
 10
47.1057
 20
-17.5127
 30
0.0
 10
47.1057
 20
-17.5127
 30
0.0
 10
47.1057
 20
-17.5127
 30
0.0
 10
48.6676
 20
-17.5127
 30
0.0
 10
48.6676
 20
-17.5127
 30
0.0
  0
SPLINE
  5
D0
330
1F
100
AcDbEntity
  8
ROUND
 62
   250
100
AcDbSpline
210
0.0
220
0.0
230
1.0
 70
    11
 71
     3
 72
    20
 73
    16
 74
     0
 42
0.0000000001
 43
0.0000000001
 40
0.0
 40
0.0
 40
0.0
 40
0.0
 40
0.2
 40
0.2
 40
0.2
 40
0.2
 40
0.4
 40
0.4
 40
0.4
 40
0.4
 40
0.6
 40
0.6
 40
0.6
 40
0.6
 40
1.0
 40
1.0
 40
1.0
 40
1.0
 10
47.167
 20
8.7781
 30
0.0
 10
47.167
 20
8.7781
 30
0.0
 10
47.8497
 20
13.6154
 30
0.0
 10
47.8497
 20
13.6154
 30
0.0
 10
47.8497
 20
13.6154
 30
0.0
 10
47.8497
 20
13.6154
 30
0.0
 10
48.0012
 20
13.6154
 30
0.0
 10
48.0012
 20
13.6154
 30
0.0
 10
48.0012
 20
13.6154
 30
0.0
 10
48.0012
 20
13.6154
 30
0.0
 10
48.7294
 20
8.7781
 30
0.0
 10
48.7294
 20
8.7781
 30
0.0
 10
48.7294
 20
8.7781
 30
0.0
 10
48.7294
 20
8.7781
 30
0.0
 10
47.167
 20
8.7781
 30
0.0
 10
47.167
 20
8.7781
 30
0.0
  0
SPLINE
  5
D1
330
1F
100
AcDbEntity
  8
ROUND
 62
   250
100
AcDbSpline
210
0.0
220
0.0
230
1.0
 70
    11
 71
     3
 72
    84
 73
    80
 74
     0
 42
0.0000000001
 43
0.0000000001
 40
0.0
 40
0.0
 40
0.0
 40
0.0
 40
0.0476190476190476
 40
0.0476190476190476
 40
0.0476190476190476
 40
0.0476190476190476
 40
0.0952380952380952
 40
0.0952380952380952
 40
0.0952380952380952
 40
0.0952380952380952
 40
0.1428571428571428
 40
0.1428571428571428
 40
0.1428571428571428
 40
0.1428571428571428
 40
0.1904761904761905
 40
0.1904761904761905
 40
0.1904761904761905
 40
0.1904761904761905
 40
0.2380952380952381
 40
0.2380952380952381
 40
0.2380952380952381
 40
0.2380952380952381
 40
0.2857142857142857
 40
0.2857142857142857
 40
0.2857142857142857
 40
0.2857142857142857
 40
0.3333333333333333
 40
0.3333333333333333
 40
0.3333333333333333
 40
0.3333333333333333
 40
0.3809523809523809
 40
0.3809523809523809
 40
0.3809523809523809
 40
0.3809523809523809
 40
0.4285714285714285
 40
0.4285714285714285
 40
0.4285714285714285
 40
0.4285714285714285
 40
0.4761904761904762
 40
0.4761904761904762
 40
0.4761904761904762
 40
0.4761904761904762
 40
0.5238095238095238
 40
0.5238095238095238
 40
0.5238095238095238
 40
0.5238095238095238
 40
0.5714285714285714
 40
0.5714285714285714
 40
0.5714285714285714
 40
0.5714285714285714
 40
0.6190476190476191
 40
0.6190476190476191
 40
0.6190476190476191
 40
0.6190476190476191
 40
0.6666666666666666
 40
0.6666666666666666
 40
0.6666666666666666
 40
0.6666666666666666
 40
0.7142857142857143
 40
0.7142857142857143
 40
0.7142857142857143
 40
0.7142857142857143
 40
0.7619047619047619
 40
0.7619047619047619
 40
0.7619047619047619
 40
0.7619047619047619
 40
0.8095238095238095
 40
0.8095238095238095
 40
0.8095238095238095
 40
0.8095238095238095
 40
0.8571428571428571
 40
0.8571428571428571
 40
0.8571428571428571
 40
0.8571428571428571
 40
0.9047619047619048
 40
0.9047619047619048
 40
0.9047619047619048
 40
0.9047619047619048
 40
1.0
 40
1.0
 40
1.0
 40
1.0
 10
44.4834
 20
-6.9142
 30
0.0
 10
44.4834
 20
-6.9142
 30
0.0
 10
44.0656
 20
-6.5411
 30
0.0
 10
44.0656
 20
-6.5411
 30
0.0
 10
44.0656
 20
-6.5411
 30
0.0
 10
44.0656
 20
-6.5411
 30
0.0
 10
44.2521
 20
-6.3212
 30
0.0
 10
44.2521
 20
-6.3212
 30
0.0
 10
44.2521
 20
-6.3212
 30
0.0
 10
44.2521
 20
-6.3212
 30
0.0
 10
44.692
 20
-6.7119
 30
0.0
 10
44.692
 20
-6.7119
 30
0.0
 10
44.692
 20
-6.7119
 30
0.0
 10
44.8816
 20
-6.5844
 30
0.0
 10
45.0477
 20
-6.4987
 30
0.0
 10
45.1894
 20
-6.4539
 30
0.0
 10
45.1894
 20
-6.4539
 30
0.0
 10
45.3761
 20
-6.3947
 30
0.0
 10
45.5854
 20
-6.3652
 30
0.0
 10
45.816
 20
-6.3652
 30
0.0
 10
45.816
 20
-6.3652
 30
0.0
 10
46.1496
 20
-6.3652
 30
0.0
 10
46.4469
 20
-6.4328
 30
0.0
 10
46.7071
 20
-6.5678
 30
0.0
 10
46.7071
 20
-6.5678
 30
0.0
 10
46.968
 20
-6.7027
 30
0.0
 10
47.1652
 20
-6.8915
 30
0.0
 10
47.2986
 20
-7.135
 30
0.0
 10
47.2986
 20
-7.135
 30
0.0
 10
47.4314
 20
-7.3793
 30
0.0
 10
47.498
 20
-7.6379
 30
0.0
 10
47.498
 20
-7.9117
 30
0.0
 10
47.498
 20
-7.9117
 30
0.0
 10
47.498
 20
-8.1164
 30
0.0
 10
47.4693
 20
-8.3014
 30
0.0
 10
47.4116
 20
-8.4674
 30
0.0
 10
47.4116
 20
-8.4674
 30
0.0
 10
47.3669
 20
-8.595
 30
0.0
 10
47.2819
 20
-8.7435
 30
0.0
 10
47.156
 20
-8.9142
 30
0.0
 10
47.156
 20
-8.9142
 30
0.0
 10
47.156
 20
-8.9142
 30
0.0
 10
47.5739
 20
-9.2873
 30
0.0
 10
47.5739
 20
-9.2873
 30
0.0
 10
47.5739
 20
-9.2873
 30
0.0
 10
47.5739
 20
-9.2873
 30
0.0
 10
47.3874
 20
-9.5073
 30
0.0
 10
47.3874
 20
-9.5073
 30
0.0
 10
47.3874
 20
-9.5073
 30
0.0
 10
47.3874
 20
-9.5073
 30
0.0
 10
46.9498
 20
-9.1159
 30
0.0
 10
46.9498
 20
-9.1159
 30
0.0
 10
46.9498
 20
-9.1159
 30
0.0
 10
46.7291
 20
-9.2615
 30
0.0
 10
46.5403
 20
-9.3586
 30
0.0
 10
46.384
 20
-9.4071
 30
0.0
 10
46.384
 20
-9.4071
 30
0.0
 10
46.2278
 20
-9.4557
 30
0.0
 10
46.0396
 20
-9.4808
 30
0.0
 10
45.8205
 20
-9.4808
 30
0.0
 10
45.8205
 20
-9.4808
 30
0.0
 10
45.4861
 20
-9.4808
 30
0.0
 10
45.188
 20
-9.4141
 30
0.0
 10
44.9263
 20
-9.2806
 30
0.0
 10
44.9263
 20
-9.2806
 30
0.0
 10
44.6647
 20
-9.1471
 30
0.0
 10
44.4667
 20
-8.9605
 30
0.0
 10
44.3318
 20
-8.7193
 30
0.0
 10
44.3318
 20
-8.7193
 30
0.0
 10
44.1975
 20
-8.4789
 30
0.0
 10
44.1301
 20
-8.2111
 30
0.0
 10
44.1301
 20
-7.9162
 30
0.0
 10
44.1301
 20
-7.9162
 30
0.0
 10
44.1301
 20
-7.7175
 30
0.0
 10
44.1559
 20
-7.5437
 30
0.0
 10
44.2089
 20
-7.3951
 30
0.0
 10
44.2089
 20
-7.3951
 30
0.0
 10
44.2612
 20
-7.2466
 30
0.0
 10
44.3531
 20
-7.0856
 30
0.0
 10
44.4834
 20
-6.9142
 30
0.0
  0
SPLINE
  5
D2
330
1F
100
AcDbEntity
  8
ROUND
 62
   250
100
AcDbSpline
210
0.0
220
0.0
230
1.0
 70
    11
 71
     3
 72
    32
 73
    28
 74
     0
 42
0.0000000001
 43
0.0000000001
 40
0.0
 40
0.0
 40
0.0
 40
0.0
 40
0.125
 40
0.125
 40
0.125
 40
0.125
 40
0.25
 40
0.25
 40
0.25
 40
0.25
 40
0.375
 40
0.375
 40
0.375
 40
0.375
 40
0.5
 40
0.5
 40
0.5
 40
0.5
 40
0.625
 40
0.625
 40
0.625
 40
0.625
 40
0.75
 40
0.75
 40
0.75
 40
0.75
 40
1.0
 40
1.0
 40
1.0
 40
1.0
 10
44.7829
 20
-7.1805
 30
0.0
 10
44.6738
 20
-7.3201
 30
0.0
 10
44.5986
 20
-7.4421
 30
0.0
 10
44.5585
 20
-7.546
 30
0.0
 10
44.5585
 20
-7.546
 30
0.0
 10
44.5192
 20
-7.6508
 30
0.0
 10
44.4987
 20
-7.7736
 30
0.0
 10
44.4987
 20
-7.9139
 30
0.0
 10
44.4987
 20
-7.9139
 30
0.0
 10
44.4987
 20
-8.2385
 30
0.0
 10
44.6086
 20
-8.5061
 30
0.0
 10
44.8286
 20
-8.7185
 30
0.0
 10
44.8286
 20
-8.7185
 30
0.0
 10
45.0485
 20
-8.93
 30
0.0
 10
45.3768
 20
-9.0363
 30
0.0
 10
45.8144
 20
-9.0363
 30
0.0
 10
45.8144
 20
-9.0363
 30
0.0
 10
45.9858
 20
-9.0363
 30
0.0
 10
46.1383
 20
-9.0197
 30
0.0
 10
46.2718
 20
-8.987
 30
0.0
 10
46.2718
 20
-8.987
 30
0.0
 10
46.3711
 20
-8.9636
 30
0.0
 10
46.4932
 20
-8.9142
 30
0.0
 10
46.638
 20
-8.8383
 30
0.0
 10
46.638
 20
-8.8383
 30
0.0
 10
46.638
 20
-8.8383
 30
0.0
 10
44.7829
 20
-7.1805
 30
0.0
 10
44.7829
 20
-7.1805
 30
0.0
  0
SPLINE
  5
D3
330
1F
100
AcDbEntity
  8
ROUND
 62
   250
100
AcDbSpline
210
0.0
220
0.0
230
1.0
 70
    11
 71
     3
 72
    28
 73
    24
 74
     0
 42
0.0000000001
 43
0.0000000001
 40
0.0
 40
0.0
 40
0.0
 40
0.0
 40
0.1428571428571428
 40
0.1428571428571428
 40
0.1428571428571428
 40
0.1428571428571428
 40
0.2857142857142857
 40
0.2857142857142857
 40
0.2857142857142857
 40
0.2857142857142857
 40
0.4285714285714285
 40
0.4285714285714285
 40
0.4285714285714285
 40
0.4285714285714285
 40
0.5714285714285714
 40
0.5714285714285714
 40
0.5714285714285714
 40
0.5714285714285714
 40
0.7142857142857143
 40
0.7142857142857143
 40
0.7142857142857143
 40
0.7142857142857143
 40
1.0
 40
1.0
 40
1.0
 40
1.0
 10
45.0121
 20
-6.9984
 30
0.0
 10
45.0121
 20
-6.9984
 30
0.0
 10
46.8603
 20
-8.6495
 30
0.0
 10
46.8603
 20
-8.6495
 30
0.0
 10
46.8603
 20
-8.6495
 30
0.0
 10
46.9535
 20
-8.5358
 30
0.0
 10
47.0188
 20
-8.4304
 30
0.0
 10
47.0559
 20
-8.3341
 30
0.0
 10
47.0559
 20
-8.3341
 30
0.0
 10
47.1052
 20
-8.2082
 30
0.0
 10
47.1296
 20
-8.0716
 30
0.0
 10
47.1296
 20
-7.9252
 30
0.0
 10
47.1296
 20
-7.9252
 30
0.0
 10
47.1296
 20
-7.6021
 30
0.0
 10
47.0157
 20
-7.3359
 30
0.0
 10
46.7874
 20
-7.1251
 30
0.0
 10
46.7874
 20
-7.1251
 30
0.0
 10
46.5591
 20
-6.9151
 30
0.0
 10
46.2391
 20
-6.8096
 30
0.0
 10
45.8273
 20
-6.8096
 30
0.0
 10
45.8273
 20
-6.8096
 30
0.0
 10
45.5195
 20
-6.8096
 30
0.0
 10
45.2471
 20
-6.8726
 30
0.0
 10
45.0121
 20
-6.9984
 30
0.0
  0
SPLINE
  5
D4
330
1F
100
AcDbEntity
  8
ROUND
 62
   250
100
AcDbSpline
210
0.0
220
0.0
230
1.0
 70
    11
 71
     3
 72
    40
 73
    36
 74
     0
 42
0.0000000001
 43
0.0000000001
 40
0.0
 40
0.0
 40
0.0
 40
0.0
 40
0.1
 40
0.1
 40
0.1
 40
0.1
 40
0.2
 40
0.2
 40
0.2
 40
0.2
 40
0.3
 40
0.3
 40
0.3
 40
0.3
 40
0.4
 40
0.4
 40
0.4
 40
0.4
 40
0.5
 40
0.5
 40
0.5
 40
0.5
 40
0.6
 40
0.6
 40
0.6
 40
0.6
 40
0.7
 40
0.7
 40
0.7
 40
0.7
 40
0.8
 40
0.8
 40
0.8
 40
0.8
 40
1.0
 40
1.0
 40
1.0
 40
1.0
 10
47.4427
 20
-4.4572
 30
0.0
 10
47.4427
 20
-4.4572
 30
0.0
 10
47.4427
 20
-4.8567
 30
0.0
 10
47.4427
 20
-4.8567
 30
0.0
 10
47.4427
 20
-4.8567
 30
0.0
 10
47.4427
 20
-4.8567
 30
0.0
 10
44.8945
 20
-4.8567
 30
0.0
 10
44.8945
 20
-4.8567
 30
0.0
 10
44.8945
 20
-4.8567
 30
0.0
 10
44.9863
 20
-4.9531
 30
0.0
 10
45.078
 20
-5.079
 30
0.0
 10
45.1697
 20
-5.2353
 30
0.0
 10
45.1697
 20
-5.2353
 30
0.0
 10
45.2615
 20
-5.3922
 30
0.0
 10
45.3307
 20
-5.5324
 30
0.0
 10
45.3761
 20
-5.6569
 30
0.0
 10
45.3761
 20
-5.6569
 30
0.0
 10
45.3761
 20
-5.6569
 30
0.0
 10
44.99
 20
-5.6569
 30
0.0
 10
44.99
 20
-5.6569
 30
0.0
 10
44.99
 20
-5.6569
 30
0.0
 10
44.8847
 20
-5.4331
 30
0.0
 10
44.7573
 20
-5.2375
 30
0.0
 10
44.6078
 20
-5.0699
 30
0.0
 10
44.6078
 20
-5.0699
 30
0.0
 10
44.4577
 20
-4.903
 30
0.0
 10
44.3128
 20
-4.784
 30
0.0
 10
44.1717
 20
-4.7142
 30
0.0
 10
44.1717
 20
-4.7142
 30
0.0
 10
44.1717
 20
-4.7142
 30
0.0
 10
44.1717
 20
-4.4572
 30
0.0
 10
44.1717
 20
-4.4572
 30
0.0
 10
44.1717
 20
-4.4572
 30
0.0
 10
44.1717
 20
-4.4572
 30
0.0
 10
47.4427
 20
-4.4572
 30
0.0
 10
47.4427
 20
-4.4572
 30
0.0
  0
SPLINE
  5
D5
330
1F
100
AcDbEntity
  8
ROUND
 62
   250
100
AcDbSpline
210
0.0
220
0.0
230
1.0
 70
    11
 71
     3
 72
   124
 73
   120
 74
     0
 42
0.0000000001
 43
0.0000000001
 40
0.0
 40
0.0
 40
0.0
 40
0.0
 40
0.032258064516129
 40
0.032258064516129
 40
0.032258064516129
 40
0.032258064516129
 40
0.0645161290322581
 40
0.0645161290322581
 40
0.0645161290322581
 40
0.0645161290322581
 40
0.0967741935483871
 40
0.0967741935483871
 40
0.0967741935483871
 40
0.0967741935483871
 40
0.1290322580645161
 40
0.1290322580645161
 40
0.1290322580645161
 40
0.1290322580645161
 40
0.1612903225806452
 40
0.1612903225806452
 40
0.1612903225806452
 40
0.1612903225806452
 40
0.1935483870967742
 40
0.1935483870967742
 40
0.1935483870967742
 40
0.1935483870967742
 40
0.2258064516129032
 40
0.2258064516129032
 40
0.2258064516129032
 40
0.2258064516129032
 40
0.2580645161290323
 40
0.2580645161290323
 40
0.2580645161290323
 40
0.2580645161290323
 40
0.2903225806451613
 40
0.2903225806451613
 40
0.2903225806451613
 40
0.2903225806451613
 40
0.3225806451612903
 40
0.3225806451612903
 40
0.3225806451612903
 40
0.3225806451612903
 40
0.3548387096774194
 40
0.3548387096774194
 40
0.3548387096774194
 40
0.3548387096774194
 40
0.3870967741935484
 40
0.3870967741935484
 40
0.3870967741935484
 40
0.3870967741935484
 40
0.4193548387096774
 40
0.4193548387096774
 40
0.4193548387096774
 40
0.4193548387096774
 40
0.4516129032258064
 40
0.4516129032258064
 40
0.4516129032258064
 40
0.4516129032258064
 40
0.4838709677419355
 40
0.4838709677419355
 40
0.4838709677419355
 40
0.4838709677419355
 40
0.5161290322580645
 40
0.5161290322580645
 40
0.5161290322580645
 40
0.5161290322580645
 40
0.5483870967741935
 40
0.5483870967741935
 40
0.5483870967741935
 40
0.5483870967741935
 40
0.5806451612903226
 40
0.5806451612903226
 40
0.5806451612903226
 40
0.5806451612903226
 40
0.6129032258064516
 40
0.6129032258064516
 40
0.6129032258064516
 40
0.6129032258064516
 40
0.6451612903225806
 40
0.6451612903225806
 40
0.6451612903225806
 40
0.6451612903225806
 40
0.6774193548387096
 40
0.6774193548387096
 40
0.6774193548387096
 40
0.6774193548387096
 40
0.7096774193548387
 40
0.7096774193548387
 40
0.7096774193548387
 40
0.7096774193548387
 40
0.7419354838709677
 40
0.7419354838709677
 40
0.7419354838709677
 40
0.7419354838709677
 40
0.7741935483870968
 40
0.7741935483870968
 40
0.7741935483870968
 40
0.7741935483870968
 40
0.8064516129032258
 40
0.8064516129032258
 40
0.8064516129032258
 40
0.8064516129032258
 40
0.8387096774193549
 40
0.8387096774193549
 40
0.8387096774193549
 40
0.8387096774193549
 40
0.8709677419354839
 40
0.8709677419354839
 40
0.8709677419354839
 40
0.8709677419354839
 40
0.9032258064516129
 40
0.9032258064516129
 40
0.9032258064516129
 40
0.9032258064516129
 40
0.9354838709677419
 40
0.9354838709677419
 40
0.9354838709677419
 40
0.9354838709677419
 40
1.0
 40
1.0
 40
1.0
 40
1.0
 10
46.5827
 20
-3.4302
 30
0.0
 10
46.5827
 20
-3.4302
 30
0.0
 10
46.5296
 20
-3.0305
 30
0.0
 10
46.5296
 20
-3.0305
 30
0.0
 10
46.5296
 20
-3.0305
 30
0.0
 10
46.7563
 20
-2.9843
 30
0.0
 10
46.9195
 20
-2.9062
 30
0.0
 10
47.0195
 20
-2.7963
 30
0.0
 10
47.0195
 20
-2.7963
 30
0.0
 10
47.1196
 20
-2.6855
 30
0.0
 10
47.1697
 20
-2.5512
 30
0.0
 10
47.1697
 20
-2.3927
 30
0.0
 10
47.1697
 20
-2.3927
 30
0.0
 10
47.1697
 20
-2.2047
 30
0.0
 10
47.1044
 20
-2.0454
 30
0.0
 10
46.974
 20
-1.9157
 30
0.0
 10
46.974
 20
-1.9157
 30
0.0
 10
46.8435
 20
-1.7867
 30
0.0
 10
46.682
 20
-1.7216
 30
0.0
 10
46.4895
 20
-1.7216
 30
0.0
 10
46.4895
 20
-1.7216
 30
0.0
 10
46.3058
 20
-1.7216
 30
0.0
 10
46.1543
 20
-1.7814
 30
0.0
 10
46.0351
 20
-1.9012
 30
0.0
 10
46.0351
 20
-1.9012
 30
0.0
 10
45.9161
 20
-2.0218
 30
0.0
 10
45.8561
 20
-2.1744
 30
0.0
 10
45.8561
 20
-2.3593
 30
0.0
 10
45.8561
 20
-2.3593
 30
0.0
 10
45.8561
 20
-2.4352
 30
0.0
 10
45.8713
 20
-2.5292
 30
0.0
 10
45.901
 20
-2.6415
 30
0.0
 10
45.901
 20
-2.6415
 30
0.0
 10
45.901
 20
-2.6415
 30
0.0
 10
45.5498
 20
-2.5968
 30
0.0
 10
45.5498
 20
-2.5968
 30
0.0
 10
45.5498
 20
-2.5968
 30
0.0
 10
45.5528
 20
-2.5702
 30
0.0
 10
45.5543
 20
-2.5489
 30
0.0
 10
45.5543
 20
-2.5323
 30
0.0
 10
45.5543
 20
-2.5323
 30
0.0
 10
45.5543
 20
-2.3624
 30
0.0
 10
45.5095
 20
-2.2092
 30
0.0
 10
45.4208
 20
-2.0726
 30
0.0
 10
45.4208
 20
-2.0726
 30
0.0
 10
45.3321
 20
-1.9362
 30
0.0
 10
45.1947
 20
-1.8679
 30
0.0
 10
45.0098
 20
-1.8679
 30
0.0
 10
45.0098
 20
-1.8679
 30
0.0
 10
44.8634
 20
-1.8679
 30
0.0
 10
44.7413
 20
-1.918
 30
0.0
 10
44.6457
 20
-2.0173
 30
0.0
 10
44.6457
 20
-2.0173
 30
0.0
 10
44.5495
 20
-2.1166
 30
0.0
 10
44.5009
 20
-2.2448
 30
0.0
 10
44.5009
 20
-2.4019
 30
0.0
 10
44.5009
 20
-2.4019
 30
0.0
 10
44.5009
 20
-2.5573
 30
0.0
 10
44.5501
 20
-2.6869
 30
0.0
 10
44.6473
 20
-2.7901
 30
0.0
 10
44.6473
 20
-2.7901
 30
0.0
 10
44.745
 20
-2.894
 30
0.0
 10
44.8923
 20
-2.9607
 30
0.0
 10
45.0878
 20
-2.9904
 30
0.0
 10
45.0878
 20
-2.9904
 30
0.0
 10
45.0878
 20
-2.9904
 30
0.0
 10
45.0166
 20
-3.3901
 30
0.0
 10
45.0166
 20
-3.3901
 30
0.0
 10
45.0166
 20
-3.3901
 30
0.0
 10
44.7481
 20
-3.3416
 30
0.0
 10
44.5403
 20
-3.23
 30
0.0
 10
44.3932
 20
-3.0571
 30
0.0
 10
44.3932
 20
-3.0571
 30
0.0
 10
44.246
 20
-2.8835
 30
0.0
 10
44.1717
 20
-2.6681
 30
0.0
 10
44.1717
 20
-2.4103
 30
0.0
 10
44.1717
 20
-2.4103
 30
0.0
 10
44.1717
 20
-2.2327
 30
0.0
 10
44.2104
 20
-2.0689
 30
0.0
 10
44.2863
 20
-1.9194
 30
0.0
 10
44.2863
 20
-1.9194
 30
0.0
 10
44.3629
 20
-1.7701
 30
0.0
 10
44.4667
 20
-1.6557
 30
0.0
 10
44.5986
 20
-1.576
 30
0.0
 10
44.5986
 20
-1.576
 30
0.0
 10
44.7307
 20
-1.497
 30
0.0
 10
44.8702
 20
-1.4569
 30
0.0
 10
45.0188
 20
-1.4569
 30
0.0
 10
45.0188
 20
-1.4569
 30
0.0
 10
45.1591
 20
-1.4569
 30
0.0
 10
45.2873
 20
-1.4947
 30
0.0
 10
45.4034
 20
-1.5707
 30
0.0
 10
45.4034
 20
-1.5707
 30
0.0
 10
45.5187
 20
-1.6465
 30
0.0
 10
45.6104
 20
-1.758
 30
0.0
 10
45.6786
 20
-1.9059
 30
0.0
 10
45.6786
 20
-1.9059
 30
0.0
 10
45.7226
 20
-1.7132
 30
0.0
 10
45.8152
 20
-1.5638
 30
0.0
 10
45.9555
 20
-1.4569
 30
0.0
 10
45.9555
 20
-1.4569
 30
0.0
 10
46.0951
 20
-1.3508
 30
0.0
 10
46.2702
 20
-1.2976
 30
0.0
 10
46.4803
 20
-1.2976
 30
0.0
 10
46.4803
 20
-1.2976
 30
0.0
 10
46.7647
 20
-1.2976
 30
0.0
 10
47.0059
 20
-1.4007
 30
0.0
 10
47.2037
 20
-1.6086
 30
0.0
 10
47.2037
 20
-1.6086
 30
0.0
 10
47.4017
 20
-1.8156
 30
0.0
 10
47.5003
 20
-2.0779
 30
0.0
 10
47.5003
 20
-2.3949
 30
0.0
 10
47.5003
 20
-2.3949
 30
0.0
 10
47.5003
 20
-2.681
 30
0.0
 10
47.4155
 20
-2.9183
 30
0.0
 10
47.2447
 20
-3.1071
 30
0.0
 10
47.2447
 20
-3.1071
 30
0.0
 10
47.0749
 20
-3.2959
 30
0.0
 10
46.8542
 20
-3.4036
 30
0.0
 10
46.5827
 20
-3.4302
 30
0.0
  0
SPLINE
  5
D6
330
1F
100
AcDbEntity
  8
ROUND
 62
   250
100
AcDbSpline
210
0.0
220
0.0
230
1.0
 70
    11
 71
     3
 72
   124
 73
   120
 74
     0
 42
0.0000000001
 43
0.0000000001
 40
0.0
 40
0.0
 40
0.0
 40
0.0
 40
0.032258064516129
 40
0.032258064516129
 40
0.032258064516129
 40
0.032258064516129
 40
0.0645161290322581
 40
0.0645161290322581
 40
0.0645161290322581
 40
0.0645161290322581
 40
0.0967741935483871
 40
0.0967741935483871
 40
0.0967741935483871
 40
0.0967741935483871
 40
0.1290322580645161
 40
0.1290322580645161
 40
0.1290322580645161
 40
0.1290322580645161
 40
0.1612903225806452
 40
0.1612903225806452
 40
0.1612903225806452
 40
0.1612903225806452
 40
0.1935483870967742
 40
0.1935483870967742
 40
0.1935483870967742
 40
0.1935483870967742
 40
0.2258064516129032
 40
0.2258064516129032
 40
0.2258064516129032
 40
0.2258064516129032
 40
0.2580645161290323
 40
0.2580645161290323
 40
0.2580645161290323
 40
0.2580645161290323
 40
0.2903225806451613
 40
0.2903225806451613
 40
0.2903225806451613
 40
0.2903225806451613
 40
0.3225806451612903
 40
0.3225806451612903
 40
0.3225806451612903
 40
0.3225806451612903
 40
0.3548387096774194
 40
0.3548387096774194
 40
0.3548387096774194
 40
0.3548387096774194
 40
0.3870967741935484
 40
0.3870967741935484
 40
0.3870967741935484
 40
0.3870967741935484
 40
0.4193548387096774
 40
0.4193548387096774
 40
0.4193548387096774
 40
0.4193548387096774
 40
0.4516129032258064
 40
0.4516129032258064
 40
0.4516129032258064
 40
0.4516129032258064
 40
0.4838709677419355
 40
0.4838709677419355
 40
0.4838709677419355
 40
0.4838709677419355
 40
0.5161290322580645
 40
0.5161290322580645
 40
0.5161290322580645
 40
0.5161290322580645
 40
0.5483870967741935
 40
0.5483870967741935
 40
0.5483870967741935
 40
0.5483870967741935
 40
0.5806451612903226
 40
0.5806451612903226
 40
0.5806451612903226
 40
0.5806451612903226
 40
0.6129032258064516
 40
0.6129032258064516
 40
0.6129032258064516
 40
0.6129032258064516
 40
0.6451612903225806
 40
0.6451612903225806
 40
0.6451612903225806
 40
0.6451612903225806
 40
0.6774193548387096
 40
0.6774193548387096
 40
0.6774193548387096
 40
0.6774193548387096
 40
0.7096774193548387
 40
0.7096774193548387
 40
0.7096774193548387
 40
0.7096774193548387
 40
0.7419354838709677
 40
0.7419354838709677
 40
0.7419354838709677
 40
0.7419354838709677
 40
0.7741935483870968
 40
0.7741935483870968
 40
0.7741935483870968
 40
0.7741935483870968
 40
0.8064516129032258
 40
0.8064516129032258
 40
0.8064516129032258
 40
0.8064516129032258
 40
0.8387096774193549
 40
0.8387096774193549
 40
0.8387096774193549
 40
0.8387096774193549
 40
0.8709677419354839
 40
0.8709677419354839
 40
0.8709677419354839
 40
0.8709677419354839
 40
0.9032258064516129
 40
0.9032258064516129
 40
0.9032258064516129
 40
0.9032258064516129
 40
0.9354838709677419
 40
0.9354838709677419
 40
0.9354838709677419
 40
0.9354838709677419
 40
1.0
 40
1.0
 40
1.0
 40
1.0
 10
46.5827
 20
-0.8995
 30
0.0
 10
46.5827
 20
-0.8995
 30
0.0
 10
46.5296
 20
-0.4998
 30
0.0
 10
46.5296
 20
-0.4998
 30
0.0
 10
46.5296
 20
-0.4998
 30
0.0
 10
46.7563
 20
-0.4535
 30
0.0
 10
46.9195
 20
-0.3754
 30
0.0
 10
47.0195
 20
-0.2655
 30
0.0
 10
47.0195
 20
-0.2655
 30
0.0
 10
47.1196
 20
-0.1547
 30
0.0
 10
47.1697
 20
-0.0204
 30
0.0
 10
47.1697
 20
0.1381
 30
0.0
 10
47.1697
 20
0.1381
 30
0.0
 10
47.1697
 20
0.3261
 30
0.0
 10
47.1044
 20
0.4854
 30
0.0
 10
46.974
 20
0.615
 30
0.0
 10
46.974
 20
0.615
 30
0.0
 10
46.8435
 20
0.744
 30
0.0
 10
46.682
 20
0.8092
 30
0.0
 10
46.4895
 20
0.8092
 30
0.0
 10
46.4895
 20
0.8092
 30
0.0
 10
46.3058
 20
0.8092
 30
0.0
 10
46.1543
 20
0.7493
 30
0.0
 10
46.0351
 20
0.6295
 30
0.0
 10
46.0351
 20
0.6295
 30
0.0
 10
45.9161
 20
0.5089
 30
0.0
 10
45.8561
 20
0.3564
 30
0.0
 10
45.8561
 20
0.1715
 30
0.0
 10
45.8561
 20
0.1715
 30
0.0
 10
45.8561
 20
0.0955
 30
0.0
 10
45.8713
 20
0.0015
 30
0.0
 10
45.901
 20
-0.1107
 30
0.0
 10
45.901
 20
-0.1107
 30
0.0
 10
45.901
 20
-0.1107
 30
0.0
 10
45.5498
 20
-0.0659
 30
0.0
 10
45.5498
 20
-0.0659
 30
0.0
 10
45.5498
 20
-0.0659
 30
0.0
 10
45.5528
 20
-0.0394
 30
0.0
 10
45.5543
 20
-0.0181
 30
0.0
 10
45.5543
 20
-0.0015
 30
0.0
 10
45.5543
 20
-0.0015
 30
0.0
 10
45.5543
 20
0.1684
 30
0.0
 10
45.5095
 20
0.3216
 30
0.0
 10
45.4208
 20
0.4582
 30
0.0
 10
45.4208
 20
0.4582
 30
0.0
 10
45.3321
 20
0.5946
 30
0.0
 10
45.1947
 20
0.6629
 30
0.0
 10
45.0098
 20
0.6629
 30
0.0
 10
45.0098
 20
0.6629
 30
0.0
 10
44.8634
 20
0.6629
 30
0.0
 10
44.7413
 20
0.6128
 30
0.0
 10
44.6457
 20
0.5135
 30
0.0
 10
44.6457
 20
0.5135
 30
0.0
 10
44.5495
 20
0.4141
 30
0.0
 10
44.5009
 20
0.286
 30
0.0
 10
44.5009
 20
0.1289
 30
0.0
 10
44.5009
 20
0.1289
 30
0.0
 10
44.5009
 20
-0.0265
 30
0.0
 10
44.5501
 20
-0.1562
 30
0.0
 10
44.6473
 20
-0.2594
 30
0.0
 10
44.6473
 20
-0.2594
 30
0.0
 10
44.745
 20
-0.3632
 30
0.0
 10
44.8923
 20
-0.4299
 30
0.0
 10
45.0878
 20
-0.4596
 30
0.0
 10
45.0878
 20
-0.4596
 30
0.0
 10
45.0878
 20
-0.4596
 30
0.0
 10
45.0166
 20
-0.8593
 30
0.0
 10
45.0166
 20
-0.8593
 30
0.0
 10
45.0166
 20
-0.8593
 30
0.0
 10
44.7481
 20
-0.8108
 30
0.0
 10
44.5403
 20
-0.6992
 30
0.0
 10
44.3932
 20
-0.5264
 30
0.0
 10
44.3932
 20
-0.5264
 30
0.0
 10
44.246
 20
-0.3527
 30
0.0
 10
44.1717
 20
-0.1373
 30
0.0
 10
44.1717
 20
0.1205
 30
0.0
 10
44.1717
 20
0.1205
 30
0.0
 10
44.1717
 20
0.298
 30
0.0
 10
44.2104
 20
0.4619
 30
0.0
 10
44.2863
 20
0.6113
 30
0.0
 10
44.2863
 20
0.6113
 30
0.0
 10
44.3629
 20
0.7606
 30
0.0
 10
44.4667
 20
0.8751
 30
0.0
 10
44.5986
 20
0.9549
 30
0.0
 10
44.5986
 20
0.9549
 30
0.0
 10
44.7307
 20
1.0338
 30
0.0
 10
44.8702
 20
1.0739
 30
0.0
 10
45.0188
 20
1.0739
 30
0.0
 10
45.0188
 20
1.0739
 30
0.0
 10
45.1591
 20
1.0739
 30
0.0
 10
45.2873
 20
1.036
 30
0.0
 10
45.4034
 20
0.9601
 30
0.0
 10
45.4034
 20
0.9601
 30
0.0
 10
45.5187
 20
0.8843
 30
0.0
 10
45.6104
 20
0.7729
 30
0.0
 10
45.6786
 20
0.6249
 30
0.0
 10
45.6786
 20
0.6249
 30
0.0
 10
45.7226
 20
0.8176
 30
0.0
 10
45.8152
 20
0.967
 30
0.0
 10
45.9555
 20
1.0739
 30
0.0
 10
45.9555
 20
1.0739
 30
0.0
 10
46.0951
 20
1.18
 30
0.0
 10
46.2702
 20
1.2332
 30
0.0
 10
46.4803
 20
1.2332
 30
0.0
 10
46.4803
 20
1.2332
 30
0.0
 10
46.7647
 20
1.2332
 30
0.0
 10
47.0059
 20
1.13
 30
0.0
 10
47.2037
 20
0.9222
 30
0.0
 10
47.2037
 20
0.9222
 30
0.0
 10
47.4017
 20
0.7152
 30
0.0
 10
47.5003
 20
0.4528
 30
0.0
 10
47.5003
 20
0.1358
 30
0.0
 10
47.5003
 20
0.1358
 30
0.0
 10
47.5003
 20
-0.1502
 30
0.0
 10
47.4155
 20
-0.3875
 30
0.0
 10
47.2447
 20
-0.5763
 30
0.0
 10
47.2447
 20
-0.5763
 30
0.0
 10
47.0749
 20
-0.7652
 30
0.0
 10
46.8542
 20
-0.8729
 30
0.0
 10
46.5827
 20
-0.8995
 30
0.0
  0
SPLINE
  5
D7
330
1F
100
AcDbEntity
  8
ROUND
 62
   250
100
AcDbSpline
210
0.0
220
0.0
230
1.0
 70
    24
 71
     3
 72
     8
 73
     4
 74
     0
 42
0.0000000001
 43
0.0000000001
 40
0.0
 40
0.0
 40
0.0
 40
0.0
 40
1.0
 40
1.0
 40
1.0
 40
1.0
 10
35.8035
 20
13.8046
 30
0.0
 10
35.8035
 20
13.8046
 30
0.0
 10
48.5486
 20
13.8046
 30
0.0
 10
48.5486
 20
13.8046
 30
0.0
  0
SPLINE
  5
D8
330
1F
100
AcDbEntity
  8
ROUND
 62
   250
100
AcDbSpline
210
0.0
220
0.0
230
1.0
 70
    24
 71
     3
 72
     8
 73
     4
 74
     0
 42
0.0000000001
 43
0.0000000001
 40
0.0
 40
0.0
 40
0.0
 40
0.0
 40
1.0
 40
1.0
 40
1.0
 40
1.0
 10
35.8035
 20
-22.5515
 30
0.0
 10
35.8035
 20
-22.5515
 30
0.0
 10
48.6638
 20
-22.5515
 30
0.0
 10
48.6638
 20
-22.5515
 30
0.0
  0
SPLINE
  5
D9
330
1F
100
AcDbEntity
  8
ROUND
 62
   250
100
AcDbSpline
210
0.0
220
0.0
230
1.0
 70
    24
 71
     3
 72
     8
 73
     4
 74
     0
 42
0.0000000001
 43
0.0000000001
 40
0.0
 40
0.0
 40
0.0
 40
0.0
 40
1.0
 40
1.0
 40
1.0
 40
1.0
 10
34.3999
 20
-22.5752
 30
0.0
 10
34.3999
 20
-22.5752
 30
0.0
 10
28.9198
 20
-22.5752
 30
0.0
 10
28.9198
 20
-22.5752
 30
0.0
  0
SPLINE
  5
DA
330
1F
100
AcDbEntity
  8
ROUND
 62
   250
100
AcDbSpline
210
0.0
220
0.0
230
1.0
 70
    24
 71
     3
 72
     8
 73
     4
 74
     0
 42
0.0000000001
 43
0.0000000001
 40
0.0
 40
0.0
 40
0.0
 40
0.0
 40
1.0
 40
1.0
 40
1.0
 40
1.0
 10
34.3999
 20
13.8676
 30
0.0
 10
34.3999
 20
13.8676
 30
0.0
 10
28.9198
 20
13.8676
 30
0.0
 10
28.9198
 20
13.8676
 30
0.0
  0
SPLINE
  5
DB
330
1F
100
AcDbEntity
  8
ROUND
 62
   250
100
AcDbSpline
210
0.0
220
0.0
230
1.0
 70
    24
 71
     3
 72
     8
 73
     4
 74
     0
 42
0.0000000001
 43
0.0000000001
 40
0.0
 40
0.0
 40
0.0
 40
0.0
 40
1.0
 40
1.0
 40
1.0
 40
1.0
 10
28.9198
 20
-22.5752
 30
0.0
 10
28.9198
 20
-22.5752
 30
0.0
 10
28.9198
 20
13.8676
 30
0.0
 10
28.9198
 20
13.8676
 30
0.0
  0
SPLINE
  5
DC
330
1F
100
AcDbEntity
  8
ROUND
 62
   250
100
AcDbSpline
210
0.0
220
0.0
230
1.0
 70
    24
 71
     3
 72
     8
 73
     4
 74
     0
 42
0.0000000001
 43
0.0000000001
 40
0.0
 40
0.0
 40
0.0
 40
0.0
 40
1.0
 40
1.0
 40
1.0
 40
1.0
 10
34.948
 20
13.3196
 30
0.0
 10
34.948
 20
13.3196
 30
0.0
 10
34.948
 20
-22.0272
 30
0.0
 10
34.948
 20
-22.0272
 30
0.0
  0
SPLINE
  5
DD
330
1F
100
AcDbEntity
  8
ROUND
 62
   250
100
AcDbSpline
210
0.0
220
0.0
230
1.0
 70
     8
 71
     3
 72
    12
 73
     8
 74
     0
 42
0.0000000001
 43
0.0000000001
 40
0.0
 40
0.0
 40
0.0
 40
0.0
 40
0.3333333333333333
 40
0.3333333333333333
 40
0.3333333333333333
 40
0.3333333333333333
 40
1.0
 40
1.0
 40
1.0
 40
1.0
 10
34.3999
 20
-22.5752
 30
0.0
 10
34.5452
 20
-22.5752
 30
0.0
 10
34.6847
 20
-22.5175
 30
0.0
 10
34.7874
 20
-22.4148
 30
0.0
 10
34.7874
 20
-22.4148
 30
0.0
 10
34.8902
 20
-22.3119
 30
0.0
 10
34.948
 20
-22.1726
 30
0.0
 10
34.948
 20
-22.0272
 30
0.0
  0
SPLINE
  5
DE
330
1F
100
AcDbEntity
  8
ROUND
 62
   250
100
AcDbSpline
210
0.0
220
0.0
230
1.0
 70
     8
 71
     3
 72
    12
 73
     8
 74
     0
 42
0.0000000001
 43
0.0000000001
 40
0.0
 40
0.0
 40
0.0
 40
0.0
 40
0.3333333333333333
 40
0.3333333333333333
 40
0.3333333333333333
 40
0.3333333333333333
 40
1.0
 40
1.0
 40
1.0
 40
1.0
 10
34.948
 20
13.3196
 30
0.0
 10
34.948
 20
13.465
 30
0.0
 10
34.8902
 20
13.6043
 30
0.0
 10
34.7874
 20
13.7072
 30
0.0
 10
34.7874
 20
13.7072
 30
0.0
 10
34.6847
 20
13.8099
 30
0.0
 10
34.5452
 20
13.8676
 30
0.0
 10
34.3999
 20
13.8676
 30
0.0
  0
SPLINE
  5
DF
330
1F
100
AcDbEntity
  8
ROUND
  6
NEW_LINE2
 62
   250
100
AcDbSpline
210
0.0
220
0.0
230
1.0
 70
    24
 71
     3
 72
     8
 73
     4
 74
     0
 42
0.0000000001
 43
0.0000000001
 40
0.0
 40
0.0
 40
0.0
 40
0.0
 40
1.0
 40
1.0
 40
1.0
 40
1.0
 10
-17.357
 20
-4.354
 30
0.0
 10
-17.357
 20
-4.354
 30
0.0
 10
37.0049
 20
-4.354
 30
0.0
 10
37.0049
 20
-4.354
 30
0.0
  0
ENDSEC
  0
SECTION
  2
OBJECTS
  0
DICTIONARY
  5
C
330
0
100
AcDbDictionary
  3
ACAD_GROUP
350
D
  3
ACAD_LAYOUT
350
1A
  3
ACAD_MATERIAL
350
3B
  3
ACAD_MLEADERSTYLE
350
103
  3
ACAD_MLINESTYLE
350
17
  3
ACAD_PLOTSETTINGS
350
19
  3
ACAD_VISUALSTYLE
350
2A
  3
ACDBHEADERROUNDTRIPXREC
350
E1
  3
ACDBVARIABLEDICTIONARY
350
101
  0
DICTIONARY
  5
D
102
{ACAD_REACTORS
330
C
102
}
330
C
100
AcDbDictionary
  0
DICTIONARY
  5
1A
102
{ACAD_REACTORS
330
C
102
}
330
C
100
AcDbDictionary
  0
DICTIONARY
  5
3B
102
{ACAD_REACTORS
330
C
102
}
330
C
100
AcDbDictionary
  3
BYBLOCK
350
3D
  3
BYLAYER
350
3C
  3
GLOBAL
350
3E
  0
DICTIONARY
  5
103
102
{ACAD_REACTORS
330
C
102
}
330
C
100
AcDbDictionary
  0
DICTIONARY
  5
17
102
{ACAD_REACTORS
330
C
102
}
330
C
100
AcDbDictionary
  3
STANDARD
350
18
  0
DICTIONARY
  5
19
102
{ACAD_REACTORS
330
C
102
}
330
C
100
AcDbDictionary
  0
DICTIONARY
  5
2A
102
{ACAD_REACTORS
330
C
102
}
330
C
100
AcDbDictionary
  3
2DWIREFRAME
350
2F
  3
3D_HIDDEN
350
31
  3
3DWIREFRAME
350
30
  3
BASIC
350
32
  3
BRIGHTEN
350
36
  3
COLORCHANGE
350
3A
  3
CONCEPTUAL
350
34
  3
DIM
350
35
  3
FACEPATTERN
350
39
  3
FLAT
350
2B
  3
FLATWITHEDGES
350
2C
  3
GOURAUD
350
2D
  3
GOURAUDWITHEDGES
350
2E
  3
LINEPATTERN
350
38
  3
REALISTIC
350
33
  3
THICKEN
350
37
  0
DICTIONARY
  5
E1
102
{ACAD_REACTORS
330
C
102
}
330
C
100
AcDbDictionary
  3
CEPSNTYPE
350
EA
  3
DIMSTYLEDATA
350
100
  3
FINGERPRINTGUID
350
EB
  3
HYPERLINKBASE
350
E4
  3
INSUNITS
350
E9
  3
LAYOUTDICT
350
E6
  3
LWETCUNION
350
E8
  3
PLOTSETDICT
350
E7
  3
PSVPSCALE
350
ED
  3
PUCSBASE
350
F0
  3
PUCSORGBACK
350
F6
  3
PUCSORGBOTTOM
350
F2
  3
PUCSORGFRONT
350
F5
  3
PUCSORGLEFT
350
F3
  3
PUCSORGRIGHT
350
F4
  3
PUCSORGTOP
350
F1
  3
PUCSORTHOREF
350
EE
  3
PUCSORTHOVIEW
350
EF
  3
STYLESHEET
350
E5
  3
TSTACKALIGN
350
E2
  3
TSTACKSIZE
350
E3
  3
UCSBASE
350
F9
  3
UCSORGBACK
350
FF
  3
UCSORGBOTTOM
350
FB
  3
UCSORGFRONT
350
FE
  3
UCSORGLEFT
350
FC
  3
UCSORGRIGHT
350
FD
  3
UCSORGTOP
350
FA
  3
UCSORTHOREF
350
F7
  3
UCSORTHOVIEW
350
F8
  3
VERSIONGUID
350
EC
  0
DICTIONARY
  5
101
102
{ACAD_REACTORS
330
C
102
}
330
C
100
AcDbDictionary
  3
DIMASSOC
350
104
  3
HIDETEXT
350
105
  0
MATERIAL
  5
3D
102
{ACAD_REACTORS
330
3B
102
}
102
{ACAD_XDICTIONARY
360
108
102
}
330
3B
100
AcDbMaterial
  1
ByBlock
  0
MATERIAL
  5
3C
102
{ACAD_REACTORS
330
3B
102
}
102
{ACAD_XDICTIONARY
360
106
102
}
330
3B
100
AcDbMaterial
  1
ByLayer
  0
MATERIAL
  5
3E
102
{ACAD_REACTORS
330
3B
102
}
102
{ACAD_XDICTIONARY
360
10A
102
}
330
3B
100
AcDbMaterial
  1
Global
  0
MLINESTYLE
  5
18
102
{ACAD_REACTORS
330
17
102
}
330
17
100
AcDbMlineStyle
  2
Standard
 70
     0
  3

 62
   256
 51
90.0
 52
90.0
 71
     2
 49
0.5
 62
   256
  6
BYLAYER
 49
-0.5
 62
   256
  6
BYLAYER
  0
ACAD_PROXY_OBJECT
  5
2F
102
{ACAD_REACTORS
330
2A
102
}
330
2A
100
AcDbProxyObject
 90
      499
 91
      501
 93
      436
310
42CC9915DA5C99599C985B595049028333333333333E3BF0000000000000FB0107901411070040501600405405064090741402480A0340
1001
ACAD
1000
AcDbSavedByObjectVersion
1070
     0
  0
ACAD_PROXY_OBJECT
  5
31
102
{ACAD_REACTORS
330
2A
102
}
330
2A
100
AcDbProxyObject
 90
      499
 91
      501
 93
      500
310
424CD108121A5919195B90640502408333333333333E3BF0000000000000FB01079024090700405020000000000001110200405405064090740C02480A0340
1001
ACAD
1000
AcDbSavedByObjectVersion
1070
     0
  0
ACAD_PROXY_OBJECT
  5
30
102
{ACAD_REACTORS
330
2A
102
}
330
2A
100
AcDbProxyObject
 90
      499
 91
      501
 93
      436
310
42CCD915DA5C99599C985B595059028333333333333E3BF0000000000000FB0107901411070040501600405405064090741402480A0340
1001
ACAD
1000
AcDbSavedByObjectVersion
1070
     0
  0
ACAD_PROXY_OBJECT
  5
32
102
{ACAD_REACTORS
330
2A
102
}
330
2A
100
AcDbProxyObject
 90
      499
 91
      501
 93
      388
310
4150985CDA58D07406404333333333333E3BF0000000000000FB0107A41107004050150841D405064090741402480A0350
1001
ACAD
1000
AcDbSavedByObjectVersion
1070
     0
  0
ACAD_PROXY_OBJECT
  5
36
102
{ACAD_REACTORS
330
2A
102
}
330
2A
100
AcDbProxyObject
 90
      499
 91
      501
 93
      428
310
42109C9A59DA1D195B90C409028333333333333E3BF0000000000000FB010790141107004050150841D405064090741402480A029950
1001
ACAD
1000
AcDbSavedByObjectVersion
1070
     0
  0
ACAD_PROXY_OBJECT
  5
3A
102
{ACAD_REACTORS
330
2A
102
}
330
2A
100
AcDbProxyObject
 90
      499
 91
      501
 93
      452
310
42D0DBDB1BDC90DA185B99D95104090240C333333333333E3BF0000000000000FB0108901411070040501508421405064090741402480A0350
1001
ACAD
1000
AcDbSavedByObjectVersion
1070
     0
  0
ACAD_PROXY_OBJECT
  5
34
102
{ACAD_REACTORS
330
2A
102
}
330
2A
100
AcDbProxyObject
 90
      499
 91
      501
 93
      500
310
4290DBDB98D95C1D1D585B10940D028333333333333E3BF0000000000000FB0107902409070040501000000000000111010841D405064090740C02480A0340
1001
ACAD
1000
AcDbSavedByObjectVersion
1070
     0
  0
ACAD_PROXY_OBJECT
  5
35
102
{ACAD_REACTORS
330
2A
102
}
330
2A
100
AcDbProxyObject
 90
      499
 91
      501
 93
      412
310
40D11A5B50B409028333333333333E3BF0000000000000FB010790141107004050150841D405064090741402480A02677FFFFFD0
1001
ACAD
1000
AcDbSavedByObjectVersion
1070
     0
  0
ACAD_PROXY_OBJECT
  5
39
102
{ACAD_REACTORS
330
2A
102
}
330
2A
100
AcDbProxyObject
 90
      499
 91
      501
 93
      444
310
42D19858D95C185D1D195C9B90F409028333333333333E3BF0000000000000FB010790141107004050150841D405064090741402480A0350
1001
ACAD
1000
AcDbSavedByObjectVersion
1070
     0
  0
ACAD_PROXY_OBJECT
  5
2B
102
{ACAD_REACTORS
330
2A
102
}
330
2A
100
AcDbProxyObject
 90
      499
 91
      501
 93
      388
310
41119B185D240901404333333333333E3BF0000000000000F9010740A41107004050150841D405064090741402480A1B50
1001
ACAD
1000
AcDbSavedByObjectVersion
1070
     0
  0
ACAD_PROXY_OBJECT
  5
2C
102
{ACAD_REACTORS
330
2A
102
}
330
2A
100
AcDbProxyObject
 90
      499
 91
      501
 93
      476
310
43519B185D15DA5D1A115919D95CD0140901404333333333333E3BF0000000000000F9010740901411070040501600405405064090741402480A1B50
1001
ACAD
1000
AcDbSavedByObjectVersion
1070
     0
  0
ACAD_PROXY_OBJECT
  5
2D
102
{ACAD_REACTORS
330
2A
102
}
330
2A
100
AcDbProxyObject
 90
      499
 91
      501
 93
      412
310
41D1DBDD5C985D5910240902404333333333333E3BF0000000000000F9010740A411070040501641D405064090741402480A1B50
1001
ACAD
1000
AcDbSavedByObjectVersion
1070
     0
  0
ACAD_PROXY_OBJECT
  5
2E
102
{ACAD_REACTORS
330
2A
102
}
330
2A
100
AcDbProxyObject
 90
      499
 91
      501
 93
      500
310
4411DBDD5C985D5915DA5D1A115919D95CD0340902404333333333333E3BF0000000000000F9010740901411070040501600405405064090741402480A1B50
1001
ACAD
1000
AcDbSavedByObjectVersion
1070
     0
  0
ACAD_PROXY_OBJECT
  5
38
102
{ACAD_REACTORS
330
2A
102
}
330
2A
100
AcDbProxyObject
 90
      499
 91
      501
 93
      444
310
42D31A5B995C185D1D195C9B90E409028333333333333E3BF0000000000000FB010790141107004050750841D405064090741402483A0350
1001
ACAD
1000
AcDbSavedByObjectVersion
1070
     0
  0
ACAD_PROXY_OBJECT
  5
33
102
{ACAD_REACTORS
330
2A
102
}
330
2A
100
AcDbProxyObject
 90
      499
 91
      501
 93
      420
310
425499585B1A5CDD1A58D08409028333333333333E3BF0000000000000FB01079019070040501508421405064090741402480A1B40
1001
ACAD
1000
AcDbSavedByObjectVersion
1070
     0
  0
ACAD_PROXY_OBJECT
  5
37
102
{ACAD_REACTORS
330
2A
102
}
330
2A
100
AcDbProxyObject
 90
      499
 91
      501
 93
      412
310
41D51A1A58DAD95B90D409028333333333333E3BF0000000000000FB010790141107004050150C41D405064090741402480A0350
1001
ACAD
1000
AcDbSavedByObjectVersion
1070
     0
  0
XRECORD
  5
EA
102
{ACAD_REACTORS
330
E1
102
}
330
E1
100
AcDbXrecord
 90
        0
  0
XRECORD
  5
100
102
{ACAD_REACTORS
330
E1
102
}
330
E1
100
AcDbXrecord
1000
DSTYLE
1002
{
1070
   340
340
11
1002
}
  0
XRECORD
  5
EB
102
{ACAD_REACTORS
330
E1
102
}
330
E1
100
AcDbXrecord
  1
{B15D14B5-FDEE-45C3-A464-EC4940E9D856}
  0
XRECORD
  5
E4
102
{ACAD_REACTORS
330
E1
102
}
330
E1
100
AcDbXrecord
  1

  0
XRECORD
  5
E9
102
{ACAD_REACTORS
330
E1
102
}
330
E1
100
AcDbXrecord
 90
        4
  0
XRECORD
  5
E6
102
{ACAD_REACTORS
330
E1
102
}
330
E1
100
AcDbXrecord
340
1A
  0
XRECORD
  5
E8
102
{ACAD_REACTORS
330
E1
102
}
330
E1
100
AcDbXrecord
 90
    10781
  0
XRECORD
  5
E7
102
{ACAD_REACTORS
330
E1
102
}
330
E1
100
AcDbXrecord
340
19
  0
XRECORD
  5
ED
102
{ACAD_REACTORS
330
E1
102
}
330
E1
100
AcDbXrecord
 40
0.0
  0
XRECORD
  5
F0
102
{ACAD_REACTORS
330
E1
102
}
330
E1
100
AcDbXrecord
340
0
  0
XRECORD
  5
F6
102
{ACAD_REACTORS
330
E1
102
}
330
E1
100
AcDbXrecord
 10
0.0
 20
0.0
 30
0.0
  0
XRECORD
  5
F2
102
{ACAD_REACTORS
330
E1
102
}
330
E1
100
AcDbXrecord
 10
0.0
 20
0.0
 30
0.0
  0
XRECORD
  5
F5
102
{ACAD_REACTORS
330
E1
102
}
330
E1
100
AcDbXrecord
 10
0.0
 20
0.0
 30
0.0
  0
XRECORD
  5
F3
102
{ACAD_REACTORS
330
E1
102
}
330
E1
100
AcDbXrecord
 10
0.0
 20
0.0
 30
0.0
  0
XRECORD
  5
F4
102
{ACAD_REACTORS
330
E1
102
}
330
E1
100
AcDbXrecord
 10
0.0
 20
0.0
 30
0.0
  0
XRECORD
  5
F1
102
{ACAD_REACTORS
330
E1
102
}
330
E1
100
AcDbXrecord
 10
0.0
 20
0.0
 30
0.0
  0
XRECORD
  5
EE
102
{ACAD_REACTORS
330
E1
102
}
330
E1
100
AcDbXrecord
340
0
  0
XRECORD
  5
EF
102
{ACAD_REACTORS
330
E1
102
}
330
E1
100
AcDbXrecord
 70
     0
  0
XRECORD
  5
E5
102
{ACAD_REACTORS
330
E1
102
}
330
E1
100
AcDbXrecord
  1

  0
XRECORD
  5
E2
102
{ACAD_REACTORS
330
E1
102
}
330
E1
100
AcDbXrecord
 90
        1
  0
XRECORD
  5
E3
102
{ACAD_REACTORS
330
E1
102
}
330
E1
100
AcDbXrecord
 90
       70
  0
XRECORD
  5
F9
102
{ACAD_REACTORS
330
E1
102
}
330
E1
100
AcDbXrecord
340
0
  0
XRECORD
  5
FF
102
{ACAD_REACTORS
330
E1
102
}
330
E1
100
AcDbXrecord
 10
0.0
 20
0.0
 30
0.0
  0
XRECORD
  5
FB
102
{ACAD_REACTORS
330
E1
102
}
330
E1
100
AcDbXrecord
 10
0.0
 20
0.0
 30
0.0
  0
XRECORD
  5
FE
102
{ACAD_REACTORS
330
E1
102
}
330
E1
100
AcDbXrecord
 10
0.0
 20
0.0
 30
0.0
  0
XRECORD
  5
FC
102
{ACAD_REACTORS
330
E1
102
}
330
E1
100
AcDbXrecord
 10
0.0
 20
0.0
 30
0.0
  0
XRECORD
  5
FD
102
{ACAD_REACTORS
330
E1
102
}
330
E1
100
AcDbXrecord
 10
0.0
 20
0.0
 30
0.0
  0
XRECORD
  5
FA
102
{ACAD_REACTORS
330
E1
102
}
330
E1
100
AcDbXrecord
 10
0.0
 20
0.0
 30
0.0
  0
XRECORD
  5
F7
102
{ACAD_REACTORS
330
E1
102
}
330
E1
100
AcDbXrecord
340
0
  0
XRECORD
  5
F8
102
{ACAD_REACTORS
330
E1
102
}
330
E1
100
AcDbXrecord
 70
     0
  0
XRECORD
  5
EC
102
{ACAD_REACTORS
330
E1
102
}
330
E1
100
AcDbXrecord
  1
{FAEB1C32-E019-11D5-929B-00C0DF256EC4}
  0
DICTIONARYVAR
  5
104
102
{ACAD_REACTORS
330
101
102
}
330
101
100
DictionaryVariables
280
     0
  1
2
  0
DICTIONARYVAR
  5
105
102
{ACAD_REACTORS
330
101
102
}
330
101
100
DictionaryVariables
280
     0
  1
1
  0
DICTIONARY
  5
108
330
3D
100
AcDbDictionary
280
     1
  3
ACAD_XREC_ROUNDTRIP
360
109
  0
DICTIONARY
  5
106
330
3C
100
AcDbDictionary
280
     1
  3
ACAD_XREC_ROUNDTRIP
360
107
  0
DICTIONARY
  5
10A
330
3E
100
AcDbDictionary
280
     1
  3
ACAD_XREC_ROUNDTRIP
360
10B
  0
XRECORD
  5
109
102
{ACAD_REACTORS
330
108
102
}
330
108
100
AcDbXrecord
102
MATERIAL
148
0.0
149
0.0
149
0.0
 93
        0
 94
      127
282
     0
 72
     1
 77
     1
171
     1
175
     1
179
     1
273
     0
  0
XRECORD
  5
107
102
{ACAD_REACTORS
330
106
102
}
330
106
100
AcDbXrecord
102
MATERIAL
148
0.0
149
0.0
149
0.0
 93
        0
 94
      127
282
     0
 72
     1
 77
     1
171
     1
175
     1
179
     1
273
     0
  0
XRECORD
  5
10B
102
{ACAD_REACTORS
330
10A
102
}
330
10A
100
AcDbXrecord
102
MATERIAL
148
0.0
149
0.0
149
0.0
 93
        0
 94
      127
282
     0
 72
     1
 77
     1
171
     1
175
     1
179
     1
273
     0
  0
ENDSEC
  0
EOF
