  0
SECTION
  2
HEADER
  9
$ACADVER
  1
AC1014
  9
$ACADMAINTVER
 70
     9
  9
$DWGCODEPAGE
  3
ANSI_1250
  9
$INSBASE
 10
0.0
 20
0.0
 30
0.0
  9
$EXTMIN
 10
-53.6406
 20
-21.2912
 30
0.0
  9
$EXTMAX
 10
53.6405
 20
21.3636
 30
0.0
  9
$LIMMIN
 10
0.0
 20
0.0
  9
$LIMMAX
 10
12.0
 20
9.0
  9
$ORTHOMODE
 70
     0
  9
$REGENMODE
 70
     1
  9
$FILLMODE
 70
     1
  9
$QTEXTMODE
 70
     0
  9
$MIRRTEXT
 70
     1
  9
$DRAGMODE
 70
     2
  9
$LTSCALE
 40
1.0
  9
$OSMODE
 70
    37
  9
$ATTMODE
 70
     1
  9
$TEXTSIZE
 40
0.2
  9
$TRACEWID
 40
0.05
  9
$TEXTSTYLE
  7
STANDARD
  9
$CLAYER
  8
0
  9
$CELTYPE
  6
BYLAYER
  9
$CECOLOR
 62
   256
  9
$CELTSCALE
 40
1.0
  9
$DELOBJ
 70
     1
  9
$DISPSILH
 70
     0
  9
$DIMSCALE
 40
1.0
  9
$DIMASZ
 40
0.18
  9
$DIMEXO
 40
0.0625
  9
$DIMDLI
 40
0.38
  9
$DIMRND
 40
0.0
  9
$DIMDLE
 40
0.0
  9
$DIMEXE
 40
0.18
  9
$DIMTP
 40
0.0
  9
$DIMTM
 40
0.0
  9
$DIMTXT
 40
0.18
  9
$DIMCEN
 40
0.09
  9
$DIMTSZ
 40
0.0
  9
$DIMTOL
 70
     0
  9
$DIMLIM
 70
     0
  9
$DIMTIH
 70
     1
  9
$DIMTOH
 70
     1
  9
$DIMSE1
 70
     0
  9
$DIMSE2
 70
     0
  9
$DIMTAD
 70
     0
  9
$DIMZIN
 70
     0
  9
$DIMBLK
  1

  9
$DIMASO
 70
     1
  9
$DIMSHO
 70
     1
  9
$DIMPOST
  1

  9
$DIMAPOST
  1

  9
$DIMALT
 70
     0
  9
$DIMALTD
 70
     2
  9
$DIMALTF
 40
25.4
  9
$DIMLFAC
 40
1.0
  9
$DIMTOFL
 70
     0
  9
$DIMTVP
 40
0.0
  9
$DIMTIX
 70
     0
  9
$DIMSOXD
 70
     0
  9
$DIMSAH
 70
     0
  9
$DIMBLK1
  1

  9
$DIMBLK2
  1

  9
$DIMSTYLE
  2
STANDARD
  9
$DIMCLRD
 70
     0
  9
$DIMCLRE
 70
     0
  9
$DIMCLRT
 70
     0
  9
$DIMTFAC
 40
1.0
  9
$DIMGAP
 40
0.09
  9
$DIMJUST
 70
     0
  9
$DIMSD1
 70
     0
  9
$DIMSD2
 70
     0
  9
$DIMTOLJ
 70
     1
  9
$DIMTZIN
 70
     0
  9
$DIMALTZ
 70
     0
  9
$DIMALTTZ
 70
     0
  9
$DIMFIT
 70
     3
  9
$DIMUPT
 70
     0
  9
$DIMUNIT
 70
     2
  9
$DIMDEC
 70
     4
  9
$DIMTDEC
 70
     4
  9
$DIMALTU
 70
     2
  9
$DIMALTTD
 70
     2
  9
$DIMTXSTY
  7
STANDARD
  9
$DIMAUNIT
 70
     0
  9
$LUNITS
 70
     2
  9
$LUPREC
 70
     4
  9
$SKETCHINC
 40
0.1
  9
$FILLETRAD
 40
0.5
  9
$AUNITS
 70
     0
  9
$AUPREC
 70
     0
  9
$MENU
  1
.
  9
$ELEVATION
 40
0.0
  9
$PELEVATION
 40
0.0
  9
$THICKNESS
 40
0.0
  9
$LIMCHECK
 70
     0
  9
$CHAMFERA
 40
0.5
  9
$CHAMFERB
 40
0.5
  9
$CHAMFERC
 40
1.0
  9
$CHAMFERD
 40
0.0
  9
$SKPOLY
 70
     0
  9
$TDCREATE
 40
2456220.562505255
  9
$TDUPDATE
 40
2456220.562505266
  9
$TDINDWG
 40
0.0000000116
  9
$TDUSRTIMER
 40
0.0000000116
  9
$USRTIMER
 70
     1
  9
$ANGBASE
 50
0.0
  9
$ANGDIR
 70
     0
  9
$PDMODE
 70
     0
  9
$PDSIZE
 40
0.0
  9
$PLINEWID
 40
0.0
  9
$COORDS
 70
     1
  9
$SPLFRAME
 70
     0
  9
$SPLINETYPE
 70
     6
  9
$SPLINESEGS
 70
     8
  9
$ATTDIA
 70
     0
  9
$ATTREQ
 70
     1
  9
$HANDLING
 70
     1
  9
$HANDSEED
  5
88
  9
$SURFTAB1
 70
     6
  9
$SURFTAB2
 70
     6
  9
$SURFTYPE
 70
     6
  9
$SURFU
 70
     6
  9
$SURFV
 70
     6
  9
$UCSNAME
  2

  9
$UCSORG
 10
0.0
 20
0.0
 30
0.0
  9
$UCSXDIR
 10
1.0
 20
0.0
 30
0.0
  9
$UCSYDIR
 10
0.0
 20
1.0
 30
0.0
  9
$PUCSNAME
  2

  9
$PUCSORG
 10
0.0
 20
0.0
 30
0.0
  9
$PUCSXDIR
 10
1.0
 20
0.0
 30
0.0
  9
$PUCSYDIR
 10
0.0
 20
1.0
 30
0.0
  9
$USERI1
 70
     0
  9
$USERI2
 70
     0
  9
$USERI3
 70
     0
  9
$USERI4
 70
     0
  9
$USERI5
 70
     0
  9
$USERR1
 40
0.0
  9
$USERR2
 40
0.0
  9
$USERR3
 40
0.0
  9
$USERR4
 40
0.0
  9
$USERR5
 40
0.0
  9
$WORLDVIEW
 70
     1
  9
$SHADEDGE
 70
     3
  9
$SHADEDIF
 70
    70
  9
$TILEMODE
 70
     1
  9
$MAXACTVP
 70
    64
  9
$PINSBASE
 10
0.0
 20
0.0
 30
0.0
  9
$PLIMCHECK
 70
     0
  9
$PEXTMIN
 10
1.000000000000000E+20
 20
1.000000000000000E+20
 30
1.000000000000000E+20
  9
$PEXTMAX
 10
-1.000000000000000E+20
 20
-1.000000000000000E+20
 30
-1.000000000000000E+20
  9
$PLIMMIN
 10
0.0
 20
0.0
  9
$PLIMMAX
 10
12.0
 20
9.0
  9
$UNITMODE
 70
     0
  9
$VISRETAIN
 70
     1
  9
$PLINEGEN
 70
     0
  9
$PSLTSCALE
 70
     1
  9
$TREEDEPTH
 70
  3020
  9
$PICKSTYLE
 70
     1
  9
$CMLSTYLE
  2
STANDARD
  9
$CMLJUST
 70
     0
  9
$CMLSCALE
 40
1.0
  9
$PROXYGRAPHICS
 70
     1
  9
$MEASUREMENT
 70
     0
  0
ENDSEC
  0
SECTION
  2
CLASSES
  0
CLASS
  1
ACDBDICTIONARYWDFLT
  2
AcDbDictionaryWithDefault
  3
ObjectDBX Classes
 90
        0
280
     0
281
     0
  0
CLASS
  1
VISUALSTYLE
  2
AcDbVisualStyle
  3
ObjectDBX Classes
 90
     4095
280
     0
281
     0
  0
CLASS
  1
MATERIAL
  2
AcDbMaterial
  3
ObjectDBX Classes
 90
     1153
280
     0
281
     0
  0
CLASS
  1
DICTIONARYVAR
  2
AcDbDictionaryVar
  3
ObjectDBX Classes
 90
        0
280
     0
281
     0
  0
CLASS
  1
XRECORD
  2
AcDbXrecord
  3
AutoCAD 2000
 90
        0
280
     0
281
     0
  0
CLASS
  1
LWPOLYLINE
  2
AcDbPolyline
  3
AutoCAD 2000
 90
        0
280
     0
281
     1
  0
CLASS
  1
HATCH
  2
AcDbHatch
  3
AutoCAD 2000
 90
        0
280
     0
281
     1
  0
CLASS
  1
ACDBPLACEHOLDER
  2
AcDbPlaceHolder
  3
ObjectDBX Classes
 90
        0
280
     0
281
     0
  0
CLASS
  1
LAYOUT
  2
AcDbLayout
  3
ObjectDBX Classes
 90
        0
280
     0
281
     0
  0
ENDSEC
  0
SECTION
  2
TABLES
  0
TABLE
  2
VPORT
  5
8
330
0
100
AcDbSymbolTable
 70
     1
  0
VPORT
  5
29
330
8
100
AcDbSymbolTableRecord
100
AcDbViewportTableRecord
  2
*ACTIVE
 70
     0
 10
0.0
 20
0.0
 11
1.0
 21
1.0
 12
10.42990654205607
 22
4.5
 13
0.0
 23
0.0
 14
0.5
 24
0.5
 15
0.5
 25
0.5
 16
0.0
 26
0.0
 36
1.0
 17
0.0
 27
0.0
 37
0.0
 40
9.0
 41
1.972972972850329
 42
50.0
 43
0.0
 44
0.0
 50
0.0
 51
0.0
 71
     0
 72
   100
 73
     1
 74
     3
 75
     0
 76
     0
 77
     0
 78
     0
  0
ENDTAB
  0
TABLE
  2
LTYPE
  5
5
330
0
100
AcDbSymbolTable
 70
     1
  0
LTYPE
  5
14
330
5
100
AcDbSymbolTableRecord
100
AcDbLinetypeTableRecord
  2
BYBLOCK
 70
     0
  3

 72
    65
 73
     0
 40
0.0
  0
LTYPE
  5
15
330
5
100
AcDbSymbolTableRecord
100
AcDbLinetypeTableRecord
  2
BYLAYER
 70
     0
  3

 72
    65
 73
     0
 40
0.0
  0
LTYPE
  5
16
330
5
100
AcDbSymbolTableRecord
100
AcDbLinetypeTableRecord
  2
CONTINUOUS
 70
     0
  3
Solid line
 72
    65
 73
     0
 40
0.0
  0
ENDTAB
  0
TABLE
  2
LAYER
  5
2
330
0
100
AcDbSymbolTable
 70
     2
  0
LAYER
  5
10
330
2
100
AcDbSymbolTableRecord
100
AcDbLayerTableRecord
  2
0
 70
     0
 62
     7
  6
CONTINUOUS
  0
LAYER
  5
40
330
2
100
AcDbSymbolTableRecord
100
AcDbLayerTableRecord
  2
VRSTVA_1
 70
     0
 62
     7
  6
CONTINUOUS
  0
ENDTAB
  0
TABLE
  2
STYLE
  5
3
330
0
100
AcDbSymbolTable
 70
     1
  0
STYLE
  5
11
330
3
100
AcDbSymbolTableRecord
100
AcDbTextStyleTableRecord
  2
STANDARD
 70
     0
 40
0.0
 41
1.0
 50
0.0
 71
     0
 42
0.2
  3
txt
  4

  0
ENDTAB
  0
TABLE
  2
VIEW
  5
6
330
0
100
AcDbSymbolTable
 70
     0
  0
ENDTAB
  0
TABLE
  2
UCS
  5
7
330
0
100
AcDbSymbolTable
 70
     0
  0
ENDTAB
  0
TABLE
  2
APPID
  5
9
330
0
100
AcDbSymbolTable
 70
     2
  0
APPID
  5
12
330
9
100
AcDbSymbolTableRecord
100
AcDbRegAppTableRecord
  2
ACAD
 70
     0
  0
APPID
  5
3F
330
9
100
AcDbSymbolTableRecord
100
AcDbRegAppTableRecord
  2
ODA
 70
     0
  0
ENDTAB
  0
TABLE
  2
DIMSTYLE
  5
A
330
0
100
AcDbSymbolTable
 70
     1
  0
DIMSTYLE
105
27
330
A
100
AcDbSymbolTableRecord
100
AcDbDimStyleTableRecord
  2
STANDARD
 70
     0
  3

  4

  5

  6

  7

 40
1.0
 41
0.18
 42
0.0625
 43
0.38
 44
0.18
 45
0.0
 46
0.0
 47
0.0
 48
0.0
140
0.18
141
0.09
142
0.0
143
25.4
144
1.0
145
0.0
146
1.0
147
0.09
 71
     0
 72
     0
 73
     1
 74
     1
 75
     0
 76
     0
 77
     0
 78
     0
170
     0
171
     2
172
     0
173
     0
174
     0
175
     0
176
     0
177
     0
178
     0
270
     2
271
     4
272
     4
273
     2
274
     2
340
11
275
     0
280
     0
281
     0
282
     0
283
     1
284
     0
285
     0
286
     0
287
     3
288
     0
  0
ENDTAB
  0
TABLE
  2
BLOCK_RECORD
  5
1
330
0
100
AcDbSymbolTable
 70
     1
  0
BLOCK_RECORD
  5
1F
330
1
100
AcDbSymbolTableRecord
100
AcDbBlockTableRecord
  2
*MODEL_SPACE
  0
BLOCK_RECORD
  5
1B
330
1
100
AcDbSymbolTableRecord
100
AcDbBlockTableRecord
  2
*PAPER_SPACE
  0
ENDTAB
  0
ENDSEC
  0
SECTION
  2
BLOCKS
  0
BLOCK
  5
20
330
1F
100
AcDbEntity
  8
0
100
AcDbBlockBegin
  2
*MODEL_SPACE
 70
     0
 10
0.0
 20
0.0
 30
0.0
  3
*MODEL_SPACE
  1

  0
ENDBLK
  5
21
330
1F
100
AcDbEntity
  8
0
100
AcDbBlockEnd
  0
BLOCK
  5
1C
330
1B
100
AcDbEntity
 67
     1
  8
0
100
AcDbBlockBegin
  2
*PAPER_SPACE
 70
     0
 10
0.0
 20
0.0
 30
0.0
  3
*PAPER_SPACE
  1

  0
ENDBLK
  5
1D
330
1B
100
AcDbEntity
 67
     1
  8
0
100
AcDbBlockEnd
  0
ENDSEC
  0
SECTION
  2
ENTITIES
  0
SPLINE
  5
41
330
1F
100
AcDbEntity
  8
VRSTVA_1
 62
   250
100
AcDbSpline
210
0.0
220
0.0
230
1.0
 70
    24
 71
     3
 72
     8
 73
     4
 74
     0
 42
0.0000000001
 43
0.0000000001
 40
0.0
 40
0.0
 40
0.0
 40
0.0
 40
1.0
 40
1.0
 40
1.0
 40
1.0
 10
-47.1269
 20
-12.5594
 30
0.0
 10
-47.1269
 20
-12.5594
 30
0.0
 10
-47.1269
 20
-21.2325
 30
0.0
 10
-47.1269
 20
-21.2325
 30
0.0
  0
SPLINE
  5
42
330
1F
100
AcDbEntity
  8
VRSTVA_1
 62
   250
100
AcDbSpline
210
0.0
220
0.0
230
1.0
 70
    24
 71
     3
 72
     8
 73
     4
 74
     0
 42
0.0000000001
 43
0.0000000001
 40
0.0
 40
0.0
 40
0.0
 40
0.0
 40
1.0
 40
1.0
 40
1.0
 40
1.0
 10
37.2849
 20
-12.5742
 30
0.0
 10
37.2849
 20
-12.5742
 30
0.0
 10
37.2849
 20
-21.2912
 30
0.0
 10
37.2849
 20
-21.2912
 30
0.0
  0
SPLINE
  5
43
330
1F
100
AcDbEntity
  8
VRSTVA_1
 62
   250
100
AcDbSpline
210
0.0
220
0.0
230
1.0
 70
    24
 71
     3
 72
     8
 73
     4
 74
     0
 42
0.0000000001
 43
0.0000000001
 40
0.0
 40
0.0
 40
0.0
 40
0.0
 40
1.0
 40
1.0
 40
1.0
 40
1.0
 10
-46.1478
 20
-20.4924
 30
0.0
 10
-46.1478
 20
-20.4924
 30
0.0
 10
36.6307
 20
-20.4924
 30
0.0
 10
36.6307
 20
-20.4924
 30
0.0
  0
SPLINE
  5
44
330
1F
100
AcDbEntity
  8
VRSTVA_1
 62
   250
100
AcDbSpline
210
0.0
220
0.0
230
1.0
 70
    11
 71
     3
 72
    20
 73
    16
 74
     0
 42
0.0000000001
 43
0.0000000001
 40
0.0
 40
0.0
 40
0.0
 40
0.0
 40
0.2
 40
0.2
 40
0.2
 40
0.2
 40
0.4
 40
0.4
 40
0.4
 40
0.4
 40
0.6
 40
0.6
 40
0.6
 40
0.6
 40
1.0
 40
1.0
 40
1.0
 40
1.0
 10
34.2066
 20
-20.011
 30
0.0
 10
34.2066
 20
-20.011
 30
0.0
 10
37.2065
 20
-20.4343
 30
0.0
 10
37.2065
 20
-20.4343
 30
0.0
 10
37.2065
 20
-20.4343
 30
0.0
 10
37.2065
 20
-20.4343
 30
0.0
 10
37.2065
 20
-20.5283
 30
0.0
 10
37.2065
 20
-20.5283
 30
0.0
 10
37.2065
 20
-20.5283
 30
0.0
 10
37.2065
 20
-20.5283
 30
0.0
 10
34.2066
 20
-20.9797
 30
0.0
 10
34.2066
 20
-20.9797
 30
0.0
 10
34.2066
 20
-20.9797
 30
0.0
 10
34.2066
 20
-20.9797
 30
0.0
 10
34.2066
 20
-20.011
 30
0.0
 10
34.2066
 20
-20.011
 30
0.0
  0
SPLINE
  5
45
330
1F
100
AcDbEntity
  8
VRSTVA_1
 62
   250
100
AcDbSpline
210
0.0
220
0.0
230
1.0
 70
    11
 71
     3
 72
    20
 73
    16
 74
     0
 42
0.0000000001
 43
0.0000000001
 40
0.0
 40
0.0
 40
0.0
 40
0.0
 40
0.2
 40
0.2
 40
0.2
 40
0.2
 40
0.4
 40
0.4
 40
0.4
 40
0.4
 40
0.6
 40
0.6
 40
0.6
 40
0.6
 40
1.0
 40
1.0
 40
1.0
 40
1.0
 10
-44.066
 20
-20.9747
 30
0.0
 10
-44.066
 20
-20.9747
 30
0.0
 10
-47.0662
 20
-20.5513
 30
0.0
 10
-47.0662
 20
-20.5513
 30
0.0
 10
-47.0662
 20
-20.5513
 30
0.0
 10
-47.0662
 20
-20.5513
 30
0.0
 10
-47.0662
 20
-20.4573
 30
0.0
 10
-47.0662
 20
-20.4573
 30
0.0
 10
-47.0662
 20
-20.4573
 30
0.0
 10
-47.0662
 20
-20.4573
 30
0.0
 10
-44.066
 20
-20.0058
 30
0.0
 10
-44.066
 20
-20.0058
 30
0.0
 10
-44.066
 20
-20.0058
 30
0.0
 10
-44.066
 20
-20.0058
 30
0.0
 10
-44.066
 20
-20.9747
 30
0.0
 10
-44.066
 20
-20.9747
 30
0.0
  0
SPLINE
  5
46
330
1F
100
AcDbEntity
  8
VRSTVA_1
 62
   250
100
AcDbSpline
210
0.0
220
0.0
230
1.0
 70
    11
 71
     3
 72
    48
 73
    44
 74
     0
 42
0.0000000001
 43
0.0000000001
 40
0.0
 40
0.0
 40
0.0
 40
0.0
 40
0.0833333333333333
 40
0.0833333333333333
 40
0.0833333333333333
 40
0.0833333333333333
 40
0.1666666666666667
 40
0.1666666666666667
 40
0.1666666666666667
 40
0.1666666666666667
 40
0.25
 40
0.25
 40
0.25
 40
0.25
 40
0.3333333333333333
 40
0.3333333333333333
 40
0.3333333333333333
 40
0.3333333333333333
 40
0.4166666666666667
 40
0.4166666666666667
 40
0.4166666666666667
 40
0.4166666666666667
 40
0.5
 40
0.5
 40
0.5
 40
0.5
 40
0.5833333333333334
 40
0.5833333333333334
 40
0.5833333333333334
 40
0.5833333333333334
 40
0.6666666666666666
 40
0.6666666666666666
 40
0.6666666666666666
 40
0.6666666666666666
 40
0.75
 40
0.75
 40
0.75
 40
0.75
 40
0.8333333333333334
 40
0.8333333333333334
 40
0.8333333333333334
 40
0.8333333333333334
 40
1.0
 40
1.0
 40
1.0
 40
1.0
 10
-6.8011
 20
-18.0624
 30
0.0
 10
-6.8011
 20
-18.0624
 30
0.0
 10
-6.8011
 20
-17.8239
 30
0.0
 10
-6.8011
 20
-17.8239
 30
0.0
 10
-6.8011
 20
-17.8239
 30
0.0
 10
-6.8011
 20
-17.8239
 30
0.0
 10
-5.4935
 20
-17.8239
 30
0.0
 10
-5.4935
 20
-17.8239
 30
0.0
 10
-5.4935
 20
-17.8239
 30
0.0
 10
-5.4935
 20
-17.8239
 30
0.0
 10
-5.4935
 20
-18.0168
 30
0.0
 10
-5.4935
 20
-18.0168
 30
0.0
 10
-5.4935
 20
-18.0168
 30
0.0
 10
-5.6219
 20
-18.1536
 30
0.0
 10
-5.7494
 20
-18.3357
 30
0.0
 10
-5.8759
 20
-18.5624
 30
0.0
 10
-5.8759
 20
-18.5624
 30
0.0
 10
-6.002
 20
-18.7891
 30
0.0
 10
-6.0998
 20
-19.0229
 30
0.0
 10
-6.1685
 20
-19.2623
 30
0.0
 10
-6.1685
 20
-19.2623
 30
0.0
 10
-6.2183
 20
-19.4316
 30
0.0
 10
-6.2498
 20
-19.6165
 30
0.0
 10
-6.2635
 20
-19.8178
 30
0.0
 10
-6.2635
 20
-19.8178
 30
0.0
 10
-6.2635
 20
-19.8178
 30
0.0
 10
-6.5184
 20
-19.8178
 30
0.0
 10
-6.5184
 20
-19.8178
 30
0.0
 10
-6.5184
 20
-19.8178
 30
0.0
 10
-6.5156
 20
-19.6588
 30
0.0
 10
-6.4846
 20
-19.4669
 30
0.0
 10
-6.4248
 20
-19.2416
 30
0.0
 10
-6.4248
 20
-19.2416
 30
0.0
 10
-6.3651
 20
-19.0168
 30
0.0
 10
-6.2795
 20
-18.7995
 30
0.0
 10
-6.168
 20
-18.5906
 30
0.0
 10
-6.168
 20
-18.5906
 30
0.0
 10
-6.0561
 20
-18.3818
 30
0.0
 10
-5.9375
 20
-18.2054
 30
0.0
 10
-5.8115
 20
-18.0624
 30
0.0
 10
-5.8115
 20
-18.0624
 30
0.0
 10
-5.8115
 20
-18.0624
 30
0.0
 10
-6.8011
 20
-18.0624
 30
0.0
 10
-6.8011
 20
-18.0624
 30
0.0
  0
SPLINE
  5
47
330
1F
100
AcDbEntity
  8
VRSTVA_1
 62
   250
100
AcDbSpline
210
0.0
220
0.0
230
1.0
 70
    11
 71
     3
 72
    52
 73
    48
 74
     0
 42
0.0000000001
 43
0.0000000001
 40
0.0
 40
0.0
 40
0.0
 40
0.0
 40
0.0769230769230769
 40
0.0769230769230769
 40
0.0769230769230769
 40
0.0769230769230769
 40
0.1538461538461539
 40
0.1538461538461539
 40
0.1538461538461539
 40
0.1538461538461539
 40
0.2307692307692308
 40
0.2307692307692308
 40
0.2307692307692308
 40
0.2307692307692308
 40
0.3076923076923077
 40
0.3076923076923077
 40
0.3076923076923077
 40
0.3076923076923077
 40
0.3846153846153846
 40
0.3846153846153846
 40
0.3846153846153846
 40
0.3846153846153846
 40
0.4615384615384616
 40
0.4615384615384616
 40
0.4615384615384616
 40
0.4615384615384616
 40
0.5384615384615384
 40
0.5384615384615384
 40
0.5384615384615384
 40
0.5384615384615384
 40
0.6153846153846154
 40
0.6153846153846154
 40
0.6153846153846154
 40
0.6153846153846154
 40
0.6923076923076923
 40
0.6923076923076923
 40
0.6923076923076923
 40
0.6923076923076923
 40
0.7692307692307693
 40
0.7692307692307693
 40
0.7692307692307693
 40
0.7692307692307693
 40
0.8461538461538461
 40
0.8461538461538461
 40
0.8461538461538461
 40
0.8461538461538461
 40
1.0
 40
1.0
 40
1.0
 40
1.0
 10
-5.248
 20
-18.8216
 30
0.0
 10
-5.248
 20
-18.5826
 30
0.0
 10
-5.2235
 20
-18.3902
 30
0.0
 10
-5.1741
 20
-18.2449
 30
0.0
 10
-5.1741
 20
-18.2449
 30
0.0
 10
-5.1252
 20
-18.0991
 30
0.0
 10
-5.0518
 20
-17.9867
 30
0.0
 10
-4.9549
 20
-17.9076
 30
0.0
 10
-4.9549
 20
-17.9076
 30
0.0
 10
-4.858
 20
-17.8286
 30
0.0
 10
-4.7362
 20
-17.7891
 30
0.0
 10
-4.5895
 20
-17.7891
 30
0.0
 10
-4.5895
 20
-17.7891
 30
0.0
 10
-4.4808
 20
-17.7891
 30
0.0
 10
-4.3858
 20
-17.8112
 30
0.0
 10
-4.304
 20
-17.855
 30
0.0
 10
-4.304
 20
-17.855
 30
0.0
 10
-4.2221
 20
-17.8982
 30
0.0
 10
-4.1548
 20
-17.9613
 30
0.0
 10
-4.1012
 20
-18.0436
 30
0.0
 10
-4.1012
 20
-18.0436
 30
0.0
 10
-4.0481
 20
-18.1259
 30
0.0
 10
-4.0062
 20
-18.2261
 30
0.0
 10
-3.9761
 20
-18.3441
 30
0.0
 10
-3.9761
 20
-18.3441
 30
0.0
 10
-3.9455
 20
-18.4622
 30
0.0
 10
-3.9305
 20
-18.6212
 30
0.0
 10
-3.9305
 20
-18.8216
 30
0.0
 10
-3.9305
 20
-18.8216
 30
0.0
 10
-3.9305
 20
-19.0586
 30
0.0
 10
-3.9549
 20
-19.2496
 30
0.0
 10
-4.0034
 20
-19.3954
 30
0.0
 10
-4.0034
 20
-19.3954
 30
0.0
 10
-4.0523
 20
-19.5412
 30
0.0
 10
-4.1252
 20
-19.6536
 30
0.0
 10
-4.2221
 20
-19.7331
 30
0.0
 10
-4.2221
 20
-19.7331
 30
0.0
 10
-4.319
 20
-19.8126
 30
0.0
 10
-4.4413
 20
-19.8521
 30
0.0
 10
-4.5895
 20
-19.8521
 30
0.0
 10
-4.5895
 20
-19.8521
 30
0.0
 10
-4.7842
 20
-19.8521
 30
0.0
 10
-4.9371
 20
-19.7825
 30
0.0
 10
-5.0481
 20
-19.6428
 30
0.0
 10
-5.0481
 20
-19.6428
 30
0.0
 10
-5.1812
 20
-19.4749
 30
0.0
 10
-5.248
 20
-19.2007
 30
0.0
 10
-5.248
 20
-18.8216
 30
0.0
  0
SPLINE
  5
48
330
1F
100
AcDbEntity
  8
VRSTVA_1
 62
   250
100
AcDbSpline
210
0.0
220
0.0
230
1.0
 70
    11
 71
     3
 72
    36
 73
    32
 74
     0
 42
0.0000000001
 43
0.0000000001
 40
0.0
 40
0.0
 40
0.0
 40
0.0
 40
0.1111111111111111
 40
0.1111111111111111
 40
0.1111111111111111
 40
0.1111111111111111
 40
0.2222222222222222
 40
0.2222222222222222
 40
0.2222222222222222
 40
0.2222222222222222
 40
0.3333333333333333
 40
0.3333333333333333
 40
0.3333333333333333
 40
0.3333333333333333
 40
0.4444444444444444
 40
0.4444444444444444
 40
0.4444444444444444
 40
0.4444444444444444
 40
0.5555555555555556
 40
0.5555555555555556
 40
0.5555555555555556
 40
0.5555555555555556
 40
0.6666666666666666
 40
0.6666666666666666
 40
0.6666666666666666
 40
0.6666666666666666
 40
0.7777777777777778
 40
0.7777777777777778
 40
0.7777777777777778
 40
0.7777777777777778
 40
1.0
 40
1.0
 40
1.0
 40
1.0
 10
-4.993
 20
-18.8216
 30
0.0
 10
-4.993
 20
-19.1532
 30
0.0
 10
-4.954
 20
-19.3738
 30
0.0
 10
-4.8764
 20
-19.4838
 30
0.0
 10
-4.8764
 20
-19.4838
 30
0.0
 10
-4.7988
 20
-19.5934
 30
0.0
 10
-4.7033
 20
-19.6485
 30
0.0
 10
-4.5895
 20
-19.6485
 30
0.0
 10
-4.5895
 20
-19.6485
 30
0.0
 10
-4.4752
 20
-19.6485
 30
0.0
 10
-4.3797
 20
-19.593
 30
0.0
 10
-4.3021
 20
-19.4829
 30
0.0
 10
-4.3021
 20
-19.4829
 30
0.0
 10
-4.2245
 20
-19.3728
 30
0.0
 10
-4.1854
 20
-19.1522
 30
0.0
 10
-4.1854
 20
-18.8216
 30
0.0
 10
-4.1854
 20
-18.8216
 30
0.0
 10
-4.1854
 20
-18.489
 30
0.0
 10
-4.2245
 20
-18.2679
 30
0.0
 10
-4.3021
 20
-18.1588
 30
0.0
 10
-4.3021
 20
-18.1588
 30
0.0
 10
-4.3797
 20
-18.0492
 30
0.0
 10
-4.4761
 20
-17.9947
 30
0.0
 10
-4.5918
 20
-17.9947
 30
0.0
 10
-4.5918
 20
-17.9947
 30
0.0
 10
-4.7061
 20
-17.9947
 30
0.0
 10
-4.7969
 20
-18.0431
 30
0.0
 10
-4.8651
 20
-18.1395
 30
0.0
 10
-4.8651
 20
-18.1395
 30
0.0
 10
-4.9502
 20
-18.2623
 30
0.0
 10
-4.993
 20
-18.49
 30
0.0
 10
-4.993
 20
-18.8216
 30
0.0
  0
SPLINE
  5
49
330
1F
100
AcDbEntity
  8
VRSTVA_1
 62
   250
100
AcDbSpline
210
0.0
220
0.0
230
1.0
 70
    11
 71
     3
 72
    52
 73
    48
 74
     0
 42
0.0000000001
 43
0.0000000001
 40
0.0
 40
0.0
 40
0.0
 40
0.0
 40
0.0769230769230769
 40
0.0769230769230769
 40
0.0769230769230769
 40
0.0769230769230769
 40
0.1538461538461539
 40
0.1538461538461539
 40
0.1538461538461539
 40
0.1538461538461539
 40
0.2307692307692308
 40
0.2307692307692308
 40
0.2307692307692308
 40
0.2307692307692308
 40
0.3076923076923077
 40
0.3076923076923077
 40
0.3076923076923077
 40
0.3076923076923077
 40
0.3846153846153846
 40
0.3846153846153846
 40
0.3846153846153846
 40
0.3846153846153846
 40
0.4615384615384616
 40
0.4615384615384616
 40
0.4615384615384616
 40
0.4615384615384616
 40
0.5384615384615384
 40
0.5384615384615384
 40
0.5384615384615384
 40
0.5384615384615384
 40
0.6153846153846154
 40
0.6153846153846154
 40
0.6153846153846154
 40
0.6153846153846154
 40
0.6923076923076923
 40
0.6923076923076923
 40
0.6923076923076923
 40
0.6923076923076923
 40
0.7692307692307693
 40
0.7692307692307693
 40
0.7692307692307693
 40
0.7692307692307693
 40
0.8461538461538461
 40
0.8461538461538461
 40
0.8461538461538461
 40
0.8461538461538461
 40
1.0
 40
1.0
 40
1.0
 40
1.0
 10
-3.6784
 20
-18.8216
 30
0.0
 10
-3.6784
 20
-18.5826
 30
0.0
 10
-3.6539
 20
-18.3902
 30
0.0
 10
-3.6045
 20
-18.2449
 30
0.0
 10
-3.6045
 20
-18.2449
 30
0.0
 10
-3.5556
 20
-18.0991
 30
0.0
 10
-3.4822
 20
-17.9867
 30
0.0
 10
-3.3853
 20
-17.9076
 30
0.0
 10
-3.3853
 20
-17.9076
 30
0.0
 10
-3.2884
 20
-17.8286
 30
0.0
 10
-3.1666
 20
-17.7891
 30
0.0
 10
-3.0199
 20
-17.7891
 30
0.0
 10
-3.0199
 20
-17.7891
 30
0.0
 10
-2.9112
 20
-17.7891
 30
0.0
 10
-2.8162
 20
-17.8112
 30
0.0
 10
-2.7344
 20
-17.855
 30
0.0
 10
-2.7344
 20
-17.855
 30
0.0
 10
-2.6525
 20
-17.8982
 30
0.0
 10
-2.5852
 20
-17.9613
 30
0.0
 10
-2.5316
 20
-18.0436
 30
0.0
 10
-2.5316
 20
-18.0436
 30
0.0
 10
-2.4785
 20
-18.1259
 30
0.0
 10
-2.4366
 20
-18.2261
 30
0.0
 10
-2.4065
 20
-18.3441
 30
0.0
 10
-2.4065
 20
-18.3441
 30
0.0
 10
-2.3759
 20
-18.4622
 30
0.0
 10
-2.3609
 20
-18.6212
 30
0.0
 10
-2.3609
 20
-18.8216
 30
0.0
 10
-2.3609
 20
-18.8216
 30
0.0
 10
-2.3609
 20
-19.0586
 30
0.0
 10
-2.3853
 20
-19.2496
 30
0.0
 10
-2.4338
 20
-19.3954
 30
0.0
 10
-2.4338
 20
-19.3954
 30
0.0
 10
-2.4827
 20
-19.5412
 30
0.0
 10
-2.5556
 20
-19.6536
 30
0.0
 10
-2.6525
 20
-19.7331
 30
0.0
 10
-2.6525
 20
-19.7331
 30
0.0
 10
-2.7494
 20
-19.8126
 30
0.0
 10
-2.8717
 20
-19.8521
 30
0.0
 10
-3.0199
 20
-19.8521
 30
0.0
 10
-3.0199
 20
-19.8521
 30
0.0
 10
-3.2146
 20
-19.8521
 30
0.0
 10
-3.3675
 20
-19.7825
 30
0.0
 10
-3.4785
 20
-19.6428
 30
0.0
 10
-3.4785
 20
-19.6428
 30
0.0
 10
-3.6116
 20
-19.4749
 30
0.0
 10
-3.6784
 20
-19.2007
 30
0.0
 10
-3.6784
 20
-18.8216
 30
0.0
  0
SPLINE
  5
4A
330
1F
100
AcDbEntity
  8
VRSTVA_1
 62
   250
100
AcDbSpline
210
0.0
220
0.0
230
1.0
 70
    11
 71
     3
 72
    36
 73
    32
 74
     0
 42
0.0000000001
 43
0.0000000001
 40
0.0
 40
0.0
 40
0.0
 40
0.0
 40
0.1111111111111111
 40
0.1111111111111111
 40
0.1111111111111111
 40
0.1111111111111111
 40
0.2222222222222222
 40
0.2222222222222222
 40
0.2222222222222222
 40
0.2222222222222222
 40
0.3333333333333333
 40
0.3333333333333333
 40
0.3333333333333333
 40
0.3333333333333333
 40
0.4444444444444444
 40
0.4444444444444444
 40
0.4444444444444444
 40
0.4444444444444444
 40
0.5555555555555556
 40
0.5555555555555556
 40
0.5555555555555556
 40
0.5555555555555556
 40
0.6666666666666666
 40
0.6666666666666666
 40
0.6666666666666666
 40
0.6666666666666666
 40
0.7777777777777778
 40
0.7777777777777778
 40
0.7777777777777778
 40
0.7777777777777778
 40
1.0
 40
1.0
 40
1.0
 40
1.0
 10
-3.4234
 20
-18.8216
 30
0.0
 10
-3.4234
 20
-19.1532
 30
0.0
 10
-3.3844
 20
-19.3738
 30
0.0
 10
-3.3068
 20
-19.4838
 30
0.0
 10
-3.3068
 20
-19.4838
 30
0.0
 10
-3.2292
 20
-19.5934
 30
0.0
 10
-3.1337
 20
-19.6485
 30
0.0
 10
-3.0199
 20
-19.6485
 30
0.0
 10
-3.0199
 20
-19.6485
 30
0.0
 10
-2.9056
 20
-19.6485
 30
0.0
 10
-2.8101
 20
-19.593
 30
0.0
 10
-2.7325
 20
-19.4829
 30
0.0
 10
-2.7325
 20
-19.4829
 30
0.0
 10
-2.6549
 20
-19.3728
 30
0.0
 10
-2.6158
 20
-19.1522
 30
0.0
 10
-2.6158
 20
-18.8216
 30
0.0
 10
-2.6158
 20
-18.8216
 30
0.0
 10
-2.6158
 20
-18.489
 30
0.0
 10
-2.6549
 20
-18.2679
 30
0.0
 10
-2.7325
 20
-18.1588
 30
0.0
 10
-2.7325
 20
-18.1588
 30
0.0
 10
-2.8101
 20
-18.0492
 30
0.0
 10
-2.9065
 20
-17.9947
 30
0.0
 10
-3.0222
 20
-17.9947
 30
0.0
 10
-3.0222
 20
-17.9947
 30
0.0
 10
-3.1365
 20
-17.9947
 30
0.0
 10
-3.2273
 20
-18.0431
 30
0.0
 10
-3.2955
 20
-18.1395
 30
0.0
 10
-3.2955
 20
-18.1395
 30
0.0
 10
-3.3806
 20
-18.2623
 30
0.0
 10
-3.4234
 20
-18.49
 30
0.0
 10
-3.4234
 20
-18.8216
 30
0.0
  0
SPLINE
  5
4B
330
1F
100
AcDbEntity
  8
VRSTVA_1
 62
   250
100
AcDbSpline
210
0.0
220
0.0
230
1.0
 70
    24
 71
     3
 72
     8
 73
     4
 74
     0
 42
0.0000000001
 43
0.0000000001
 40
0.0
 40
0.0
 40
0.0
 40
0.0
 40
1.0
 40
1.0
 40
1.0
 40
1.0
 10
-47.9036
 20
21.2498
 30
0.0
 10
-47.9036
 20
21.2498
 30
0.0
 10
-53.6385
 20
21.2498
 30
0.0
 10
-53.6385
 20
21.2498
 30
0.0
  0
SPLINE
  5
4C
330
1F
100
AcDbEntity
  8
VRSTVA_1
 62
   250
100
AcDbSpline
210
0.0
220
0.0
230
1.0
 70
    24
 71
     3
 72
     8
 73
     4
 74
     0
 42
0.0000000001
 43
0.0000000001
 40
0.0
 40
0.0
 40
0.0
 40
0.0
 40
1.0
 40
1.0
 40
1.0
 40
1.0
 10
-47.7878
 20
-11.3384
 30
0.0
 10
-47.7878
 20
-11.3384
 30
0.0
 10
-53.6406
 20
-11.3384
 30
0.0
 10
-53.6406
 20
-11.3384
 30
0.0
  0
SPLINE
  5
4D
330
1F
100
AcDbEntity
  8
VRSTVA_1
 62
   250
100
AcDbSpline
210
0.0
220
0.0
230
1.0
 70
    24
 71
     3
 72
     8
 73
     4
 74
     0
 42
0.0000000001
 43
0.0000000001
 40
0.0
 40
0.0
 40
0.0
 40
0.0
 40
1.0
 40
1.0
 40
1.0
 40
1.0
 10
-52.8983
 20
20.6056
 30
0.0
 10
-52.8983
 20
20.6056
 30
0.0
 10
-52.8983
 20
-10.7947
 30
0.0
 10
-52.8983
 20
-10.7947
 30
0.0
  0
SPLINE
  5
4E
330
1F
100
AcDbEntity
  8
VRSTVA_1
 62
   250
100
AcDbSpline
210
0.0
220
0.0
230
1.0
 70
    11
 71
     3
 72
    20
 73
    16
 74
     0
 42
0.0000000001
 43
0.0000000001
 40
0.0
 40
0.0
 40
0.0
 40
0.0
 40
0.2
 40
0.2
 40
0.2
 40
0.2
 40
0.4
 40
0.4
 40
0.4
 40
0.4
 40
0.6
 40
0.6
 40
0.6
 40
0.6
 40
1.0
 40
1.0
 40
1.0
 40
1.0
 10
-52.4505
 20
-8.2721
 30
0.0
 10
-52.4505
 20
-8.2721
 30
0.0
 10
-52.8738
 20
-11.2712
 30
0.0
 10
-52.8738
 20
-11.2712
 30
0.0
 10
-52.8738
 20
-11.2712
 30
0.0
 10
-52.8738
 20
-11.2712
 30
0.0
 10
-52.9678
 20
-11.2712
 30
0.0
 10
-52.9678
 20
-11.2712
 30
0.0
 10
-52.9678
 20
-11.2712
 30
0.0
 10
-52.9678
 20
-11.2712
 30
0.0
 10
-53.4191
 20
-8.2721
 30
0.0
 10
-53.4191
 20
-8.2721
 30
0.0
 10
-53.4191
 20
-8.2721
 30
0.0
 10
-53.4191
 20
-8.2721
 30
0.0
 10
-52.4505
 20
-8.2721
 30
0.0
 10
-52.4505
 20
-8.2721
 30
0.0
  0
SPLINE
  5
4F
330
1F
100
AcDbEntity
  8
VRSTVA_1
 62
   250
100
AcDbSpline
210
0.0
220
0.0
230
1.0
 70
    11
 71
     3
 72
    20
 73
    16
 74
     0
 42
0.0000000001
 43
0.0000000001
 40
0.0
 40
0.0
 40
0.0
 40
0.0
 40
0.2
 40
0.2
 40
0.2
 40
0.2
 40
0.4
 40
0.4
 40
0.4
 40
0.4
 40
0.6
 40
0.6
 40
0.6
 40
0.6
 40
1.0
 40
1.0
 40
1.0
 40
1.0
 10
-53.3806
 20
18.2915
 30
0.0
 10
-53.3806
 20
18.2915
 30
0.0
 10
-52.9573
 20
21.2912
 30
0.0
 10
-52.9573
 20
21.2912
 30
0.0
 10
-52.9573
 20
21.2912
 30
0.0
 10
-52.9573
 20
21.2912
 30
0.0
 10
-52.8633
 20
21.2912
 30
0.0
 10
-52.8633
 20
21.2912
 30
0.0
 10
-52.8633
 20
21.2912
 30
0.0
 10
-52.8633
 20
21.2912
 30
0.0
 10
-52.4119
 20
18.2915
 30
0.0
 10
-52.4119
 20
18.2915
 30
0.0
 10
-52.4119
 20
18.2915
 30
0.0
 10
-52.4119
 20
18.2915
 30
0.0
 10
-53.3806
 20
18.2915
 30
0.0
 10
-53.3806
 20
18.2915
 30
0.0
  0
SPLINE
  5
50
330
1F
100
AcDbEntity
  8
VRSTVA_1
 62
   250
100
AcDbSpline
210
0.0
220
0.0
230
1.0
 70
    11
 71
     3
 72
    92
 73
    88
 74
     0
 42
0.0000000001
 43
0.0000000001
 40
0.0
 40
0.0
 40
0.0
 40
0.0
 40
0.0434782608695652
 40
0.0434782608695652
 40
0.0434782608695652
 40
0.0434782608695652
 40
0.0869565217391304
 40
0.0869565217391304
 40
0.0869565217391304
 40
0.0869565217391304
 40
0.1304347826086956
 40
0.1304347826086956
 40
0.1304347826086956
 40
0.1304347826086956
 40
0.1739130434782609
 40
0.1739130434782609
 40
0.1739130434782609
 40
0.1739130434782609
 40
0.2173913043478261
 40
0.2173913043478261
 40
0.2173913043478261
 40
0.2173913043478261
 40
0.2608695652173913
 40
0.2608695652173913
 40
0.2608695652173913
 40
0.2608695652173913
 40
0.3043478260869565
 40
0.3043478260869565
 40
0.3043478260869565
 40
0.3043478260869565
 40
0.3478260869565217
 40
0.3478260869565217
 40
0.3478260869565217
 40
0.3478260869565217
 40
0.391304347826087
 40
0.391304347826087
 40
0.391304347826087
 40
0.391304347826087
 40
0.4347826086956522
 40
0.4347826086956522
 40
0.4347826086956522
 40
0.4347826086956522
 40
0.4782608695652174
 40
0.4782608695652174
 40
0.4782608695652174
 40
0.4782608695652174
 40
0.5217391304347826
 40
0.5217391304347826
 40
0.5217391304347826
 40
0.5217391304347826
 40
0.5652173913043478
 40
0.5652173913043478
 40
0.5652173913043478
 40
0.5652173913043478
 40
0.6086956521739131
 40
0.6086956521739131
 40
0.6086956521739131
 40
0.6086956521739131
 40
0.6521739130434783
 40
0.6521739130434783
 40
0.6521739130434783
 40
0.6521739130434783
 40
0.6956521739130435
 40
0.6956521739130435
 40
0.6956521739130435
 40
0.6956521739130435
 40
0.7391304347826086
 40
0.7391304347826086
 40
0.7391304347826086
 40
0.7391304347826086
 40
0.782608695652174
 40
0.782608695652174
 40
0.782608695652174
 40
0.782608695652174
 40
0.8260869565217391
 40
0.8260869565217391
 40
0.8260869565217391
 40
0.8260869565217391
 40
0.8695652173913043
 40
0.8695652173913043
 40
0.8695652173913043
 40
0.8695652173913043
 40
0.9130434782608695
 40
0.9130434782608695
 40
0.9130434782608695
 40
0.9130434782608695
 40
1.0
 40
1.0
 40
1.0
 40
1.0
 10
-51.9931
 20
6.1276
 30
0.0
 10
-51.9931
 20
6.1276
 30
0.0
 10
-52.2316
 20
6.1276
 30
0.0
 10
-52.2316
 20
6.1276
 30
0.0
 10
-52.2316
 20
6.1276
 30
0.0
 10
-52.2316
 20
6.1276
 30
0.0
 10
-52.2316
 20
7.463
 30
0.0
 10
-52.2316
 20
7.463
 30
0.0
 10
-52.2316
 20
7.463
 30
0.0
 10
-52.1719
 20
7.4649
 30
0.0
 10
-52.1145
 20
7.4555
 30
0.0
 10
-52.0594
 20
7.4343
 30
0.0
 10
-52.0594
 20
7.4343
 30
0.0
 10
-51.9682
 20
7.4004
 30
0.0
 10
-51.8788
 20
7.3459
 30
0.0
 10
-51.7904
 20
7.2711
 30
0.0
 10
-51.7904
 20
7.2711
 30
0.0
 10
-51.7024
 20
7.1958
 30
0.0
 10
-51.6004
 20
7.0876
 30
0.0
 10
-51.4847
 20
6.9465
 30
0.0
 10
-51.4847
 20
6.9465
 30
0.0
 10
-51.3045
 20
6.7269
 30
0.0
 10
-51.162
 20
6.5782
 30
0.0
 10
-51.0566
 20
6.5011
 30
0.0
 10
-51.0566
 20
6.5011
 30
0.0
 10
-50.9517
 20
6.424
 30
0.0
 10
-50.852
 20
6.3854
 30
0.0
 10
-50.7584
 20
6.3854
 30
0.0
 10
-50.7584
 20
6.3854
 30
0.0
 10
-50.6601
 20
6.3854
 30
0.0
 10
-50.5773
 20
6.4207
 30
0.0
 10
-50.5096
 20
6.4907
 30
0.0
 10
-50.5096
 20
6.4907
 30
0.0
 10
-50.4423
 20
6.5613
 30
0.0
 10
-50.4085
 20
6.653
 30
0.0
 10
-50.4085
 20
6.7659
 30
0.0
 10
-50.4085
 20
6.7659
 30
0.0
 10
-50.4085
 20
6.8854
 30
0.0
 10
-50.4442
 20
6.9809
 30
0.0
 10
-50.5162
 20
7.0524
 30
0.0
 10
-50.5162
 20
7.0524
 30
0.0
 10
-50.5877
 20
7.1243
 30
0.0
 10
-50.6869
 20
7.1605
 30
0.0
 10
-50.8134
 20
7.1615
 30
0.0
 10
-50.8134
 20
7.1615
 30
0.0
 10
-50.8134
 20
7.1615
 30
0.0
 10
-50.7876
 20
7.4164
 30
0.0
 10
-50.7876
 20
7.4164
 30
0.0
 10
-50.7876
 20
7.4164
 30
0.0
 10
-50.5971
 20
7.399
 30
0.0
 10
-50.4522
 20
7.3332
 30
0.0
 10
-50.3525
 20
7.2193
 30
0.0
 10
-50.3525
 20
7.2193
 30
0.0
 10
-50.2528
 20
7.1055
 30
0.0
 10
-50.2029
 20
6.9522
 30
0.0
 10
-50.2029
 20
6.7603
 30
0.0
 10
-50.2029
 20
6.7603
 30
0.0
 10
-50.2029
 20
6.5665
 30
0.0
 10
-50.257
 20
6.4131
 30
0.0
 10
-50.3642
 20
6.3002
 30
0.0
 10
-50.3642
 20
6.3002
 30
0.0
 10
-50.472
 20
6.1869
 30
0.0
 10
-50.6051
 20
6.1304
 30
0.0
 10
-50.7641
 20
6.1304
 30
0.0
 10
-50.7641
 20
6.1304
 30
0.0
 10
-50.845
 20
6.1304
 30
0.0
 10
-50.9245
 20
6.1469
 30
0.0
 10
-51.0025
 20
6.1803
 30
0.0
 10
-51.0025
 20
6.1803
 30
0.0
 10
-51.0806
 20
6.2132
 30
0.0
 10
-51.1629
 20
6.2683
 30
0.0
 10
-51.249
 20
6.3449
 30
0.0
 10
-51.249
 20
6.3449
 30
0.0
 10
-51.3356
 20
6.4216
 30
0.0
 10
-51.4541
 20
6.5491
 30
0.0
 10
-51.6046
 20
6.7273
 30
0.0
 10
-51.6046
 20
6.7273
 30
0.0
 10
-51.7297
 20
6.876
 30
0.0
 10
-51.8144
 20
6.9715
 30
0.0
 10
-51.8591
 20
7.0138
 30
0.0
 10
-51.8591
 20
7.0138
 30
0.0
 10
-51.9033
 20
7.0561
 30
0.0
 10
-51.948
 20
7.0909
 30
0.0
 10
-51.9931
 20
7.1187
 30
0.0
 10
-51.9931
 20
7.1187
 30
0.0
 10
-51.9931
 20
7.1187
 30
0.0
 10
-51.9931
 20
6.1276
 30
0.0
 10
-51.9931
 20
6.1276
 30
0.0
  0
SPLINE
  5
51
330
1F
100
AcDbEntity
  8
VRSTVA_1
 62
   250
100
AcDbSpline
210
0.0
220
0.0
230
1.0
 70
    11
 71
     3
 72
    92
 73
    88
 74
     0
 42
0.0000000001
 43
0.0000000001
 40
0.0
 40
0.0
 40
0.0
 40
0.0
 40
0.0434782608695652
 40
0.0434782608695652
 40
0.0434782608695652
 40
0.0434782608695652
 40
0.0869565217391304
 40
0.0869565217391304
 40
0.0869565217391304
 40
0.0869565217391304
 40
0.1304347826086956
 40
0.1304347826086956
 40
0.1304347826086956
 40
0.1304347826086956
 40
0.1739130434782609
 40
0.1739130434782609
 40
0.1739130434782609
 40
0.1739130434782609
 40
0.2173913043478261
 40
0.2173913043478261
 40
0.2173913043478261
 40
0.2173913043478261
 40
0.2608695652173913
 40
0.2608695652173913
 40
0.2608695652173913
 40
0.2608695652173913
 40
0.3043478260869565
 40
0.3043478260869565
 40
0.3043478260869565
 40
0.3043478260869565
 40
0.3478260869565217
 40
0.3478260869565217
 40
0.3478260869565217
 40
0.3478260869565217
 40
0.391304347826087
 40
0.391304347826087
 40
0.391304347826087
 40
0.391304347826087
 40
0.4347826086956522
 40
0.4347826086956522
 40
0.4347826086956522
 40
0.4347826086956522
 40
0.4782608695652174
 40
0.4782608695652174
 40
0.4782608695652174
 40
0.4782608695652174
 40
0.5217391304347826
 40
0.5217391304347826
 40
0.5217391304347826
 40
0.5217391304347826
 40
0.5652173913043478
 40
0.5652173913043478
 40
0.5652173913043478
 40
0.5652173913043478
 40
0.6086956521739131
 40
0.6086956521739131
 40
0.6086956521739131
 40
0.6086956521739131
 40
0.6521739130434783
 40
0.6521739130434783
 40
0.6521739130434783
 40
0.6521739130434783
 40
0.6956521739130435
 40
0.6956521739130435
 40
0.6956521739130435
 40
0.6956521739130435
 40
0.7391304347826086
 40
0.7391304347826086
 40
0.7391304347826086
 40
0.7391304347826086
 40
0.782608695652174
 40
0.782608695652174
 40
0.782608695652174
 40
0.782608695652174
 40
0.8260869565217391
 40
0.8260869565217391
 40
0.8260869565217391
 40
0.8260869565217391
 40
0.8695652173913043
 40
0.8695652173913043
 40
0.8695652173913043
 40
0.8695652173913043
 40
0.9130434782608695
 40
0.9130434782608695
 40
0.9130434782608695
 40
0.9130434782608695
 40
1.0
 40
1.0
 40
1.0
 40
1.0
 10
-51.7024
 20
5.8619
 30
0.0
 10
-51.7024
 20
5.8619
 30
0.0
 10
-51.6803
 20
5.6013
 30
0.0
 10
-51.6803
 20
5.6013
 30
0.0
 10
-51.6803
 20
5.6013
 30
0.0
 10
-51.8073
 20
5.582
 30
0.0
 10
-51.9023
 20
5.5373
 30
0.0
 10
-51.9663
 20
5.4672
 30
0.0
 10
-51.9663
 20
5.4672
 30
0.0
 10
-52.0303
 20
5.3967
 30
0.0
 10
-52.0623
 20
5.312
 30
0.0
 10
-52.0623
 20
5.2128
 30
0.0
 10
-52.0623
 20
5.2128
 30
0.0
 10
-52.0623
 20
5.0933
 30
0.0
 10
-52.0171
 20
4.9922
 30
0.0
 10
-51.9273
 20
4.9099
 30
0.0
 10
-51.9273
 20
4.9099
 30
0.0
 10
-51.837
 20
4.8271
 30
0.0
 10
-51.7175
 20
4.7857
 30
0.0
 10
-51.5689
 20
4.7857
 30
0.0
 10
-51.5689
 20
4.7857
 30
0.0
 10
-51.4273
 20
4.7857
 30
0.0
 10
-51.3158
 20
4.8252
 30
0.0
 10
-51.234
 20
4.9047
 30
0.0
 10
-51.234
 20
4.9047
 30
0.0
 10
-51.1521
 20
4.9842
 30
0.0
 10
-51.1112
 20
5.0881
 30
0.0
 10
-51.1112
 20
5.217
 30
0.0
 10
-51.1112
 20
5.217
 30
0.0
 10
-51.1112
 20
5.297
 30
0.0
 10
-51.1295
 20
5.3689
 30
0.0
 10
-51.1657
 20
5.4334
 30
0.0
 10
-51.1657
 20
5.4334
 30
0.0
 10
-51.202
 20
5.4978
 30
0.0
 10
-51.249
 20
5.5481
 30
0.0
 10
-51.3069
 20
5.5848
 30
0.0
 10
-51.3069
 20
5.5848
 30
0.0
 10
-51.3069
 20
5.5848
 30
0.0
 10
-51.2768
 20
5.8177
 30
0.0
 10
-51.2768
 20
5.8177
 30
0.0
 10
-51.2768
 20
5.8177
 30
0.0
 10
-51.2768
 20
5.8177
 30
0.0
 10
-50.2391
 20
5.622
 30
0.0
 10
-50.2391
 20
5.622
 30
0.0
 10
-50.2391
 20
5.622
 30
0.0
 10
-50.2391
 20
5.622
 30
0.0
 10
-50.2391
 20
4.6173
 30
0.0
 10
-50.2391
 20
4.6173
 30
0.0
 10
-50.2391
 20
4.6173
 30
0.0
 10
-50.2391
 20
4.6173
 30
0.0
 10
-50.4762
 20
4.6173
 30
0.0
 10
-50.4762
 20
4.6173
 30
0.0
 10
-50.4762
 20
4.6173
 30
0.0
 10
-50.4762
 20
4.6173
 30
0.0
 10
-50.4762
 20
5.4235
 30
0.0
 10
-50.4762
 20
5.4235
 30
0.0
 10
-50.4762
 20
5.4235
 30
0.0
 10
-50.4762
 20
5.4235
 30
0.0
 10
-51.019
 20
5.5326
 30
0.0
 10
-51.019
 20
5.5326
 30
0.0
 10
-51.019
 20
5.5326
 30
0.0
 10
-50.9343
 20
5.4113
 30
0.0
 10
-50.892
 20
5.2838
 30
0.0
 10
-50.892
 20
5.1507
 30
0.0
 10
-50.892
 20
5.1507
 30
0.0
 10
-50.892
 20
4.9743
 30
0.0
 10
-50.9531
 20
4.8257
 30
0.0
 10
-51.0754
 20
4.7043
 30
0.0
 10
-51.0754
 20
4.7043
 30
0.0
 10
-51.1977
 20
4.583
 30
0.0
 10
-51.3548
 20
4.5223
 30
0.0
 10
-51.5467
 20
4.5223
 30
0.0
 10
-51.5467
 20
4.5223
 30
0.0
 10
-51.7297
 20
4.5223
 30
0.0
 10
-51.8878
 20
4.5759
 30
0.0
 10
-52.0209
 20
4.6822
 30
0.0
 10
-52.0209
 20
4.6822
 30
0.0
 10
-52.1841
 20
4.812
 30
0.0
 10
-52.2659
 20
4.9889
 30
0.0
 10
-52.2659
 20
5.2128
 30
0.0
 10
-52.2659
 20
5.2128
 30
0.0
 10
-52.2659
 20
5.3967
 30
0.0
 10
-52.2147
 20
5.5467
 30
0.0
 10
-52.1117
 20
5.6629
 30
0.0
 10
-52.1117
 20
5.6629
 30
0.0
 10
-52.0086
 20
5.7791
 30
0.0
 10
-51.8722
 20
5.8454
 30
0.0
 10
-51.7024
 20
5.8619
 30
0.0
  0
SPLINE
  5
52
330
1F
100
AcDbEntity
  8
VRSTVA_1
 62
   250
100
AcDbSpline
210
0.0
220
0.0
230
1.0
 70
    11
 71
     3
 72
    52
 73
    48
 74
     0
 42
0.0000000001
 43
0.0000000001
 40
0.0
 40
0.0
 40
0.0
 40
0.0
 40
0.0769230769230769
 40
0.0769230769230769
 40
0.0769230769230769
 40
0.0769230769230769
 40
0.1538461538461539
 40
0.1538461538461539
 40
0.1538461538461539
 40
0.1538461538461539
 40
0.2307692307692308
 40
0.2307692307692308
 40
0.2307692307692308
 40
0.2307692307692308
 40
0.3076923076923077
 40
0.3076923076923077
 40
0.3076923076923077
 40
0.3076923076923077
 40
0.3846153846153846
 40
0.3846153846153846
 40
0.3846153846153846
 40
0.3846153846153846
 40
0.4615384615384616
 40
0.4615384615384616
 40
0.4615384615384616
 40
0.4615384615384616
 40
0.5384615384615384
 40
0.5384615384615384
 40
0.5384615384615384
 40
0.5384615384615384
 40
0.6153846153846154
 40
0.6153846153846154
 40
0.6153846153846154
 40
0.6153846153846154
 40
0.6923076923076923
 40
0.6923076923076923
 40
0.6923076923076923
 40
0.6923076923076923
 40
0.7692307692307693
 40
0.7692307692307693
 40
0.7692307692307693
 40
0.7692307692307693
 40
0.8461538461538461
 40
0.8461538461538461
 40
0.8461538461538461
 40
0.8461538461538461
 40
1.0
 40
1.0
 40
1.0
 40
1.0
 10
-51.2354
 20
4.2923
 30
0.0
 10
-50.9964
 20
4.2923
 30
0.0
 10
-50.804
 20
4.2678
 30
0.0
 10
-50.6587
 20
4.2184
 30
0.0
 10
-50.6587
 20
4.2184
 30
0.0
 10
-50.5129
 20
4.1695
 30
0.0
 10
-50.4005
 20
4.0961
 30
0.0
 10
-50.3214
 20
3.9992
 30
0.0
 10
-50.3214
 20
3.9992
 30
0.0
 10
-50.2424
 20
3.9023
 30
0.0
 10
-50.2029
 20
3.7805
 30
0.0
 10
-50.2029
 20
3.6338
 30
0.0
 10
-50.2029
 20
3.6338
 30
0.0
 10
-50.2029
 20
3.5251
 30
0.0
 10
-50.225
 20
3.4301
 30
0.0
 10
-50.2688
 20
3.3483
 30
0.0
 10
-50.2688
 20
3.3483
 30
0.0
 10
-50.312
 20
3.2664
 30
0.0
 10
-50.3751
 20
3.1991
 30
0.0
 10
-50.4574
 20
3.1455
 30
0.0
 10
-50.4574
 20
3.1455
 30
0.0
 10
-50.5397
 20
3.0924
 30
0.0
 10
-50.6399
 20
3.0505
 30
0.0
 10
-50.7579
 20
3.0204
 30
0.0
 10
-50.7579
 20
3.0204
 30
0.0
 10
-50.876
 20
2.9898
 30
0.0
 10
-51.035
 20
2.9748
 30
0.0
 10
-51.2354
 20
2.9748
 30
0.0
 10
-51.2354
 20
2.9748
 30
0.0
 10
-51.4724
 20
2.9748
 30
0.0
 10
-51.6634
 20
2.9992
 30
0.0
 10
-51.8092
 20
3.0477
 30
0.0
 10
-51.8092
 20
3.0477
 30
0.0
 10
-51.955
 20
3.0966
 30
0.0
 10
-52.0674
 20
3.1695
 30
0.0
 10
-52.1469
 20
3.2664
 30
0.0
 10
-52.1469
 20
3.2664
 30
0.0
 10
-52.2264
 20
3.3633
 30
0.0
 10
-52.2659
 20
3.4856
 30
0.0
 10
-52.2659
 20
3.6338
 30
0.0
 10
-52.2659
 20
3.6338
 30
0.0
 10
-52.2659
 20
3.8285
 30
0.0
 10
-52.1963
 20
3.9814
 30
0.0
 10
-52.0566
 20
4.0924
 30
0.0
 10
-52.0566
 20
4.0924
 30
0.0
 10
-51.8887
 20
4.2255
 30
0.0
 10
-51.6145
 20
4.2923
 30
0.0
 10
-51.2354
 20
4.2923
 30
0.0
  0
SPLINE
  5
53
330
1F
100
AcDbEntity
  8
VRSTVA_1
 62
   250
100
AcDbSpline
210
0.0
220
0.0
230
1.0
 70
    11
 71
     3
 72
    36
 73
    32
 74
     0
 42
0.0000000001
 43
0.0000000001
 40
0.0
 40
0.0
 40
0.0
 40
0.0
 40
0.1111111111111111
 40
0.1111111111111111
 40
0.1111111111111111
 40
0.1111111111111111
 40
0.2222222222222222
 40
0.2222222222222222
 40
0.2222222222222222
 40
0.2222222222222222
 40
0.3333333333333333
 40
0.3333333333333333
 40
0.3333333333333333
 40
0.3333333333333333
 40
0.4444444444444444
 40
0.4444444444444444
 40
0.4444444444444444
 40
0.4444444444444444
 40
0.5555555555555556
 40
0.5555555555555556
 40
0.5555555555555556
 40
0.5555555555555556
 40
0.6666666666666666
 40
0.6666666666666666
 40
0.6666666666666666
 40
0.6666666666666666
 40
0.7777777777777778
 40
0.7777777777777778
 40
0.7777777777777778
 40
0.7777777777777778
 40
1.0
 40
1.0
 40
1.0
 40
1.0
 10
-51.2354
 20
4.0373
 30
0.0
 10
-51.567
 20
4.0373
 30
0.0
 10
-51.7876
 20
3.9983
 30
0.0
 10
-51.8976
 20
3.9207
 30
0.0
 10
-51.8976
 20
3.9207
 30
0.0
 10
-52.0072
 20
3.8431
 30
0.0
 10
-52.0623
 20
3.7476
 30
0.0
 10
-52.0623
 20
3.6338
 30
0.0
 10
-52.0623
 20
3.6338
 30
0.0
 10
-52.0623
 20
3.5195
 30
0.0
 10
-52.0068
 20
3.424
 30
0.0
 10
-51.8967
 20
3.3464
 30
0.0
 10
-51.8967
 20
3.3464
 30
0.0
 10
-51.7866
 20
3.2688
 30
0.0
 10
-51.566
 20
3.2297
 30
0.0
 10
-51.2354
 20
3.2297
 30
0.0
 10
-51.2354
 20
3.2297
 30
0.0
 10
-50.9028
 20
3.2297
 30
0.0
 10
-50.6817
 20
3.2688
 30
0.0
 10
-50.5726
 20
3.3464
 30
0.0
 10
-50.5726
 20
3.3464
 30
0.0
 10
-50.463
 20
3.424
 30
0.0
 10
-50.4085
 20
3.5204
 30
0.0
 10
-50.4085
 20
3.6361
 30
0.0
 10
-50.4085
 20
3.6361
 30
0.0
 10
-50.4085
 20
3.7504
 30
0.0
 10
-50.4569
 20
3.8412
 30
0.0
 10
-50.5533
 20
3.9094
 30
0.0
 10
-50.5533
 20
3.9094
 30
0.0
 10
-50.6761
 20
3.9945
 30
0.0
 10
-50.9038
 20
4.0373
 30
0.0
 10
-51.2354
 20
4.0373
 30
0.0
  0
SPLINE
  5
54
330
1F
100
AcDbEntity
  8
VRSTVA_1
 62
   250
100
AcDbSpline
210
0.0
220
0.0
230
1.0
 70
    11
 71
     3
 72
    20
 73
    16
 74
     0
 42
0.0000000001
 43
0.0000000001
 40
0.0
 40
0.0
 40
0.0
 40
0.0
 40
0.2
 40
0.2
 40
0.2
 40
0.2
 40
0.4
 40
0.4
 40
0.4
 40
0.4
 40
0.6
 40
0.6
 40
0.6
 40
0.6
 40
1.0
 40
1.0
 40
1.0
 40
1.0
 10
37.5391
 20
21.2225
 30
0.0
 10
37.5391
 20
21.2225
 30
0.0
 10
37.5391
 20
-11.353
 30
0.0
 10
37.5391
 20
-11.353
 30
0.0
 10
37.5391
 20
-11.353
 30
0.0
 10
37.5391
 20
-11.353
 30
0.0
 10
-47.1571
 20
-11.353
 30
0.0
 10
-47.1571
 20
-11.353
 30
0.0
 10
-47.1571
 20
-11.353
 30
0.0
 10
-47.1571
 20
-11.353
 30
0.0
 10
-47.1571
 20
21.2225
 30
0.0
 10
-47.1571
 20
21.2225
 30
0.0
 10
-47.1571
 20
21.2225
 30
0.0
 10
-47.1571
 20
21.2225
 30
0.0
 10
37.5391
 20
21.2225
 30
0.0
 10
37.5391
 20
21.2225
 30
0.0
  0
SPLINE
  5
55
330
1F
100
AcDbEntity
  8
VRSTVA_1
 62
   250
100
AcDbSpline
210
0.0
220
0.0
230
1.0
 70
    11
 71
     3
 72
    20
 73
    16
 74
     0
 42
0.0000000001
 43
0.0000000001
 40
0.0
 40
0.0
 40
0.0
 40
0.0
 40
0.2
 40
0.2
 40
0.2
 40
0.2
 40
0.4
 40
0.4
 40
0.4
 40
0.4
 40
0.6
 40
0.6
 40
0.6
 40
0.6
 40
1.0
 40
1.0
 40
1.0
 40
1.0
 10
46.8077
 20
21.2225
 30
0.0
 10
46.8077
 20
21.2225
 30
0.0
 10
46.8077
 20
-11.353
 30
0.0
 10
46.8077
 20
-11.353
 30
0.0
 10
46.8077
 20
-11.353
 30
0.0
 10
46.8077
 20
-11.353
 30
0.0
 10
46.1904
 20
-11.353
 30
0.0
 10
46.1904
 20
-11.353
 30
0.0
 10
46.1904
 20
-11.353
 30
0.0
 10
46.1904
 20
-11.353
 30
0.0
 10
46.1904
 20
21.2225
 30
0.0
 10
46.1904
 20
21.2225
 30
0.0
 10
46.1904
 20
21.2225
 30
0.0
 10
46.1904
 20
21.2225
 30
0.0
 10
46.8077
 20
21.2225
 30
0.0
 10
46.8077
 20
21.2225
 30
0.0
  0
SPLINE
  5
56
330
1F
100
AcDbEntity
  8
VRSTVA_1
 62
   250
100
AcDbSpline
210
0.0
220
0.0
230
1.0
 70
    24
 71
     3
 72
     8
 73
     4
 74
     0
 42
0.0000000001
 43
0.0000000001
 40
0.0
 40
0.0
 40
0.0
 40
0.0
 40
1.0
 40
1.0
 40
1.0
 40
1.0
 10
46.107
 20
-12.5594
 30
0.0
 10
46.107
 20
-12.5594
 30
0.0
 10
46.107
 20
-20.9747
 30
0.0
 10
46.107
 20
-20.9747
 30
0.0
  0
SPLINE
  5
57
330
1F
100
AcDbEntity
  8
VRSTVA_1
 62
   250
100
AcDbSpline
210
0.0
220
0.0
230
1.0
 70
    24
 71
     3
 72
     8
 73
     4
 74
     0
 42
0.0000000001
 43
0.0000000001
 40
0.0
 40
0.0
 40
0.0
 40
0.0
 40
1.0
 40
1.0
 40
1.0
 40
1.0
 10
46.8619
 20
-12.5742
 30
0.0
 10
46.8619
 20
-12.5742
 30
0.0
 10
46.8619
 20
-20.9747
 30
0.0
 10
46.8619
 20
-20.9747
 30
0.0
  0
SPLINE
  5
58
330
1F
100
AcDbEntity
  8
VRSTVA_1
 62
   250
100
AcDbSpline
210
0.0
220
0.0
230
1.0
 70
    24
 71
     3
 72
     8
 73
     4
 74
     0
 42
0.0000000001
 43
0.0000000001
 40
0.0
 40
0.0
 40
0.0
 40
0.0
 40
1.0
 40
1.0
 40
1.0
 40
1.0
 10
42.5241
 20
-20.4925
 30
0.0
 10
42.5241
 20
-20.4925
 30
0.0
 10
53.6405
 20
-20.4925
 30
0.0
 10
53.6405
 20
-20.4925
 30
0.0
  0
SPLINE
  5
59
330
1F
100
AcDbEntity
  8
VRSTVA_1
 62
   250
100
AcDbSpline
210
0.0
220
0.0
230
1.0
 70
    11
 71
     3
 72
    20
 73
    16
 74
     0
 42
0.0000000001
 43
0.0000000001
 40
0.0
 40
0.0
 40
0.0
 40
0.0
 40
0.2
 40
0.2
 40
0.2
 40
0.2
 40
0.4
 40
0.4
 40
0.4
 40
0.4
 40
0.6
 40
0.6
 40
0.6
 40
0.6
 40
1.0
 40
1.0
 40
1.0
 40
1.0
 10
42.9589
 20
-20.0441
 30
0.0
 10
42.9589
 20
-20.0441
 30
0.0
 10
45.9581
 20
-20.4673
 30
0.0
 10
45.9581
 20
-20.4673
 30
0.0
 10
45.9581
 20
-20.4673
 30
0.0
 10
45.9581
 20
-20.4673
 30
0.0
 10
45.9581
 20
-20.5613
 30
0.0
 10
45.9581
 20
-20.5613
 30
0.0
 10
45.9581
 20
-20.5613
 30
0.0
 10
45.9581
 20
-20.5613
 30
0.0
 10
42.9589
 20
-21.0127
 30
0.0
 10
42.9589
 20
-21.0127
 30
0.0
 10
42.9589
 20
-21.0127
 30
0.0
 10
42.9589
 20
-21.0127
 30
0.0
 10
42.9589
 20
-20.0441
 30
0.0
 10
42.9589
 20
-20.0441
 30
0.0
  0
SPLINE
  5
5A
330
1F
100
AcDbEntity
  8
VRSTVA_1
 62
   250
100
AcDbSpline
210
0.0
220
0.0
230
1.0
 70
    11
 71
     3
 72
    20
 73
    16
 74
     0
 42
0.0000000001
 43
0.0000000001
 40
0.0
 40
0.0
 40
0.0
 40
0.0
 40
0.2
 40
0.2
 40
0.2
 40
0.2
 40
0.4
 40
0.4
 40
0.4
 40
0.4
 40
0.6
 40
0.6
 40
0.6
 40
0.6
 40
1.0
 40
1.0
 40
1.0
 40
1.0
 10
49.9852
 20
-20.9468
 30
0.0
 10
49.9852
 20
-20.9468
 30
0.0
 10
46.9853
 20
-20.5235
 30
0.0
 10
46.9853
 20
-20.5235
 30
0.0
 10
46.9853
 20
-20.5235
 30
0.0
 10
46.9853
 20
-20.5235
 30
0.0
 10
46.9853
 20
-20.4294
 30
0.0
 10
46.9853
 20
-20.4294
 30
0.0
 10
46.9853
 20
-20.4294
 30
0.0
 10
46.9853
 20
-20.4294
 30
0.0
 10
49.9852
 20
-19.978
 30
0.0
 10
49.9852
 20
-19.978
 30
0.0
 10
49.9852
 20
-19.978
 30
0.0
 10
49.9852
 20
-19.978
 30
0.0
 10
49.9852
 20
-20.9468
 30
0.0
 10
49.9852
 20
-20.9468
 30
0.0
  0
SPLINE
  5
5B
330
1F
100
AcDbEntity
  8
VRSTVA_1
 62
   250
100
AcDbSpline
210
0.0
220
0.0
230
1.0
 70
    11
 71
     3
 72
    80
 73
    76
 74
     0
 42
0.0000000001
 43
0.0000000001
 40
0.0
 40
0.0
 40
0.0
 40
0.0
 40
0.05
 40
0.05
 40
0.05
 40
0.05
 40
0.1
 40
0.1
 40
0.1
 40
0.1
 40
0.15
 40
0.15
 40
0.15
 40
0.15
 40
0.2
 40
0.2
 40
0.2
 40
0.2
 40
0.25
 40
0.25
 40
0.25
 40
0.25
 40
0.3
 40
0.3
 40
0.3
 40
0.3
 40
0.35
 40
0.35
 40
0.35
 40
0.35
 40
0.4
 40
0.4
 40
0.4
 40
0.4
 40
0.45
 40
0.45
 40
0.45
 40
0.45
 40
0.5
 40
0.5
 40
0.5
 40
0.5
 40
0.55
 40
0.55
 40
0.55
 40
0.55
 40
0.6
 40
0.6
 40
0.6
 40
0.6
 40
0.65
 40
0.65
 40
0.65
 40
0.65
 40
0.7
 40
0.7
 40
0.7
 40
0.7
 40
0.75
 40
0.75
 40
0.75
 40
0.75
 40
0.8
 40
0.8
 40
0.8
 40
0.8
 40
0.85
 40
0.85
 40
0.85
 40
0.85
 40
0.9
 40
0.9
 40
0.9
 40
0.9
 40
1.0
 40
1.0
 40
1.0
 40
1.0
 10
52.5464
 20
-18.4221
 30
0.0
 10
52.5464
 20
-18.4221
 30
0.0
 10
52.3
 20
-18.4414
 30
0.0
 10
52.3
 20
-18.4414
 30
0.0
 10
52.3
 20
-18.4414
 30
0.0
 10
52.2779
 20
-18.344
 30
0.0
 10
52.2468
 20
-18.273
 30
0.0
 10
52.2064
 20
-18.2293
 30
0.0
 10
52.2064
 20
-18.2293
 30
0.0
 10
52.1391
 20
-18.1582
 30
0.0
 10
52.0563
 20
-18.1229
 30
0.0
 10
51.958
 20
-18.1229
 30
0.0
 10
51.958
 20
-18.1229
 30
0.0
 10
51.879
 20
-18.1229
 30
0.0
 10
51.8099
 20
-18.1451
 30
0.0
 10
51.7501
 20
-18.1893
 30
0.0
 10
51.7501
 20
-18.1893
 30
0.0
 10
51.672
 20
-18.2462
 30
0.0
 10
51.6104
 20
-18.3294
 30
0.0
 10
51.5653
 20
-18.4386
 30
0.0
 10
51.5653
 20
-18.4386
 30
0.0
 10
51.5206
 20
-18.5477
 30
0.0
 10
51.4971
 20
-18.7034
 30
0.0
 10
51.4952
 20
-18.9056
 30
0.0
 10
51.4952
 20
-18.9056
 30
0.0
 10
51.5549
 20
-18.8149
 30
0.0
 10
51.6278
 20
-18.7471
 30
0.0
 10
51.7144
 20
-18.7029
 30
0.0
 10
51.7144
 20
-18.7029
 30
0.0
 10
51.8004
 20
-18.6592
 30
0.0
 10
51.8912
 20
-18.6371
 30
0.0
 10
51.9858
 20
-18.6371
 30
0.0
 10
51.9858
 20
-18.6371
 30
0.0
 10
52.1513
 20
-18.6371
 30
0.0
 10
52.292
 20
-18.6977
 30
0.0
 10
52.4082
 20
-18.8196
 30
0.0
 10
52.4082
 20
-18.8196
 30
0.0
 10
52.5243
 20
-18.9414
 30
0.0
 10
52.5827
 20
-19.0985
 30
0.0
 10
52.5827
 20
-19.2913
 30
0.0
 10
52.5827
 20
-19.2913
 30
0.0
 10
52.5827
 20
-19.4183
 30
0.0
 10
52.5549
 20
-19.5359
 30
0.0
 10
52.5003
 20
-19.6451
 30
0.0
 10
52.5003
 20
-19.6451
 30
0.0
 10
52.4458
 20
-19.7537
 30
0.0
 10
52.3705
 20
-19.8374
 30
0.0
 10
52.275
 20
-19.8953
 30
0.0
 10
52.275
 20
-19.8953
 30
0.0
 10
52.1796
 20
-19.9531
 30
0.0
 10
52.0714
 20
-19.9818
 30
0.0
 10
51.95
 20
-19.9818
 30
0.0
 10
51.95
 20
-19.9818
 30
0.0
 10
51.7431
 20
-19.9818
 30
0.0
 10
51.5747
 20
-19.9061
 30
0.0
 10
51.4444
 20
-19.7537
 30
0.0
 10
51.4444
 20
-19.7537
 30
0.0
 10
51.3136
 20
-19.6018
 30
0.0
 10
51.2487
 20
-19.3511
 30
0.0
 10
51.2487
 20
-19.0021
 30
0.0
 10
51.2487
 20
-19.0021
 30
0.0
 10
51.2487
 20
-18.6117
 30
0.0
 10
51.3207
 20
-18.328
 30
0.0
 10
51.4651
 20
-18.1507
 30
0.0
 10
51.4651
 20
-18.1507
 30
0.0
 10
51.5907
 20
-17.9964
 30
0.0
 10
51.76
 20
-17.9188
 30
0.0
 10
51.9735
 20
-17.9188
 30
0.0
 10
51.9735
 20
-17.9188
 30
0.0
 10
52.1321
 20
-17.9188
 30
0.0
 10
52.2623
 20
-17.9635
 30
0.0
 10
52.3639
 20
-18.0529
 30
0.0
 10
52.3639
 20
-18.0529
 30
0.0
 10
52.4655
 20
-18.1418
 30
0.0
 10
52.5262
 20
-18.265
 30
0.0
 10
52.5464
 20
-18.4221
 30
0.0
  0
SPLINE
  5
5C
330
1F
100
AcDbEntity
  8
VRSTVA_1
 62
   250
100
AcDbSpline
210
0.0
220
0.0
230
1.0
 70
    11
 71
     3
 72
    40
 73
    36
 74
     0
 42
0.0000000001
 43
0.0000000001
 40
0.0
 40
0.0
 40
0.0
 40
0.0
 40
0.1
 40
0.1
 40
0.1
 40
0.1
 40
0.2
 40
0.2
 40
0.2
 40
0.2
 40
0.3
 40
0.3
 40
0.3
 40
0.3
 40
0.4
 40
0.4
 40
0.4
 40
0.4
 40
0.5
 40
0.5
 40
0.5
 40
0.5
 40
0.6
 40
0.6
 40
0.6
 40
0.6
 40
0.7
 40
0.7
 40
0.7
 40
0.7
 40
0.8
 40
0.8
 40
0.8
 40
0.8
 40
1.0
 40
1.0
 40
1.0
 40
1.0
 10
51.5337
 20
-19.2927
 30
0.0
 10
51.5337
 20
-19.3784
 30
0.0
 10
51.5521
 20
-19.4602
 30
0.0
 10
51.5883
 20
-19.5383
 30
0.0
 10
51.5883
 20
-19.5383
 30
0.0
 10
51.6245
 20
-19.6164
 30
0.0
 10
51.6753
 20
-19.6756
 30
0.0
 10
51.7402
 20
-19.7165
 30
0.0
 10
51.7402
 20
-19.7165
 30
0.0
 10
51.8056
 20
-19.7575
 30
0.0
 10
51.8743
 20
-19.7782
 30
0.0
 10
51.9458
 20
-19.7782
 30
0.0
 10
51.9458
 20
-19.7782
 30
0.0
 10
52.0507
 20
-19.7782
 30
0.0
 10
52.1405
 20
-19.7358
 30
0.0
 10
52.2158
 20
-19.6512
 30
0.0
 10
52.2158
 20
-19.6512
 30
0.0
 10
52.291
 20
-19.5665
 30
0.0
 10
52.3287
 20
-19.4517
 30
0.0
 10
52.3287
 20
-19.3069
 30
0.0
 10
52.3287
 20
-19.3069
 30
0.0
 10
52.3287
 20
-19.1672
 30
0.0
 10
52.2915
 20
-19.0571
 30
0.0
 10
52.2172
 20
-18.9767
 30
0.0
 10
52.2172
 20
-18.9767
 30
0.0
 10
52.1429
 20
-18.8962
 30
0.0
 10
52.0493
 20
-18.8562
 30
0.0
 10
51.9364
 20
-18.8562
 30
0.0
 10
51.9364
 20
-18.8562
 30
0.0
 10
51.824
 20
-18.8562
 30
0.0
 10
51.7289
 20
-18.8962
 30
0.0
 10
51.6509
 20
-18.9767
 30
0.0
 10
51.6509
 20
-18.9767
 30
0.0
 10
51.5728
 20
-19.0571
 30
0.0
 10
51.5337
 20
-19.1625
 30
0.0
 10
51.5337
 20
-19.2927
 30
0.0
  0
ENDSEC
  0
SECTION
  2
OBJECTS
  0
DICTIONARY
  5
C
330
0
100
AcDbDictionary
  3
ACAD_GROUP
350
D
  3
ACAD_LAYOUT
350
1A
  3
ACAD_MATERIAL
350
3B
  3
ACAD_MLEADERSTYLE
350
7F
  3
ACAD_MLINESTYLE
350
17
  3
ACAD_PLOTSETTINGS
350
19
  3
ACAD_VISUALSTYLE
350
2A
  3
ACDBHEADERROUNDTRIPXREC
350
5D
  3
ACDBVARIABLEDICTIONARY
350
7D
  0
DICTIONARY
  5
D
102
{ACAD_REACTORS
330
C
102
}
330
C
100
AcDbDictionary
  0
DICTIONARY
  5
1A
102
{ACAD_REACTORS
330
C
102
}
330
C
100
AcDbDictionary
  0
DICTIONARY
  5
3B
102
{ACAD_REACTORS
330
C
102
}
330
C
100
AcDbDictionary
  3
BYBLOCK
350
3D
  3
BYLAYER
350
3C
  3
GLOBAL
350
3E
  0
DICTIONARY
  5
7F
102
{ACAD_REACTORS
330
C
102
}
330
C
100
AcDbDictionary
  0
DICTIONARY
  5
17
102
{ACAD_REACTORS
330
C
102
}
330
C
100
AcDbDictionary
  3
STANDARD
350
18
  0
DICTIONARY
  5
19
102
{ACAD_REACTORS
330
C
102
}
330
C
100
AcDbDictionary
  0
DICTIONARY
  5
2A
102
{ACAD_REACTORS
330
C
102
}
330
C
100
AcDbDictionary
  3
2DWIREFRAME
350
2F
  3
3D_HIDDEN
350
31
  3
3DWIREFRAME
350
30
  3
BASIC
350
32
  3
BRIGHTEN
350
36
  3
COLORCHANGE
350
3A
  3
CONCEPTUAL
350
34
  3
DIM
350
35
  3
FACEPATTERN
350
39
  3
FLAT
350
2B
  3
FLATWITHEDGES
350
2C
  3
GOURAUD
350
2D
  3
GOURAUDWITHEDGES
350
2E
  3
LINEPATTERN
350
38
  3
REALISTIC
350
33
  3
THICKEN
350
37
  0
DICTIONARY
  5
5D
102
{ACAD_REACTORS
330
C
102
}
330
C
100
AcDbDictionary
  3
CEPSNTYPE
350
66
  3
DIMSTYLEDATA
350
7C
  3
FINGERPRINTGUID
350
67
  3
HYPERLINKBASE
350
60
  3
INSUNITS
350
65
  3
LAYOUTDICT
350
62
  3
LWETCUNION
350
64
  3
PLOTSETDICT
350
63
  3
PSVPSCALE
350
69
  3
PUCSBASE
350
6C
  3
PUCSORGBACK
350
72
  3
PUCSORGBOTTOM
350
6E
  3
PUCSORGFRONT
350
71
  3
PUCSORGLEFT
350
6F
  3
PUCSORGRIGHT
350
70
  3
PUCSORGTOP
350
6D
  3
PUCSORTHOREF
350
6A
  3
PUCSORTHOVIEW
350
6B
  3
STYLESHEET
350
61
  3
TSTACKALIGN
350
5E
  3
TSTACKSIZE
350
5F
  3
UCSBASE
350
75
  3
UCSORGBACK
350
7B
  3
UCSORGBOTTOM
350
77
  3
UCSORGFRONT
350
7A
  3
UCSORGLEFT
350
78
  3
UCSORGRIGHT
350
79
  3
UCSORGTOP
350
76
  3
UCSORTHOREF
350
73
  3
UCSORTHOVIEW
350
74
  3
VERSIONGUID
350
68
  0
DICTIONARY
  5
7D
102
{ACAD_REACTORS
330
C
102
}
330
C
100
AcDbDictionary
  3
DIMASSOC
350
80
  3
HIDETEXT
350
81
  0
MATERIAL
  5
3D
102
{ACAD_REACTORS
330
3B
102
}
102
{ACAD_XDICTIONARY
360
84
102
}
330
3B
100
AcDbMaterial
  1
ByBlock
  0
MATERIAL
  5
3C
102
{ACAD_REACTORS
330
3B
102
}
102
{ACAD_XDICTIONARY
360
82
102
}
330
3B
100
AcDbMaterial
  1
ByLayer
  0
MATERIAL
  5
3E
102
{ACAD_REACTORS
330
3B
102
}
102
{ACAD_XDICTIONARY
360
86
102
}
330
3B
100
AcDbMaterial
  1
Global
  0
MLINESTYLE
  5
18
102
{ACAD_REACTORS
330
17
102
}
330
17
100
AcDbMlineStyle
  2
Standard
 70
     0
  3

 62
   256
 51
90.0
 52
90.0
 71
     2
 49
0.5
 62
   256
  6
BYLAYER
 49
-0.5
 62
   256
  6
BYLAYER
  0
ACAD_PROXY_OBJECT
  5
2F
102
{ACAD_REACTORS
330
2A
102
}
330
2A
100
AcDbProxyObject
 90
      499
 91
      501
 93
      436
310
42CC9915DA5C99599C985B595049028333333333333E3BF0000000000000FB0107901411070040501600405405064090741402480A0340
1001
ACAD
1000
AcDbSavedByObjectVersion
1070
     0
  0
ACAD_PROXY_OBJECT
  5
31
102
{ACAD_REACTORS
330
2A
102
}
330
2A
100
AcDbProxyObject
 90
      499
 91
      501
 93
      500
310
424CD108121A5919195B90640502408333333333333E3BF0000000000000FB01079024090700405020000000000001110200405405064090740C02480A0340
1001
ACAD
1000
AcDbSavedByObjectVersion
1070
     0
  0
ACAD_PROXY_OBJECT
  5
30
102
{ACAD_REACTORS
330
2A
102
}
330
2A
100
AcDbProxyObject
 90
      499
 91
      501
 93
      436
310
42CCD915DA5C99599C985B595059028333333333333E3BF0000000000000FB0107901411070040501600405405064090741402480A0340
1001
ACAD
1000
AcDbSavedByObjectVersion
1070
     0
  0
ACAD_PROXY_OBJECT
  5
32
102
{ACAD_REACTORS
330
2A
102
}
330
2A
100
AcDbProxyObject
 90
      499
 91
      501
 93
      388
310
4150985CDA58D07406404333333333333E3BF0000000000000FB0107A41107004050150841D405064090741402480A0350
1001
ACAD
1000
AcDbSavedByObjectVersion
1070
     0
  0
ACAD_PROXY_OBJECT
  5
36
102
{ACAD_REACTORS
330
2A
102
}
330
2A
100
AcDbProxyObject
 90
      499
 91
      501
 93
      428
310
42109C9A59DA1D195B90C409028333333333333E3BF0000000000000FB010790141107004050150841D405064090741402480A029950
1001
ACAD
1000
AcDbSavedByObjectVersion
1070
     0
  0
ACAD_PROXY_OBJECT
  5
3A
102
{ACAD_REACTORS
330
2A
102
}
330
2A
100
AcDbProxyObject
 90
      499
 91
      501
 93
      452
310
42D0DBDB1BDC90DA185B99D95104090240C333333333333E3BF0000000000000FB0108901411070040501508421405064090741402480A0350
1001
ACAD
1000
AcDbSavedByObjectVersion
1070
     0
  0
ACAD_PROXY_OBJECT
  5
34
102
{ACAD_REACTORS
330
2A
102
}
330
2A
100
AcDbProxyObject
 90
      499
 91
      501
 93
      500
310
4290DBDB98D95C1D1D585B10940D028333333333333E3BF0000000000000FB0107902409070040501000000000000111010841D405064090740C02480A0340
1001
ACAD
1000
AcDbSavedByObjectVersion
1070
     0
  0
ACAD_PROXY_OBJECT
  5
35
102
{ACAD_REACTORS
330
2A
102
}
330
2A
100
AcDbProxyObject
 90
      499
 91
      501
 93
      412
310
40D11A5B50B409028333333333333E3BF0000000000000FB010790141107004050150841D405064090741402480A02677FFFFFD0
1001
ACAD
1000
AcDbSavedByObjectVersion
1070
     0
  0
ACAD_PROXY_OBJECT
  5
39
102
{ACAD_REACTORS
330
2A
102
}
330
2A
100
AcDbProxyObject
 90
      499
 91
      501
 93
      444
310
42D19858D95C185D1D195C9B90F409028333333333333E3BF0000000000000FB010790141107004050150841D405064090741402480A0350
1001
ACAD
1000
AcDbSavedByObjectVersion
1070
     0
  0
ACAD_PROXY_OBJECT
  5
2B
102
{ACAD_REACTORS
330
2A
102
}
330
2A
100
AcDbProxyObject
 90
      499
 91
      501
 93
      388
310
41119B185D240901404333333333333E3BF0000000000000F9010740A41107004050150841D405064090741402480A1B50
1001
ACAD
1000
AcDbSavedByObjectVersion
1070
     0
  0
ACAD_PROXY_OBJECT
  5
2C
102
{ACAD_REACTORS
330
2A
102
}
330
2A
100
AcDbProxyObject
 90
      499
 91
      501
 93
      476
310
43519B185D15DA5D1A115919D95CD0140901404333333333333E3BF0000000000000F9010740901411070040501600405405064090741402480A1B50
1001
ACAD
1000
AcDbSavedByObjectVersion
1070
     0
  0
ACAD_PROXY_OBJECT
  5
2D
102
{ACAD_REACTORS
330
2A
102
}
330
2A
100
AcDbProxyObject
 90
      499
 91
      501
 93
      412
310
41D1DBDD5C985D5910240902404333333333333E3BF0000000000000F9010740A411070040501641D405064090741402480A1B50
1001
ACAD
1000
AcDbSavedByObjectVersion
1070
     0
  0
ACAD_PROXY_OBJECT
  5
2E
102
{ACAD_REACTORS
330
2A
102
}
330
2A
100
AcDbProxyObject
 90
      499
 91
      501
 93
      500
310
4411DBDD5C985D5915DA5D1A115919D95CD0340902404333333333333E3BF0000000000000F9010740901411070040501600405405064090741402480A1B50
1001
ACAD
1000
AcDbSavedByObjectVersion
1070
     0
  0
ACAD_PROXY_OBJECT
  5
38
102
{ACAD_REACTORS
330
2A
102
}
330
2A
100
AcDbProxyObject
 90
      499
 91
      501
 93
      444
310
42D31A5B995C185D1D195C9B90E409028333333333333E3BF0000000000000FB010790141107004050750841D405064090741402483A0350
1001
ACAD
1000
AcDbSavedByObjectVersion
1070
     0
  0
ACAD_PROXY_OBJECT
  5
33
102
{ACAD_REACTORS
330
2A
102
}
330
2A
100
AcDbProxyObject
 90
      499
 91
      501
 93
      420
310
425499585B1A5CDD1A58D08409028333333333333E3BF0000000000000FB01079019070040501508421405064090741402480A1B40
1001
ACAD
1000
AcDbSavedByObjectVersion
1070
     0
  0
ACAD_PROXY_OBJECT
  5
37
102
{ACAD_REACTORS
330
2A
102
}
330
2A
100
AcDbProxyObject
 90
      499
 91
      501
 93
      412
310
41D51A1A58DAD95B90D409028333333333333E3BF0000000000000FB010790141107004050150C41D405064090741402480A0350
1001
ACAD
1000
AcDbSavedByObjectVersion
1070
     0
  0
XRECORD
  5
66
102
{ACAD_REACTORS
330
5D
102
}
330
5D
100
AcDbXrecord
 90
        0
  0
XRECORD
  5
7C
102
{ACAD_REACTORS
330
5D
102
}
330
5D
100
AcDbXrecord
1000
DSTYLE
1002
{
1070
   340
340
11
1002
}
  0
XRECORD
  5
67
102
{ACAD_REACTORS
330
5D
102
}
330
5D
100
AcDbXrecord
  1
{999E3E83-A046-4585-8D6B-9A3CD5760FCB}
  0
XRECORD
  5
60
102
{ACAD_REACTORS
330
5D
102
}
330
5D
100
AcDbXrecord
  1

  0
XRECORD
  5
65
102
{ACAD_REACTORS
330
5D
102
}
330
5D
100
AcDbXrecord
 90
        4
  0
XRECORD
  5
62
102
{ACAD_REACTORS
330
5D
102
}
330
5D
100
AcDbXrecord
340
1A
  0
XRECORD
  5
64
102
{ACAD_REACTORS
330
5D
102
}
330
5D
100
AcDbXrecord
 90
    10781
  0
XRECORD
  5
63
102
{ACAD_REACTORS
330
5D
102
}
330
5D
100
AcDbXrecord
340
19
  0
XRECORD
  5
69
102
{ACAD_REACTORS
330
5D
102
}
330
5D
100
AcDbXrecord
 40
0.0
  0
XRECORD
  5
6C
102
{ACAD_REACTORS
330
5D
102
}
330
5D
100
AcDbXrecord
340
0
  0
XRECORD
  5
72
102
{ACAD_REACTORS
330
5D
102
}
330
5D
100
AcDbXrecord
 10
0.0
 20
0.0
 30
0.0
  0
XRECORD
  5
6E
102
{ACAD_REACTORS
330
5D
102
}
330
5D
100
AcDbXrecord
 10
0.0
 20
0.0
 30
0.0
  0
XRECORD
  5
71
102
{ACAD_REACTORS
330
5D
102
}
330
5D
100
AcDbXrecord
 10
0.0
 20
0.0
 30
0.0
  0
XRECORD
  5
6F
102
{ACAD_REACTORS
330
5D
102
}
330
5D
100
AcDbXrecord
 10
0.0
 20
0.0
 30
0.0
  0
XRECORD
  5
70
102
{ACAD_REACTORS
330
5D
102
}
330
5D
100
AcDbXrecord
 10
0.0
 20
0.0
 30
0.0
  0
XRECORD
  5
6D
102
{ACAD_REACTORS
330
5D
102
}
330
5D
100
AcDbXrecord
 10
0.0
 20
0.0
 30
0.0
  0
XRECORD
  5
6A
102
{ACAD_REACTORS
330
5D
102
}
330
5D
100
AcDbXrecord
340
0
  0
XRECORD
  5
6B
102
{ACAD_REACTORS
330
5D
102
}
330
5D
100
AcDbXrecord
 70
     0
  0
XRECORD
  5
61
102
{ACAD_REACTORS
330
5D
102
}
330
5D
100
AcDbXrecord
  1

  0
XRECORD
  5
5E
102
{ACAD_REACTORS
330
5D
102
}
330
5D
100
AcDbXrecord
 90
        1
  0
XRECORD
  5
5F
102
{ACAD_REACTORS
330
5D
102
}
330
5D
100
AcDbXrecord
 90
       70
  0
XRECORD
  5
75
102
{ACAD_REACTORS
330
5D
102
}
330
5D
100
AcDbXrecord
340
0
  0
XRECORD
  5
7B
102
{ACAD_REACTORS
330
5D
102
}
330
5D
100
AcDbXrecord
 10
0.0
 20
0.0
 30
0.0
  0
XRECORD
  5
77
102
{ACAD_REACTORS
330
5D
102
}
330
5D
100
AcDbXrecord
 10
0.0
 20
0.0
 30
0.0
  0
XRECORD
  5
7A
102
{ACAD_REACTORS
330
5D
102
}
330
5D
100
AcDbXrecord
 10
0.0
 20
0.0
 30
0.0
  0
XRECORD
  5
78
102
{ACAD_REACTORS
330
5D
102
}
330
5D
100
AcDbXrecord
 10
0.0
 20
0.0
 30
0.0
  0
XRECORD
  5
79
102
{ACAD_REACTORS
330
5D
102
}
330
5D
100
AcDbXrecord
 10
0.0
 20
0.0
 30
0.0
  0
XRECORD
  5
76
102
{ACAD_REACTORS
330
5D
102
}
330
5D
100
AcDbXrecord
 10
0.0
 20
0.0
 30
0.0
  0
XRECORD
  5
73
102
{ACAD_REACTORS
330
5D
102
}
330
5D
100
AcDbXrecord
340
0
  0
XRECORD
  5
74
102
{ACAD_REACTORS
330
5D
102
}
330
5D
100
AcDbXrecord
 70
     0
  0
XRECORD
  5
68
102
{ACAD_REACTORS
330
5D
102
}
330
5D
100
AcDbXrecord
  1
{FAEB1C32-E019-11D5-929B-00C0DF256EC4}
  0
DICTIONARYVAR
  5
80
102
{ACAD_REACTORS
330
7D
102
}
330
7D
100
DictionaryVariables
280
     0
  1
2
  0
DICTIONARYVAR
  5
81
102
{ACAD_REACTORS
330
7D
102
}
330
7D
100
DictionaryVariables
280
     0
  1
1
  0
DICTIONARY
  5
84
330
3D
100
AcDbDictionary
280
     1
  3
ACAD_XREC_ROUNDTRIP
360
85
  0
DICTIONARY
  5
82
330
3C
100
AcDbDictionary
280
     1
  3
ACAD_XREC_ROUNDTRIP
360
83
  0
DICTIONARY
  5
86
330
3E
100
AcDbDictionary
280
     1
  3
ACAD_XREC_ROUNDTRIP
360
87
  0
XRECORD
  5
85
102
{ACAD_REACTORS
330
84
102
}
330
84
100
AcDbXrecord
102
MATERIAL
148
0.0
149
0.0
149
0.0
 93
        0
 94
      127
282
     0
 72
     1
 77
     1
171
     1
175
     1
179
     1
273
     0
  0
XRECORD
  5
83
102
{ACAD_REACTORS
330
82
102
}
330
82
100
AcDbXrecord
102
MATERIAL
148
0.0
149
0.0
149
0.0
 93
        0
 94
      127
282
     0
 72
     1
 77
     1
171
     1
175
     1
179
     1
273
     0
  0
XRECORD
  5
87
102
{ACAD_REACTORS
330
86
102
}
330
86
100
AcDbXrecord
102
MATERIAL
148
0.0
149
0.0
149
0.0
 93
        0
 94
      127
282
     0
 72
     1
 77
     1
171
     1
175
     1
179
     1
273
     0
  0
ENDSEC
  0
EOF
